  0
SECTION
  2
HEADER
  9
$ACADVER
  1
AC1006
  9
$INSBASE
 10
60.675323
 20
-22.528422
 30
0.0
  9
$EXTMIN
 10
60.675323
 20
-22.528422
  9
$EXTMAX
 10
1081.475359
 20
1096.771578
  9
$LIMMIN
 10
60.675323
 20
-22.528422
  9
$LIMMAX
 10
1081.475359
 20
1096.771578
  9
$VIEWCTR
 10
571.075341
 20
537.121578
  9
$VIEWSIZE
 40
1119.300000
  9
$SNAPMODE
 70
     0
  9
$SNAPUNIT
 10
1.0
 20
1.0
  9
$SNAPBASE
 10
0.0
 20
0.0
  9
$SNAPANG
 50
0.0
  9
$SNAPSTYLE
 70
     0
  9
$SNAPISOPAIR
 70
     0
  9
$GRIDMODE
 70
     0
  9
$GRIDUNIT
 10
0.0
 20
0.0
  9
$ORTHOMODE
 70
     0
  9
$REGENMODE
 70
     1
  9
$FILLMODE
 70
     1
  9
$QTEXTMODE
 70
     0
  9
$DRAGMODE
 70
     2
  9
$LTSCALE
 40
15.000000
  9
$OSMODE
 70
     0
  9
$ATTMODE
 70
     1
  9
$TEXTSIZE
 40
0.2
  9
$TRACEWID
 40
0.05
  9
$TEXTSTYLE
  7
STANDARD
  9
$CLAYER
  8
CSLAYER1
  9
$CELTYPE
  6
BYLAYER
  9
$CECOLOR
 62
   256
  9
$DIMSCALE
 40
1.0
  9
$DIMASZ
 40
0.18
  9
$DIMEXO
 40
0.0625
  9
$DIMDLI
 40
0.38
  9
$DIMRND
 40
0.0
  9
$DIMDLE
 40
0.0
  9
$DIMEXE
 40
0.18
  9
$DIMTP
 40
0.0
  9
$DIMTM
 40
0.0
  9
$DIMTXT
 40
0.18
  9
$DIMCEN
 40
0.09
  9
$DIMTSZ
 40
0.0
  9
$DIMTOL
 70
     0
  9
$DIMLIM
 70
     0
  9
$DIMTIH
 70
     1
  9
$DIMTOH
 70
     1
  9
$DIMSE1
 70
     0
  9
$DIMSE2
 70
     0
  9
$DIMTAD
 70
     0
  9
$DIMZIN
 70
     0
  9
$DIMBLK
  1

  9
$LUNITS
 70
     2
  9
$LUPREC
 70
     4
  9
$AXISMODE
 70
     0
  9
$AXISUNIT
 10
0.0
 20
0.0
  9
$SKETCHINC
 40
0.1
  9
$FILLETRAD
 40
0.0
  9
$AUNITS
 70
     0
  9
$AUPREC
 70
     0
  9
$MENU
  1
ACAD
  9
$ELEVATION
 40
0.0
  9
$THICKNESS
 40
0.0
  9
$VIEWDIR
 10
0.0
 20
0.0
 30
1.0
  9
$LIMCHECK
 70
     0
  9
$BLIPMODE
 70
     1
  9
$CHAMFERA
 40
0.0
  9
$CHAMFERB
 40
0.0
  9
$FASTZOOM
 70
     1
  9
$SKPOLY
 70
     0
  9
$TDCREATE
 40
2456568.000000
  9
$TDUPDATE
 40
2456568.000000
  9
$TDINDWG
 40
0.0
  9
$TDUSRTIMER
 40
0.0
  9
$USRTIMER
 70
     1
  9
$ANGBASE
 50
0.0
  9
$ANGDIR
 70
     0
  9
$PDMODE
 70
     0
  9
$PDSIZE
 40
0.0
  9
$PLINEWID
 40
0.0
  9
$COORDS
 70
     0
  9
$USERI1
 70
     0
  9
$USERI2
 70
     0
  9
$USERI3
 70
     0
  9
$USERI4
 70
     0
  9
$USERI5
 70
     0
  9
$USERR1
 40
0.0
  9
$USERR2
 40
0.0
  9
$USERR3
 40
0.0
  9
$USERR4
 40
0.0
  9
$USERR5
 40
0.0
  0
ENDSEC
  0
SECTION
  2
TABLES
  0
TABLE
  2
LTYPE
 70
     9
  0
LTYPE
  2
CONTINUOUS
 70
    64
  3
Solid line
 72
    65
 73
     0
 40
0.0
  0
LTYPE
  2
DASHED
 70
    64
  3
__ __ __ __ __ __ __ __ __ __ __ __ __ __ __
 72
    65
 73
     2
 40
0.75
 49
0.5
 49
-0.25
  0
LTYPE
  2
HIDDEN
 70
    64
  3
_ _ _ _ _ _ _ _ _ _ _ _ _ _ _ _ _ _ _ _ _ _ _
 72
    65
 73
     2
 40
0.375
 49
0.25
 49
-0.125
  0
LTYPE
  2
DOT
 70
    64
  3
...............................................
 72
    65
 73
     2
 40
0.25
 49
0.0
 49
-0.25
  0
LTYPE
  2
DASHDOT
 70
    64
  3
__ . __ . __ . __ . __ . __ . __ . __ . __ . __
 72
    65
 73
     4
 40
1.0
 49
0.5
 49
-0.25
 49
0.0
 49
-0.25
  0
LTYPE
  2
DIVIDE
 70
    64
  3
__ . . __ . . __ . . __ . . __ . . __ . . __
 72
    65
 73
     6
 40
1.25
 49
0.5
 49
-0.25
 49
0.0
 49
-0.25
 49
0.0
 49
-0.25
  0
LTYPE
  2
CENTER
 70
    64
  3
____ _ ____ _ ____ _ ____ _ ____ _ ____ _ ____ 
 72
    65
 73
     4
 40
2.0
 49
1.25
 49
-0.25
 49
0.25
 49
-0.25
  0
LTYPE
  2
PHANTOM
 70
    64
  3
______  __  __  ______  __  __  ______  __  __ 
 72
    65
 73
     6
 40
2.5
 49
1.25
 49
-0.25
 49
0.25
 49
-0.25
 49
0.25
 49
-0.25
  0
LTYPE
  2
BORDER
 70
    64
  3
__ __ . __ __ . __ __ . __ __ . __ __ . __ __ .
 72
    65
 73
     6
 40
1.75
 49
0.5
 49
-0.25
 49
0.5
 49
-0.25
 49
0.0
 49
-0.25
  0
ENDTAB
  0
TABLE
  2
LAYER
 70
    16
  0
LAYER
  2
CSLAYER1
 70
    64
 62
     7
  6
CONTINUOUS
  0
LAYER
  2
CSLAYER2
 70
    64
 62
     7
  6
CONTINUOUS
  0
LAYER
  2
CSLAYER3
 70
    64
 62
     7
  6
CONTINUOUS
  0
LAYER
  2
CSLAYER4
 70
    64
 62
     7
  6
CONTINUOUS
  0
LAYER
  2
CSLAYER5
 70
    64
 62
     7
  6
CONTINUOUS
  0
LAYER
  2
CSLAYER6
 70
    64
 62
     7
  6
CONTINUOUS
  0
LAYER
  2
CSLAYER7
 70
    64
 62
     7
  6
CONTINUOUS
  0
LAYER
  2
CSLAYER8
 70
    64
 62
     7
  6
CONTINUOUS
  0
LAYER
  2
CSLAYER9
 70
    64
 62
     7
  6
CONTINUOUS
  0
LAYER
  2
CSLAYER10
 70
    64
 62
     7
  6
CONTINUOUS
  0
LAYER
  2
CSLAYER11
 70
    64
 62
     7
  6
CONTINUOUS
  0
LAYER
  2
CSLAYER12
 70
    64
 62
     7
  6
CONTINUOUS
  0
LAYER
  2
CSLAYER13
 70
    64
 62
     7
  6
CONTINUOUS
  0
LAYER
  2
CSLAYER14
 70
    64
 62
     7
  6
CONTINUOUS
  0
LAYER
  2
CSLAYER15
 70
    64
 62
     7
  6
CONTINUOUS
  0
LAYER
  2
CSLAYER16
 70
    64
 62
     7
  6
CONTINUOUS
  0
ENDTAB
  0
TABLE
  2
STYLE
 70
     1
  0
STYLE
  2
EASYDRAW_FONT
 70
     0
 40
1.0
 41
1.0
 50
0.0
 71
     0
 42
1.0
  3
monotxt
  4
bigfont
  0
ENDTAB
  0
TABLE
  2
VIEW
 70
     0
  0
ENDTAB
  0
ENDSEC
  0
SECTION
  2
BLOCKS
  0
BLOCK
  8
CSLAYER1
  2
BLKF0000
 70
   64
 10
0.0
 20
0.0
 30
0.0
  0
LINE
  8
CSLAYER1
  6
CONTINUOUS
 62
     7
 10
45.000036
 20
30.000000
 11
24.000036
 21
30.000000
  0
LINE
  8
CSLAYER1
  6
CONTINUOUS
 62
     7
 10
45.000036
 20
590.000000
 11
24.000036
 21
590.000000
  0
LINE
  8
CSLAYER1
  6
CONTINUOUS
 62
     7
 10
25.000036
 20
30.000000
 11
25.000036
 21
590.000000
  0
LINE
  8
CSLAYER1
  6
CONTINUOUS
 62
     7
 10
25.000036
 20
30.000000
 11
24.223579
 21
32.897777
  0
LINE
  8
CSLAYER1
  6
CONTINUOUS
 62
     7
 10
25.000036
 20
30.000000
 11
25.776494
 21
32.897777
  0
LINE
  8
CSLAYER1
  6
CONTINUOUS
 62
     7
 10
25.000036
 20
590.000000
 11
24.223579
 21
587.102222
  0
LINE
  8
CSLAYER1
  6
CONTINUOUS
 62
     7
 10
25.000036
 20
590.000000
 11
25.776494
 21
587.102222
  0
TEXT
  8
CSLAYER1
 62
     7
 10
24.000000
 20
305.500000
 40
4.000000
 41
0.843750
  1
560
 50
90.000000
 51
0.000000
  7
EASYDRAW_FONT
 72
     5
 11
24.000000
 21
314.500000
  0
ENDBLK
  8
0
  0
BLOCK
  8
CSLAYER1
  2
BLKF0001
 70
   64
 10
0.0
 20
0.0
 30
0.0
  0
LINE
  8
CSLAYER1
  6
CONTINUOUS
 62
     7
 10
895.000036
 20
30.000000
 11
1000.800036
 21
30.000000
  0
LINE
  8
CSLAYER1
  6
CONTINUOUS
 62
     7
 10
990.800036
 20
310.000000
 11
1000.800036
 21
310.000000
  0
LINE
  8
CSLAYER1
  6
CONTINUOUS
 62
     7
 10
999.800036
 20
30.000000
 11
999.800036
 21
310.000000
  0
LINE
  8
CSLAYER1
  6
CONTINUOUS
 62
     7
 10
999.800036
 20
30.000000
 11
999.023579
 21
32.897777
  0
LINE
  8
CSLAYER1
  6
CONTINUOUS
 62
     7
 10
999.800036
 20
30.000000
 11
1000.576494
 21
32.897777
  0
LINE
  8
CSLAYER1
  6
CONTINUOUS
 62
     7
 10
999.800036
 20
310.000000
 11
999.023579
 21
307.102222
  0
LINE
  8
CSLAYER1
  6
CONTINUOUS
 62
     7
 10
999.800036
 20
310.000000
 11
1000.576494
 21
307.102222
  0
TEXT
  8
CSLAYER1
 62
     7
 10
998.800049
 20
165.500000
 40
4.000000
 41
0.843750
  1
280
 50
90.000000
 51
0.000000
  7
EASYDRAW_FONT
 72
     5
 11
998.800049
 21
174.500000
  0
ENDBLK
  8
0
  0
BLOCK
  8
CSLAYER1
  2
BLKF0002
 70
   64
 10
0.0
 20
0.0
 30
0.0
  0
LINE
  8
CSLAYER1
  6
CONTINUOUS
 62
     7
 10
895.000036
 20
590.000000
 11
1000.800036
 21
590.000000
  0
LINE
  8
CSLAYER1
  6
CONTINUOUS
 62
     7
 10
999.800036
 20
310.000000
 11
999.800036
 21
590.000000
  0
LINE
  8
CSLAYER1
  6
CONTINUOUS
 62
     7
 10
999.800036
 20
310.000000
 11
999.023579
 21
312.897777
  0
LINE
  8
CSLAYER1
  6
CONTINUOUS
 62
     7
 10
999.800036
 20
310.000000
 11
1000.576494
 21
312.897777
  0
LINE
  8
CSLAYER1
  6
CONTINUOUS
 62
     7
 10
999.800036
 20
590.000000
 11
999.023579
 21
587.102222
  0
LINE
  8
CSLAYER1
  6
CONTINUOUS
 62
     7
 10
999.800036
 20
590.000000
 11
1000.576494
 21
587.102222
  0
TEXT
  8
CSLAYER1
 62
     7
 10
998.800049
 20
445.500000
 40
4.000000
 41
0.843750
  1
280
 50
90.000000
 51
0.000000
  7
EASYDRAW_FONT
 72
     5
 11
998.800049
 21
454.500000
  0
ENDBLK
  8
0
  0
BLOCK
  8
CSLAYER1
  2
BLKF0003
 70
   64
 10
0.0
 20
0.0
 30
0.0
  0
LINE
  8
CSLAYER1
  6
CONTINUOUS
 62
     7
 10
695.000036
 20
601.000000
 11
695.000036
 21
611.000000
  0
LINE
  8
CSLAYER1
  6
CONTINUOUS
 62
     7
 10
979.800036
 20
311.000000
 11
979.800036
 21
611.000000
  0
LINE
  8
CSLAYER1
  6
CONTINUOUS
 62
     7
 10
695.000036
 20
610.000000
 11
979.800036
 21
610.000000
  0
LINE
  8
CSLAYER1
  6
CONTINUOUS
 62
     7
 10
695.000036
 20
610.000000
 11
697.897814
 21
610.776457
  0
LINE
  8
CSLAYER1
  6
CONTINUOUS
 62
     7
 10
695.000036
 20
610.000000
 11
697.897814
 21
609.223543
  0
LINE
  8
CSLAYER1
  6
CONTINUOUS
 62
     7
 10
979.800036
 20
610.000000
 11
976.902259
 21
610.776457
  0
LINE
  8
CSLAYER1
  6
CONTINUOUS
 62
     7
 10
979.800036
 20
610.000000
 11
976.902259
 21
609.223543
  0
TEXT
  8
CSLAYER1
 62
     7
 10
832.900024
 20
611.000000
 40
4.000000
 41
0.843750
  1
285
 50
0.000000
 51
0.000000
  7
EASYDRAW_FONT
 72
     5
 11
841.900024
 21
611.000000
  0
ENDBLK
  8
0
  0
ENDSEC
  0
SECTION
  2
ENTITIES
  0
LINE
  8
CSLAYER1
  6
CENTER
 62
     7
 10
695.000036
 20
600.000000
 11
695.000036
 21
20.000000
  0
LINE
  8
CSLAYER1
  6
CONTINUOUS
 62
     7
 10
495.000036
 20
589.000000
 11
495.000036
 21
561.000000
  0
LINE
  8
CSLAYER1
  6
CONTINUOUS
 62
     7
 10
495.000036
 20
59.000000
 11
495.000036
 21
31.000000
  0
LINE
  8
CSLAYER1
  6
CONTINUOUS
 62
     7
 10
497.000036
 20
559.000000
 11
695.000036
 21
559.000000
  0
LINE
  8
CSLAYER1
  6
CONTINUOUS
 62
     7
 10
540.000036
 20
554.000000
 11
540.000036
 21
500.000000
  0
LINE
  8
CSLAYER1
  6
CONTINUOUS
 62
     7
 10
695.000036
 20
490.000000
 11
515.000036
 21
490.000000
  0
LINE
  8
CSLAYER1
  6
CONTINUOUS
 62
     7
 10
515.000036
 20
150.000000
 11
695.000036
 21
150.000000
  0
LINE
  8
CSLAYER1
  6
CONTINUOUS
 62
     7
 10
546.000036
 20
140.000000
 11
546.000036
 21
66.000000
  0
LINE
  8
CSLAYER1
  6
CONTINUOUS
 62
     7
 10
695.000036
 20
61.000000
 11
497.000036
 21
61.000000
  0
LINE
  8
CSLAYER1
  6
CONTINUOUS
 62
     7
 10
496.000036
 20
590.000000
 11
695.000036
 21
590.000000
  0
LINE
  8
CSLAYER1
  6
CONTINUOUS
 62
     7
 10
496.000036
 20
30.000000
 11
695.000036
 21
30.000000
  0
ARC
  8
CSLAYER1
  6
CONTINUOUS
 62
     7
 10
530.000036
 20
500.000000
 40
10.000000
 50
270.000000
 51
360.000000
  0
ARC
  8
CSLAYER1
  6
CONTINUOUS
 62
     7
 10
536.000036
 20
140.000000
 40
10.000000
 50
0.000000
 51
90.000000
  0
ARC
  8
CSLAYER1
  6
CONTINUOUS
 62
     7
 10
535.000036
 20
554.000000
 40
5.000000
 50
0.000000
 51
90.000000
  0
ARC
  8
CSLAYER1
  6
CONTINUOUS
 62
     7
 10
541.000036
 20
66.000000
 40
5.000000
 50
270.000000
 51
360.000000
  0
ARC
  8
CSLAYER1
  6
CONTINUOUS
 62
     7
 10
515.000036
 20
465.000000
 40
25.000000
 50
90.000000
 51
180.000000
  0
ARC
  8
CSLAYER1
  6
CONTINUOUS
 62
     7
 10
515.000036
 20
175.000000
 40
25.000000
 50
180.000000
 51
270.000000
  0
LINE
  8
CSLAYER1
  6
CONTINUOUS
 62
     7
 10
496.000036
 20
590.000000
 11
495.000036
 21
589.000000
  0
LINE
  8
CSLAYER1
  6
CONTINUOUS
 62
     7
 10
495.000036
 20
561.000000
 11
497.000036
 21
559.000000
  0
LINE
  8
CSLAYER1
  6
CONTINUOUS
 62
     7
 10
497.000036
 20
61.000000
 11
495.000036
 21
59.000000
  0
LINE
  8
CSLAYER1
  6
CONTINUOUS
 62
     7
 10
495.000036
 20
31.000000
 11
496.000036
 21
30.000000
  0
LINE
  8
CSLAYER1
  6
CENTER
 62
     7
 10
517.500036
 20
71.000000
 11
517.500036
 21
20.000000
  0
LINE
  8
CSLAYER1
  6
CENTER
 62
     7
 10
517.500036
 20
600.000000
 11
517.500036
 21
549.000000
  0
LINE
  8
CSLAYER1
  6
CONTINUOUS
 62
     7
 10
895.000036
 20
589.000000
 11
895.000036
 21
561.000000
  0
LINE
  8
CSLAYER1
  6
CONTINUOUS
 62
     7
 10
895.000036
 20
59.000000
 11
895.000036
 21
31.000000
  0
LINE
  8
CSLAYER1
  6
CONTINUOUS
 62
     7
 10
893.000036
 20
559.000000
 11
695.000036
 21
559.000000
  0
LINE
  8
CSLAYER1
  6
CONTINUOUS
 62
     7
 10
850.000036
 20
554.000000
 11
850.000036
 21
500.000000
  0
LINE
  8
CSLAYER1
  6
CONTINUOUS
 62
     7
 10
875.000036
 20
490.000000
 11
695.000036
 21
490.000000
  0
LINE
  8
CSLAYER1
  6
CONTINUOUS
 62
     7
 10
900.000036
 20
465.000000
 11
900.000036
 21
342.000000
  0
LINE
  8
CSLAYER1
  6
CONTINUOUS
 62
     7
 10
844.000036
 20
86.058368
 11
844.000036
 21
66.000000
  0
LINE
  8
CSLAYER1
  6
CONTINUOUS
 62
     7
 10
893.000036
 20
61.000000
 11
695.000036
 21
61.000000
  0
LINE
  8
CSLAYER1
  6
CONTINUOUS
 62
     7
 10
894.000036
 20
590.000000
 11
695.000036
 21
590.000000
  0
LINE
  8
CSLAYER1
  6
CONTINUOUS
 62
     7
 10
894.000036
 20
30.000000
 11
695.000036
 21
30.000000
  0
ARC
  8
CSLAYER1
  6
CONTINUOUS
 62
     7
 10
860.000036
 20
500.000000
 40
10.000000
 50
180.000000
 51
270.000000
  0
ARC
  8
CSLAYER1
  6
CONTINUOUS
 62
     7
 10
855.000036
 20
554.000000
 40
5.000000
 50
90.000000
 51
180.000000
  0
ARC
  8
CSLAYER1
  6
CONTINUOUS
 62
     7
 10
875.000036
 20
465.000000
 40
25.000000
 50
0.000000
 51
90.000000
  0
LINE
  8
CSLAYER1
  6
CONTINUOUS
 62
     7
 10
894.000036
 20
590.000000
 11
895.000036
 21
589.000000
  0
LINE
  8
CSLAYER1
  6
CONTINUOUS
 62
     7
 10
895.000036
 20
561.000000
 11
893.000036
 21
559.000000
  0
LINE
  8
CSLAYER1
  6
CONTINUOUS
 62
     7
 10
893.000036
 20
61.000000
 11
895.000036
 21
59.000000
  0
LINE
  8
CSLAYER1
  6
CONTINUOUS
 62
     7
 10
895.000036
 20
31.000000
 11
894.000036
 21
30.000000
  0
LINE
  8
CSLAYER1
  6
CONTINUOUS
 62
     7
 10
902.000036
 20
340.000000
 11
905.000036
 21
340.000000
  0
ARC
  8
CSLAYER1
  6
CONTINUOUS
 62
     7
 10
902.000036
 20
342.000000
 40
2.000000
 50
180.000000
 51
270.000000
  0
LINE
  8
CSLAYER1
  6
CONTINUOUS
 62
     7
 10
905.000036
 20
340.000000
 11
906.000036
 21
339.000000
  0
LINE
  8
CSLAYER1
  6
CENTER
 62
     7
 10
872.500036
 20
600.000000
 11
872.500036
 21
549.000000
  0
LINE
  8
CSLAYER1
  6
CENTER
 62
     7
 10
872.500036
 20
71.000000
 11
872.500036
 21
20.000000
  0
LINE
  8
CSLAYER1
  6
CONTINUOUS
 62
     7
 10
902.000036
 20
280.000000
 11
905.000036
 21
280.000000
  0
ARC
  8
CSLAYER1
  6
CONTINUOUS
 62
     7
 10
902.000036
 20
278.000000
 40
2.000000
 50
90.000000
 51
180.000000
  0
LINE
  8
CSLAYER1
  6
CONTINUOUS
 62
     7
 10
905.000036
 20
280.000000
 11
906.000036
 21
281.000000
  0
LINE
  8
CSLAYER1
  6
CONTINUOUS
 62
     7
 10
900.000036
 20
278.000000
 11
900.000036
 21
153.941631
  0
LINE
  8
CSLAYER1
  6
CONTINUOUS
 62
     7
 10
897.310589
 20
147.118449
 11
846.689484
 21
92.881550
  0
ARC
  8
CSLAYER1
  6
CONTINUOUS
 62
     7
 10
890.000036
 20
153.941631
 40
10.000000
 50
316.974934
 51
360.000000
  0
ARC
  8
CSLAYER1
  6
CONTINUOUS
 62
     7
 10
854.000036
 20
86.058368
 40
10.000000
 50
136.974934
 51
180.000000
  0
LINE
  8
CSLAYER1
  6
CENTER
 62
     7
 10
490.000036
 20
310.000000
 11
989.800036
 21
310.000000
  0
LINE
  8
CSLAYER1
  6
CONTINUOUS
 62
     7
 10
695.000036
 20
490.000000
 11
875.000036
 21
490.000000
  0
LINE
  8
CSLAYER1
  6
CONTINUOUS
 62
     7
 10
900.000036
 20
465.000000
 11
900.000036
 21
175.000000
  0
LINE
  8
CSLAYER1
  6
CONTINUOUS
 62
     7
 10
875.000036
 20
150.000000
 11
695.000036
 21
150.000000
  0
ARC
  8
CSLAYER1
  6
CONTINUOUS
 62
     7
 10
860.000036
 20
500.000000
 40
10.000000
 50
180.000000
 51
270.000000
  0
ARC
  8
CSLAYER1
  6
CONTINUOUS
 62
     7
 10
854.000036
 20
140.000000
 40
10.000000
 50
90.000000
 51
180.000000
  0
ARC
  8
CSLAYER1
  6
CONTINUOUS
 62
     7
 10
875.000036
 20
465.000000
 40
25.000000
 50
0.000000
 51
90.000000
  0
ARC
  8
CSLAYER1
  6
CONTINUOUS
 62
     7
 10
875.000036
 20
175.000000
 40
25.000000
 50
270.000000
 51
360.000000
  0
ARC
  8
CSLAYER1
  6
CONTINUOUS
 62
     7
 10
849.000036
 20
66.000000
 40
5.000000
 50
180.000000
 51
270.000000
  0
LINE
  8
CSLAYER1
  6
CONTINUOUS
 62
     7
 10
844.000036
 20
140.000000
 11
844.000036
 21
66.000000
  0
LINE
  8
CSLAYER1
  6
CENTER
 62
     7
 10
245.000036
 20
590.000000
 11
245.000036
 21
20.000000
  0
LINE
  8
CSLAYER1
  6
CONTINUOUS
 62
     7
 10
45.000036
 20
589.000000
 11
45.000036
 21
561.000000
  0
LINE
  8
CSLAYER1
  6
CONTINUOUS
 62
     7
 10
45.000036
 20
59.000000
 11
45.000036
 21
31.000000
  0
LINE
  8
CSLAYER1
  6
CONTINUOUS
 62
     7
 10
47.000036
 20
559.000000
 11
245.000036
 21
559.000000
  0
LINE
  8
CSLAYER1
  6
CONTINUOUS
 62
     7
 10
90.000036
 20
554.000000
 11
90.000036
 21
500.000000
  0
LINE
  8
CSLAYER1
  6
CONTINUOUS
 62
     7
 10
245.000036
 20
490.000000
 11
65.000036
 21
490.000000
  0
LINE
  8
CSLAYER1
  6
CONTINUOUS
 62
     7
 10
40.000036
 20
465.000000
 11
40.000036
 21
175.000000
  0
LINE
  8
CSLAYER1
  6
CONTINUOUS
 62
     7
 10
65.000036
 20
150.000000
 11
245.000036
 21
150.000000
  0
LINE
  8
CSLAYER1
  6
CONTINUOUS
 62
     7
 10
96.000036
 20
140.000000
 11
96.000036
 21
66.000000
  0
LINE
  8
CSLAYER1
  6
CONTINUOUS
 62
     7
 10
245.000036
 20
61.000000
 11
47.000036
 21
61.000000
  0
LINE
  8
CSLAYER1
  6
CONTINUOUS
 62
     7
 10
46.000036
 20
590.000000
 11
245.000036
 21
590.000000
  0
LINE
  8
CSLAYER1
  6
CONTINUOUS
 62
     7
 10
46.000036
 20
30.000000
 11
245.000036
 21
30.000000
  0
ARC
  8
CSLAYER1
  6
CONTINUOUS
 62
     7
 10
80.000036
 20
500.000000
 40
10.000000
 50
270.000000
 51
360.000000
  0
ARC
  8
CSLAYER1
  6
CONTINUOUS
 62
     7
 10
86.000036
 20
140.000000
 40
10.000000
 50
0.000000
 51
90.000000
  0
ARC
  8
CSLAYER1
  6
CONTINUOUS
 62
     7
 10
85.000036
 20
554.000000
 40
5.000000
 50
0.000000
 51
90.000000
  0
ARC
  8
CSLAYER1
  6
CONTINUOUS
 62
     7
 10
91.000036
 20
66.000000
 40
5.000000
 50
270.000000
 51
360.000000
  0
ARC
  8
CSLAYER1
  6
CONTINUOUS
 62
     7
 10
65.000036
 20
465.000000
 40
25.000000
 50
90.000000
 51
180.000000
  0
ARC
  8
CSLAYER1
  6
CONTINUOUS
 62
     7
 10
65.000036
 20
175.000000
 40
25.000000
 50
180.000000
 51
270.000000
  0
LINE
  8
CSLAYER1
  6
CONTINUOUS
 62
     7
 10
46.000036
 20
590.000000
 11
45.000036
 21
589.000000
  0
LINE
  8
CSLAYER1
  6
CONTINUOUS
 62
     7
 10
45.000036
 20
561.000000
 11
47.000036
 21
559.000000
  0
LINE
  8
CSLAYER1
  6
CONTINUOUS
 62
     7
 10
47.000036
 20
61.000000
 11
45.000036
 21
59.000000
  0
LINE
  8
CSLAYER1
  6
CONTINUOUS
 62
     7
 10
45.000036
 20
31.000000
 11
46.000036
 21
30.000000
  0
LINE
  8
CSLAYER1
  6
CENTER
 62
     7
 10
67.500036
 20
71.000000
 11
67.500036
 21
20.000000
  0
LINE
  8
CSLAYER1
  6
CENTER
 62
     7
 10
67.500036
 20
600.000000
 11
67.500036
 21
549.000000
  0
LINE
  8
CSLAYER1
  6
CONTINUOUS
 62
     7
 10
445.000036
 20
589.000000
 11
445.000036
 21
561.000000
  0
LINE
  8
CSLAYER1
  6
CONTINUOUS
 62
     7
 10
445.000036
 20
59.000000
 11
445.000036
 21
31.000000
  0
LINE
  8
CSLAYER1
  6
CONTINUOUS
 62
     7
 10
443.000036
 20
559.000000
 11
245.000036
 21
559.000000
  0
LINE
  8
CSLAYER1
  6
CONTINUOUS
 62
     7
 10
400.000036
 20
554.000000
 11
400.000036
 21
500.000000
  0
LINE
  8
CSLAYER1
  6
CONTINUOUS
 62
     7
 10
425.000036
 20
490.000000
 11
245.000036
 21
490.000000
  0
LINE
  8
CSLAYER1
  6
CONTINUOUS
 62
     7
 10
450.000036
 20
465.000000
 11
450.000036
 21
175.000000
  0
LINE
  8
CSLAYER1
  6
CONTINUOUS
 62
     7
 10
394.000036
 20
86.058368
 11
394.000036
 21
66.000000
  0
LINE
  8
CSLAYER1
  6
CONTINUOUS
 62
     7
 10
443.000036
 20
61.000000
 11
245.000036
 21
61.000000
  0
LINE
  8
CSLAYER1
  6
CONTINUOUS
 62
     7
 10
444.000036
 20
590.000000
 11
245.000036
 21
590.000000
  0
LINE
  8
CSLAYER1
  6
CONTINUOUS
 62
     7
 10
444.000036
 20
30.000000
 11
245.000036
 21
30.000000
  0
ARC
  8
CSLAYER1
  6
CONTINUOUS
 62
     7
 10
410.000036
 20
500.000000
 40
10.000000
 50
180.000000
 51
270.000000
  0
ARC
  8
CSLAYER1
  6
CONTINUOUS
 62
     7
 10
405.000036
 20
554.000000
 40
5.000000
 50
90.000000
 51
180.000000
  0
ARC
  8
CSLAYER1
  6
CONTINUOUS
 62
     7
 10
425.000036
 20
465.000000
 40
25.000000
 50
0.000000
 51
90.000000
  0
LINE
  8
CSLAYER1
  6
CONTINUOUS
 62
     7
 10
444.000036
 20
590.000000
 11
445.000036
 21
589.000000
  0
LINE
  8
CSLAYER1
  6
CONTINUOUS
 62
     7
 10
445.000036
 20
561.000000
 11
443.000036
 21
559.000000
  0
LINE
  8
CSLAYER1
  6
CONTINUOUS
 62
     7
 10
443.000036
 20
61.000000
 11
445.000036
 21
59.000000
  0
LINE
  8
CSLAYER1
  6
CONTINUOUS
 62
     7
 10
445.000036
 20
31.000000
 11
444.000036
 21
30.000000
  0
LINE
  8
CSLAYER1
  6
CENTER
 62
     7
 10
422.500036
 20
600.000000
 11
422.500036
 21
549.000000
  0
LINE
  8
CSLAYER1
  6
CENTER
 62
     7
 10
422.500036
 20
71.000000
 11
422.500036
 21
20.000000
  0
LINE
  8
CSLAYER1
  6
CONTINUOUS
 62
     7
 10
245.000036
 20
490.000000
 11
425.000036
 21
490.000000
  0
LINE
  8
CSLAYER1
  6
CONTINUOUS
 62
     7
 10
425.000036
 20
150.000000
 11
245.000036
 21
150.000000
  0
ARC
  8
CSLAYER1
  6
CONTINUOUS
 62
     7
 10
410.000036
 20
500.000000
 40
10.000000
 50
180.000000
 51
270.000000
  0
ARC
  8
CSLAYER1
  6
CONTINUOUS
 62
     7
 10
404.000036
 20
140.000000
 40
10.000000
 50
90.000000
 51
180.000000
  0
ARC
  8
CSLAYER1
  6
CONTINUOUS
 62
     7
 10
425.000036
 20
465.000000
 40
25.000000
 50
0.000000
 51
90.000000
  0
ARC
  8
CSLAYER1
  6
CONTINUOUS
 62
     7
 10
425.000036
 20
175.000000
 40
25.000000
 50
270.000000
 51
360.000000
  0
ARC
  8
CSLAYER1
  6
CONTINUOUS
 62
     7
 10
399.000036
 20
66.000000
 40
5.000000
 50
180.000000
 51
270.000000
  0
LINE
  8
CSLAYER1
  6
CONTINUOUS
 62
     7
 10
394.000036
 20
140.000000
 11
394.000036
 21
66.000000
  0
LINE
  8
CSLAYER1
  6
CONTINUOUS
 62
     7
 10
125.579363
 20
269.151253
 11
125.579363
 21
399.051253
  0
LINE
  8
CSLAYER1
  6
CONTINUOUS
 62
     7
 10
125.579363
 20
269.151253
 11
116.579363
 21
269.151253
  0
LINE
  8
CSLAYER1
  6
CONTINUOUS
 62
     7
 10
116.579363
 20
269.151253
 11
116.579363
 21
348.651253
  0
LINE
  8
CSLAYER1
  6
CONTINUOUS
 62
     7
 10
125.579363
 20
399.051253
 11
109.829363
 21
348.651253
  0
LINE
  8
CSLAYER1
  6
CONTINUOUS
 62
     7
 10
116.579363
 20
348.651253
 11
109.829363
 21
348.651253
  0
LINE
  8
CSLAYER1
  6
CONTINUOUS
 62
     7
 10
156.966841
 20
260.151253
 11
162.029342
 21
260.151253
  0
LINE
  8
CSLAYER1
  6
CONTINUOUS
 62
     7
 10
156.966841
 20
300.651263
 11
162.029342
 21
300.651263
  0
LINE
  8
CSLAYER1
  6
CONTINUOUS
 62
     7
 10
156.966841
 20
300.651263
 11
156.966841
 21
260.151253
  0
LINE
  8
CSLAYER1
  6
CONTINUOUS
 62
     7
 10
162.029342
 20
300.651263
 11
162.029342
 21
260.151253
  0
LINE
  8
CSLAYER1
  6
CONTINUOUS
 62
     7
 10
168.104344
 20
293.901262
 11
168.104344
 21
286.125324
  0
LINE
  8
CSLAYER1
  6
CONTINUOUS
 62
     7
 10
191.729350
 20
293.901262
 11
191.729350
 21
291.370011
  0
LINE
  8
CSLAYER1
  6
CONTINUOUS
 62
     7
 10
173.166845
 20
292.213761
 11
173.166845
 21
287.420188
  0
LINE
  8
CSLAYER1
  6
CONTINUOUS
 62
     7
 10
197.804351
 20
300.651263
 11
197.804351
 21
260.151253
  0
LINE
  8
CSLAYER1
  6
CONTINUOUS
 62
     7
 10
202.866852
 20
300.651263
 11
202.866852
 21
282.932509
  0
LINE
  8
CSLAYER1
  6
CONTINUOUS
 62
     7
 10
216.366856
 20
300.651263
 11
216.366856
 21
282.932509
  0
LINE
  8
CSLAYER1
  6
CONTINUOUS
 62
     7
 10
221.429357
 20
300.651263
 11
221.429357
 21
260.151253
  0
LINE
  8
CSLAYER1
  6
CONTINUOUS
 62
     7
 10
202.866852
 20
282.932509
 11
216.366856
 21
282.932509
  0
LINE
  8
CSLAYER1
  6
CONTINUOUS
 62
     7
 10
202.866852
 20
277.870008
 11
216.366856
 21
277.870008
  0
LINE
  8
CSLAYER1
  6
CONTINUOUS
 62
     7
 10
227.504359
 20
300.651263
 11
227.504359
 21
260.151253
  0
LINE
  8
CSLAYER1
  6
CONTINUOUS
 62
     7
 10
232.566860
 20
300.651263
 11
232.566860
 21
260.151253
  0
LINE
  8
CSLAYER1
  6
CONTINUOUS
 62
     7
 10
238.641861
 20
300.651263
 11
238.641861
 21
295.588762
  0
LINE
  8
CSLAYER1
  6
CONTINUOUS
 62
     7
 10
262.266867
 20
300.651263
 11
262.266867
 21
294.745012
  0
LINE
  8
CSLAYER1
  6
CONTINUOUS
 62
     7
 10
238.641861
 20
295.588762
 11
256.013189
 21
295.588762
  0
LINE
  8
CSLAYER1
  6
CONTINUOUS
 62
     7
 10
244.895539
 20
265.213754
 11
262.266867
 21
265.213754
  0
LINE
  8
CSLAYER1
  6
CONTINUOUS
 62
     7
 10
256.013189
 20
295.588762
 11
238.641861
 21
266.057505
  0
LINE
  8
CSLAYER1
  6
CONTINUOUS
 62
     7
 10
244.895539
 20
265.213754
 11
262.266867
 21
294.745012
  0
LINE
  8
CSLAYER1
  6
CONTINUOUS
 62
     7
 10
262.266867
 20
265.213754
 11
262.266867
 21
260.151253
  0
LINE
  8
CSLAYER1
  6
CONTINUOUS
 62
     7
 10
238.641861
 20
266.057505
 11
238.641861
 21
260.151253
  0
LINE
  8
CSLAYER1
  6
CONTINUOUS
 62
     7
 10
277.674480
 20
300.651263
 11
267.109260
 21
260.151253
  0
LINE
  8
CSLAYER1
  6
CONTINUOUS
 62
     7
 10
283.984264
 20
300.651263
 11
294.549484
 21
260.151253
  0
LINE
  8
CSLAYER1
  6
CONTINUOUS
 62
     7
 10
280.829372
 20
292.689303
 11
286.015927
 21
272.807506
  0
LINE
  8
CSLAYER1
  6
CONTINUOUS
 62
     7
 10
280.829372
 20
292.689303
 11
275.642816
 21
272.807506
  0
LINE
  8
CSLAYER1
  6
CONTINUOUS
 62
     7
 10
274.322164
 20
267.745005
 11
287.336580
 21
267.745005
  0
LINE
  8
CSLAYER1
  6
CONTINUOUS
 62
     7
 10
275.642816
 20
272.807506
 11
286.015927
 21
272.807506
  0
LINE
  8
CSLAYER1
  6
CONTINUOUS
 62
     7
 10
274.322164
 20
267.745005
 11
272.341185
 21
260.151253
  0
LINE
  8
CSLAYER1
  6
CONTINUOUS
 62
     7
 10
287.336580
 20
267.745005
 11
289.317559
 21
260.151253
  0
LINE
  8
CSLAYER1
  6
CONTINUOUS
 62
     7
 10
299.391877
 20
300.651263
 11
299.391877
 21
260.151253
  0
LINE
  8
CSLAYER1
  6
CONTINUOUS
 62
     7
 10
304.454378
 20
300.651263
 11
304.454378
 21
286.307510
  0
LINE
  8
CSLAYER1
  6
CONTINUOUS
 62
     7
 10
317.005162
 20
300.651263
 11
304.454378
 21
286.307510
  0
LINE
  8
CSLAYER1
  6
CONTINUOUS
 62
     7
 10
323.732053
 20
300.651263
 11
313.692856
 21
289.177895
  0
LINE
  8
CSLAYER1
  6
CONTINUOUS
 62
     7
 10
313.692856
 20
289.177895
 11
323.296029
 21
260.151253
  0
LINE
  8
CSLAYER1
  6
CONTINUOUS
 62
     7
 10
309.823502
 20
284.755777
 11
317.963662
 21
260.151253
  0
LINE
  8
CSLAYER1
  6
CONTINUOUS
 62
     7
 10
304.454378
 20
278.619634
 11
304.454378
 21
260.151253
  0
LINE
  8
CSLAYER1
  6
CONTINUOUS
 62
     7
 10
309.823502
 20
284.755777
 11
304.454378
 21
278.619634
  0
LINE
  8
CSLAYER1
  6
CONTINUOUS
 62
     7
 10
329.091884
 20
300.651263
 11
329.091884
 21
260.151253
  0
LINE
  8
CSLAYER1
  6
CONTINUOUS
 62
     7
 10
334.154385
 20
300.651263
 11
334.154385
 21
260.151253
  0
LINE
  8
CSLAYER1
  6
CONTINUOUS
 62
     7
 10
176.541846
 20
295.588762
 11
183.291848
 21
295.588762
  0
LINE
  8
CSLAYER1
  6
CONTINUOUS
 62
     7
 10
176.541846
 20
265.213754
 11
183.291848
 21
265.213754
  0
LINE
  8
CSLAYER1
  6
CONTINUOUS
 62
     7
 10
186.666848
 20
291.370011
 11
191.729350
 21
291.370011
  0
LINE
  8
CSLAYER1
  6
CONTINUOUS
 62
     7
 10
168.104344
 20
269.432505
 11
173.166845
 21
269.432505
  0
LINE
  8
CSLAYER1
  6
CONTINUOUS
 62
     7
 10
168.104344
 20
269.432505
 11
168.104344
 21
266.901255
  0
LINE
  8
CSLAYER1
  6
CONTINUOUS
 62
     7
 10
186.666848
 20
273.382328
 11
186.666848
 21
268.588755
  0
LINE
  8
CSLAYER1
  6
CONTINUOUS
 62
     7
 10
175.668331
 20
284.160188
 11
186.726377
 21
281.197193
  0
LINE
  8
CSLAYER1
  6
CONTINUOUS
 62
     7
 10
173.107316
 20
279.605323
 11
184.165362
 21
276.642328
  0
ARC
  8
CSLAYER1
  6
CONTINUOUS
 62
     7
 10
176.541846
 20
292.213761
 40
3.375001
 50
90.000000
 51
180.000000
  0
ARC
  8
CSLAYER1
  6
CONTINUOUS
 62
     7
 10
183.291848
 20
292.213761
 40
3.375001
 50
0.000000
 51
90.000000
  0
ARC
  8
CSLAYER1
  6
CONTINUOUS
 62
     7
 10
176.541846
 20
287.420188
 40
3.375001
 50
180.000000
 51
255.000000
  0
ARC
  8
CSLAYER1
  6
CONTINUOUS
 62
     7
 10
183.291848
 20
273.382328
 40
3.375001
 50
0.000000
 51
75.000000
  0
ARC
  8
CSLAYER1
  6
CONTINUOUS
 62
     7
 10
183.291848
 20
268.588755
 40
3.375001
 50
270.000000
 51
360.000000
  0
ARC
  8
CSLAYER1
  6
CONTINUOUS
 62
     7
 10
176.541846
 20
268.588755
 40
3.375001
 50
180.000000
 51
270.000000
  0
LINE
  8
CSLAYER1
  6
CONTINUOUS
 62
     7
 10
174.854345
 20
300.651263
 11
184.979348
 21
300.651263
  0
LINE
  8
CSLAYER1
  6
CONTINUOUS
 62
     7
 10
174.854345
 20
260.151253
 11
184.979348
 21
260.151253
  0
LINE
  8
CSLAYER1
  6
CONTINUOUS
 62
     7
 10
197.804351
 20
300.651263
 11
202.866852
 21
300.651263
  0
LINE
  8
CSLAYER1
  6
CONTINUOUS
 62
     7
 10
197.804351
 20
260.151253
 11
202.866852
 21
260.151253
  0
LINE
  8
CSLAYER1
  6
CONTINUOUS
 62
     7
 10
227.504359
 20
260.151253
 11
232.566860
 21
260.151253
  0
LINE
  8
CSLAYER1
  6
CONTINUOUS
 62
     7
 10
227.504359
 20
300.651263
 11
232.566860
 21
300.651263
  0
LINE
  8
CSLAYER1
  6
CONTINUOUS
 62
     7
 10
216.366856
 20
300.651263
 11
221.429357
 21
300.651263
  0
LINE
  8
CSLAYER1
  6
CONTINUOUS
 62
     7
 10
216.366856
 20
260.151253
 11
221.429357
 21
260.151253
  0
LINE
  8
CSLAYER1
  6
CONTINUOUS
 62
     7
 10
238.641861
 20
300.651263
 11
262.266867
 21
300.651263
  0
LINE
  8
CSLAYER1
  6
CONTINUOUS
 62
     7
 10
238.641861
 20
260.151253
 11
262.266867
 21
260.151253
  0
LINE
  8
CSLAYER1
  6
CONTINUOUS
 62
     7
 10
277.454371
 20
300.651263
 11
284.204373
 21
300.651263
  0
LINE
  8
CSLAYER1
  6
CONTINUOUS
 62
     7
 10
267.109260
 20
260.151253
 11
272.341185
 21
260.151253
  0
LINE
  8
CSLAYER1
  6
CONTINUOUS
 62
     7
 10
289.317559
 20
260.151253
 11
294.549484
 21
260.151253
  0
LINE
  8
CSLAYER1
  6
CONTINUOUS
 62
     7
 10
299.391877
 20
260.151253
 11
304.454378
 21
260.151253
  0
LINE
  8
CSLAYER1
  6
CONTINUOUS
 62
     7
 10
317.963662
 20
260.151253
 11
323.296029
 21
260.151253
  0
LINE
  8
CSLAYER1
  6
CONTINUOUS
 62
     7
 10
329.091884
 20
260.151253
 11
334.154385
 21
260.151253
  0
LINE
  8
CSLAYER1
  6
CONTINUOUS
 62
     7
 10
329.091884
 20
300.651263
 11
334.154385
 21
300.651263
  0
LINE
  8
CSLAYER1
  6
CONTINUOUS
 62
     7
 10
317.005162
 20
300.651263
 11
323.732053
 21
300.651263
  0
LINE
  8
CSLAYER1
  6
CONTINUOUS
 62
     7
 10
299.391877
 20
300.651263
 11
304.454378
 21
300.651263
  0
ARC
  8
CSLAYER1
  6
CONTINUOUS
 62
     7
 10
174.854345
 20
293.901262
 40
6.750002
 50
90.000000
 51
180.000000
  0
ARC
  8
CSLAYER1
  6
CONTINUOUS
 62
     7
 10
184.979348
 20
293.901262
 40
6.750002
 50
0.000000
 51
90.000000
  0
ARC
  8
CSLAYER1
  6
CONTINUOUS
 62
     7
 10
174.854345
 20
286.125324
 40
6.750002
 50
180.000000
 51
255.000000
  0
ARC
  8
CSLAYER1
  6
CONTINUOUS
 62
     7
 10
184.979348
 20
274.677193
 40
6.750002
 50
0.000000
 51
75.000000
  0
ARC
  8
CSLAYER1
  6
CONTINUOUS
 62
     7
 10
184.979348
 20
266.901255
 40
6.750002
 50
270.000000
 51
360.000000
  0
ARC
  8
CSLAYER1
  6
CONTINUOUS
 62
     7
 10
174.854345
 20
266.901255
 40
6.750002
 50
180.000000
 51
270.000000
  0
LINE
  8
CSLAYER1
  6
CONTINUOUS
 62
     7
 10
202.866852
 20
277.870008
 11
202.866852
 21
260.151253
  0
LINE
  8
CSLAYER1
  6
CONTINUOUS
 62
     7
 10
216.366856
 20
277.870008
 11
216.366856
 21
260.151253
  0
LINE
  8
CSLAYER1
  6
CONTINUOUS
 62
     7
 10
191.729350
 20
274.677193
 11
191.729350
 21
266.901255
  0
LINE
  8
CSLAYER1
  6
CONTINUOUS
 62
     7
 10
186.666848
 20
291.370011
 11
186.666848
 21
292.213761
  0
LINE
  8
CSLAYER1
  6
CONTINUOUS
 62
     7
 10
173.166845
 20
268.588755
 11
173.166845
 21
269.432505
  0
LINE
  8
CSLAYER1
  6
CONTINUOUS
 62
     7
 10
169.576032
 20
314.151253
 11
174.638532
 21
314.151253
  0
LINE
  8
CSLAYER1
  6
CONTINUOUS
 62
     7
 10
169.576032
 20
354.651250
 11
174.638532
 21
354.651250
  0
LINE
  8
CSLAYER1
  6
CONTINUOUS
 62
     7
 10
169.576032
 20
347.607772
 11
169.576032
 21
314.151253
  0
LINE
  8
CSLAYER1
  6
CONTINUOUS
 62
     7
 10
210.413541
 20
354.651250
 11
210.413541
 21
328.238208
  0
LINE
  8
CSLAYER1
  6
CONTINUOUS
 62
     7
 10
213.935280
 20
354.651250
 11
213.935280
 21
345.846903
  0
LINE
  8
CSLAYER1
  6
CONTINUOUS
 62
     7
 10
231.543974
 20
354.651250
 11
231.543974
 21
354.096664
  0
LINE
  8
CSLAYER1
  6
CONTINUOUS
 62
     7
 10
210.413541
 20
328.238208
 11
213.935280
 21
328.238208
  0
LINE
  8
CSLAYER1
  6
CONTINUOUS
 62
     7
 10
189.457849
 20
354.651250
 11
195.594224
 21
354.651250
  0
LINE
  8
CSLAYER1
  6
CONTINUOUS
 62
     7
 10
210.413541
 20
354.651250
 11
213.935280
 21
354.651250
  0
LINE
  8
CSLAYER1
  6
CONTINUOUS
 62
     7
 10
210.413541
 20
317.672992
 11
231.543974
 21
317.672992
  0
LINE
  8
CSLAYER1
  6
CONTINUOUS
 62
     7
 10
210.413541
 20
321.194731
 11
231.543974
 21
321.194731
  0
LINE
  8
CSLAYER1
  6
CONTINUOUS
 62
     7
 10
210.413541
 20
321.194731
 11
210.413541
 21
317.672992
  0
LINE
  8
CSLAYER1
  6
CONTINUOUS
 62
     7
 10
231.543974
 20
321.194731
 11
231.543974
 21
317.672992
  0
LINE
  8
CSLAYER1
  6
CONTINUOUS
 62
     7
 10
226.261366
 20
354.651250
 11
213.935280
 21
345.846903
  0
LINE
  8
CSLAYER1
  6
CONTINUOUS
 62
     7
 10
231.543974
 20
354.096664
 11
219.994309
 21
345.846903
  0
LINE
  8
CSLAYER1
  6
CONTINUOUS
 62
     7
 10
219.994309
 20
345.846903
 11
231.543974
 21
328.238208
  0
LINE
  8
CSLAYER1
  6
CONTINUOUS
 62
     7
 10
217.126288
 20
343.798317
 11
227.332272
 21
328.238208
  0
LINE
  8
CSLAYER1
  6
CONTINUOUS
 62
     7
 10
226.261366
 20
354.651250
 11
231.543974
 21
354.651250
  0
LINE
  8
CSLAYER1
  6
CONTINUOUS
 62
     7
 10
227.332272
 20
328.238208
 11
231.543974
 21
328.238208
  0
LINE
  8
CSLAYER1
  6
CONTINUOUS
 62
     7
 10
213.935280
 20
341.519025
 11
213.935280
 21
328.238208
  0
LINE
  8
CSLAYER1
  6
CONTINUOUS
 62
     7
 10
217.126288
 20
343.798317
 11
213.935280
 21
341.519025
  0
LINE
  8
CSLAYER1
  6
CONTINUOUS
 62
     7
 10
167.815163
 20
347.607772
 11
169.576032
 21
347.607772
  0
LINE
  8
CSLAYER1
  6
CONTINUOUS
 62
     7
 10
169.576032
 20
354.651250
 11
167.815163
 21
347.607772
  0
LINE
  8
CSLAYER1
  6
CONTINUOUS
 62
     7
 10
180.713531
 20
345.846903
 11
180.713531
 21
322.955600
  0
LINE
  8
CSLAYER1
  6
CONTINUOUS
 62
     7
 10
185.776031
 20
345.906932
 11
185.776031
 21
322.955600
  0
LINE
  8
CSLAYER1
  6
CONTINUOUS
 62
     7
 10
189.457849
 20
349.588750
 11
195.594224
 21
349.588750
  0
ARC
  8
CSLAYER1
  6
CONTINUOUS
 62
     7
 10
189.457849
 20
345.906932
 40
3.681818
 50
90.000000
 51
180.000000
  0
ARC
  8
CSLAYER1
  6
CONTINUOUS
 62
     7
 10
189.457849
 20
345.906932
 40
8.744317
 50
90.000000
 51
180.000000
  0
ARC
  8
CSLAYER1
  6
CONTINUOUS
 62
     7
 10
189.457849
 20
322.895571
 40
3.681818
 50
180.000000
 51
270.000000
  0
ARC
  8
CSLAYER1
  6
CONTINUOUS
 62
     7
 10
189.457849
 20
322.895571
 40
8.744317
 50
180.000000
 51
270.000000
  0
LINE
  8
CSLAYER1
  6
CONTINUOUS
 62
     7
 10
204.338542
 20
345.846903
 11
204.338542
 21
322.955600
  0
LINE
  8
CSLAYER1
  6
CONTINUOUS
 62
     7
 10
199.276042
 20
345.906932
 11
199.276042
 21
322.955600
  0
ARC
  8
CSLAYER1
  6
CONTINUOUS
 62
     7
 10
195.594224
 20
345.906932
 40
3.681818
 50
0.000000
 51
90.000000
  0
ARC
  8
CSLAYER1
  6
CONTINUOUS
 62
     7
 10
195.594224
 20
345.906932
 40
8.744317
 50
0.000000
 51
90.000000
  0
ARC
  8
CSLAYER1
  6
CONTINUOUS
 62
     7
 10
195.594224
 20
322.895571
 40
3.681818
 50
270.000000
 51
360.000000
  0
ARC
  8
CSLAYER1
  6
CONTINUOUS
 62
     7
 10
195.594224
 20
322.895571
 40
8.744317
 50
270.000000
 51
360.000000
  0
LINE
  8
CSLAYER1
  6
CONTINUOUS
 62
     7
 10
189.457849
 20
319.213753
 11
195.594224
 21
319.213753
  0
LINE
  8
CSLAYER1
  6
CONTINUOUS
 62
     7
 10
189.457849
 20
314.151253
 11
195.594224
 21
314.151253
  0
LINE
  8
CSLAYER1
  6
CONTINUOUS
 62
     7
 10
174.638532
 20
354.651250
 11
174.638532
 21
314.151253
  0
LINE
  8
CSLAYER1
  6
CONTINUOUS
 62
     7
 10
243.924471
 20
408.651263
 11
233.359251
 21
368.151253
  0
LINE
  8
CSLAYER1
  6
CONTINUOUS
 62
     7
 10
250.234256
 20
408.651263
 11
260.799476
 21
368.151253
  0
LINE
  8
CSLAYER1
  6
CONTINUOUS
 62
     7
 10
247.079363
 20
400.689303
 11
252.265919
 21
380.807506
  0
LINE
  8
CSLAYER1
  6
CONTINUOUS
 62
     7
 10
247.079363
 20
400.689303
 11
241.892808
 21
380.807506
  0
LINE
  8
CSLAYER1
  6
CONTINUOUS
 62
     7
 10
240.572155
 20
375.745005
 11
253.586572
 21
375.745005
  0
LINE
  8
CSLAYER1
  6
CONTINUOUS
 62
     7
 10
241.892808
 20
380.807506
 11
252.265919
 21
380.807506
  0
LINE
  8
CSLAYER1
  6
CONTINUOUS
 62
     7
 10
240.572155
 20
375.745005
 11
238.591177
 21
368.151253
  0
LINE
  8
CSLAYER1
  6
CONTINUOUS
 62
     7
 10
253.586572
 20
375.745005
 11
255.567550
 21
368.151253
  0
LINE
  8
CSLAYER1
  6
CONTINUOUS
 62
     7
 10
243.704363
 20
408.651263
 11
250.454364
 21
408.651263
  0
LINE
  8
CSLAYER1
  6
CONTINUOUS
 62
     7
 10
233.359251
 20
368.151253
 11
238.591177
 21
368.151253
  0
LINE
  8
CSLAYER1
  6
CONTINUOUS
 62
     7
 10
255.567550
 20
368.151253
 11
260.799476
 21
368.151253
  0
LINE
  8
CSLAYER1
  6
CONTINUOUS
 62
     7
 10
203.659245
 20
408.651263
 11
203.659245
 21
368.151253
  0
LINE
  8
CSLAYER1
  6
CONTINUOUS
 62
     7
 10
227.284251
 20
401.901262
 11
227.284251
 21
399.370011
  0
LINE
  8
CSLAYER1
  6
CONTINUOUS
 62
     7
 10
208.721747
 20
390.932503
 11
208.721747
 21
403.588762
  0
LINE
  8
CSLAYER1
  6
CONTINUOUS
 62
     7
 10
208.721747
 20
403.588762
 11
218.846749
 21
403.588762
  0
ARC
  8
CSLAYER1
  6
CONTINUOUS
 62
     7
 10
218.846749
 20
400.213761
 40
3.375001
 50
0.000000
 51
90.000000
  0
LINE
  8
CSLAYER1
  6
CONTINUOUS
 62
     7
 10
203.659245
 20
408.651263
 11
220.534250
 21
408.651263
  0
ARC
  8
CSLAYER1
  6
CONTINUOUS
 62
     7
 10
220.534250
 20
401.901262
 40
6.750002
 50
0.000000
 51
90.000000
  0
LINE
  8
CSLAYER1
  6
CONTINUOUS
 62
     7
 10
222.221750
 20
399.370011
 11
222.221750
 21
400.213761
  0
LINE
  8
CSLAYER1
  6
CONTINUOUS
 62
     7
 10
203.659245
 20
368.151253
 11
208.721747
 21
368.151253
  0
LINE
  8
CSLAYER1
  6
CONTINUOUS
 62
     7
 10
222.221750
 20
399.370011
 11
222.221750
 21
394.307504
  0
LINE
  8
CSLAYER1
  6
CONTINUOUS
 62
     7
 10
227.284251
 20
399.370011
 11
227.284251
 21
392.620003
  0
ARC
  8
CSLAYER1
  6
CONTINUOUS
 62
     7
 10
218.846749
 20
394.307504
 40
3.375001
 50
270.000000
 51
360.000000
  0
ARC
  8
CSLAYER1
  6
CONTINUOUS
 62
     7
 10
220.534250
 20
392.620003
 40
6.750002
 50
270.000000
 51
360.000000
  0
LINE
  8
CSLAYER1
  6
CONTINUOUS
 62
     7
 10
218.846749
 20
390.932503
 11
208.721747
 21
390.932503
  0
LINE
  8
CSLAYER1
  6
CONTINUOUS
 62
     7
 10
220.534250
 20
385.870002
 11
208.721747
 21
385.870002
  0
LINE
  8
CSLAYER1
  6
CONTINUOUS
 62
     7
 10
208.721747
 20
385.870002
 11
208.721747
 21
368.151253
  0
LINE
  8
CSLAYER1
  6
CONTINUOUS
 62
     7
 10
266.874476
 20
408.651263
 11
266.874476
 21
403.588762
  0
LINE
  8
CSLAYER1
  6
CONTINUOUS
 62
     7
 10
290.499482
 20
408.651263
 11
290.499482
 21
403.588762
  0
LINE
  8
CSLAYER1
  6
CONTINUOUS
 62
     7
 10
266.874476
 20
408.651263
 11
290.499482
 21
408.651263
  0
LINE
  8
CSLAYER1
  6
CONTINUOUS
 62
     7
 10
276.155730
 20
403.588762
 11
276.155730
 21
368.151253
  0
LINE
  8
CSLAYER1
  6
CONTINUOUS
 62
     7
 10
281.218232
 20
403.588762
 11
281.218232
 21
368.151253
  0
LINE
  8
CSLAYER1
  6
CONTINUOUS
 62
     7
 10
276.155730
 20
368.151253
 11
281.218232
 21
368.151253
  0
LINE
  8
CSLAYER1
  6
CONTINUOUS
 62
     7
 10
276.155730
 20
408.651263
 11
281.218232
 21
408.651263
  0
LINE
  8
CSLAYER1
  6
CONTINUOUS
 62
     7
 10
266.874476
 20
403.588762
 11
276.155730
 21
403.588762
  0
LINE
  8
CSLAYER1
  6
CONTINUOUS
 62
     7
 10
281.218232
 20
403.588762
 11
290.499482
 21
403.588762
  0
LINE
  8
CSLAYER1
  6
CONTINUOUS
 62
     7
 10
276.155730
 20
368.151253
 11
281.218232
 21
368.151253
  0
LINE
  8
CSLAYER1
  6
CONTINUOUS
 62
     7
 10
308.368023
 20
354.651250
 11
314.504398
 21
354.651250
  0
LINE
  8
CSLAYER1
  6
CONTINUOUS
 62
     7
 10
299.623705
 20
345.846903
 11
299.623705
 21
322.955600
  0
LINE
  8
CSLAYER1
  6
CONTINUOUS
 62
     7
 10
304.686205
 20
345.906932
 11
304.686205
 21
322.955600
  0
LINE
  8
CSLAYER1
  6
CONTINUOUS
 62
     7
 10
308.368023
 20
349.588750
 11
314.504398
 21
349.588750
  0
ARC
  8
CSLAYER1
  6
CONTINUOUS
 62
     7
 10
308.368023
 20
345.906932
 40
3.681818
 50
90.000000
 51
180.000000
  0
ARC
  8
CSLAYER1
  6
CONTINUOUS
 62
     7
 10
308.368023
 20
345.906932
 40
8.744317
 50
90.000000
 51
180.000000
  0
ARC
  8
CSLAYER1
  6
CONTINUOUS
 62
     7
 10
308.368023
 20
322.895571
 40
3.681818
 50
180.000000
 51
270.000000
  0
ARC
  8
CSLAYER1
  6
CONTINUOUS
 62
     7
 10
308.368023
 20
322.895571
 40
8.744317
 50
180.000000
 51
270.000000
  0
LINE
  8
CSLAYER1
  6
CONTINUOUS
 62
     7
 10
323.248716
 20
345.846903
 11
323.248716
 21
322.955600
  0
LINE
  8
CSLAYER1
  6
CONTINUOUS
 62
     7
 10
318.186216
 20
345.906932
 11
318.186216
 21
322.955600
  0
ARC
  8
CSLAYER1
  6
CONTINUOUS
 62
     7
 10
314.504398
 20
345.906932
 40
3.681818
 50
0.000000
 51
90.000000
  0
ARC
  8
CSLAYER1
  6
CONTINUOUS
 62
     7
 10
314.504398
 20
345.906932
 40
8.744317
 50
0.000000
 51
90.000000
  0
ARC
  8
CSLAYER1
  6
CONTINUOUS
 62
     7
 10
314.504398
 20
322.895571
 40
3.681818
 50
270.000000
 51
360.000000
  0
ARC
  8
CSLAYER1
  6
CONTINUOUS
 62
     7
 10
314.504398
 20
322.895571
 40
8.744317
 50
270.000000
 51
360.000000
  0
LINE
  8
CSLAYER1
  6
CONTINUOUS
 62
     7
 10
308.368023
 20
319.213753
 11
314.504398
 21
319.213753
  0
LINE
  8
CSLAYER1
  6
CONTINUOUS
 62
     7
 10
308.368023
 20
314.151253
 11
314.504398
 21
314.151253
  0
LINE
  8
CSLAYER1
  6
CONTINUOUS
 62
     7
 10
269.923693
 20
354.651250
 11
269.923693
 21
331.759945
  0
LINE
  8
CSLAYER1
  6
CONTINUOUS
 62
     7
 10
269.923693
 20
354.651250
 11
293.548705
 21
354.651250
  0
LINE
  8
CSLAYER1
  6
CONTINUOUS
 62
     7
 10
280.488910
 20
314.151250
 11
282.983488
 21
314.151250
  0
LINE
  8
CSLAYER1
  6
CONTINUOUS
 62
     7
 10
280.488910
 20
342.325163
 11
282.983488
 21
342.325163
  0
LINE
  8
CSLAYER1
  6
CONTINUOUS
 62
     7
 10
269.923693
 20
331.759945
 11
274.986193
 21
331.759945
  0
LINE
  8
CSLAYER1
  6
CONTINUOUS
 62
     7
 10
269.923693
 20
324.716467
 11
274.986193
 21
324.716467
  0
LINE
  8
CSLAYER1
  6
CONTINUOUS
 62
     7
 10
293.548705
 20
331.759945
 11
293.548705
 21
324.716467
  0
ARC
  8
CSLAYER1
  6
CONTINUOUS
 62
     7
 10
280.488910
 20
324.716467
 40
10.565217
 50
180.000000
 51
270.000000
  0
ARC
  8
CSLAYER1
  6
CONTINUOUS
 62
     7
 10
282.983488
 20
324.716467
 40
10.565217
 50
270.000000
 51
360.000000
  0
ARC
  8
CSLAYER1
  6
CONTINUOUS
 62
     7
 10
282.983488
 20
331.759945
 40
10.565217
 50
0.000000
 51
90.000000
  0
ARC
  8
CSLAYER1
  6
CONTINUOUS
 62
     7
 10
280.488910
 20
331.759945
 40
10.565217
 50
90.000000
 51
121.388166
  0
LINE
  8
CSLAYER1
  6
CONTINUOUS
 62
     7
 10
274.986193
 20
349.588750
 11
293.548705
 21
349.588750
  0
LINE
  8
CSLAYER1
  6
CONTINUOUS
 62
     7
 10
293.548705
 20
354.651250
 11
293.548705
 21
349.588750
  0
LINE
  8
CSLAYER1
  6
CONTINUOUS
 62
     7
 10
274.986193
 20
349.588750
 11
274.986193
 21
340.779032
  0
ARC
  8
CSLAYER1
  6
CONTINUOUS
 62
     7
 10
280.488910
 20
324.716467
 40
5.502717
 50
180.000000
 51
270.000000
  0
LINE
  8
CSLAYER1
  6
CONTINUOUS
 62
     7
 10
280.488910
 20
319.213750
 11
282.983488
 21
319.213750
  0
ARC
  8
CSLAYER1
  6
CONTINUOUS
 62
     7
 10
282.983488
 20
324.716467
 40
5.510081
 50
270.000000
 51
360.000000
  0
LINE
  8
CSLAYER1
  6
CONTINUOUS
 62
     7
 10
288.486205
 20
331.759945
 11
288.486205
 21
324.716467
  0
ARC
  8
CSLAYER1
  6
CONTINUOUS
 62
     7
 10
282.983488
 20
331.759945
 40
5.502717
 50
0.000000
 51
90.000000
  0
LINE
  8
CSLAYER1
  6
CONTINUOUS
 62
     7
 10
280.488910
 20
337.262663
 11
282.983488
 21
337.262663
  0
ARC
  8
CSLAYER1
  6
CONTINUOUS
 62
     7
 10
280.488910
 20
331.759945
 40
5.502717
 50
90.000000
 51
180.000000
  0
LINE
  8
CSLAYER1
  6
CONTINUOUS
 62
     7
 10
240.223681
 20
314.151250
 11
240.223681
 21
324.276250
  0
LINE
  8
CSLAYER1
  6
CONTINUOUS
 62
     7
 10
240.223681
 20
314.151250
 11
263.848693
 21
314.151250
  0
LINE
  8
CSLAYER1
  6
CONTINUOUS
 62
     7
 10
250.788898
 20
354.651250
 11
253.283476
 21
354.651250
  0
LINE
  8
CSLAYER1
  6
CONTINUOUS
 62
     7
 10
240.223681
 20
344.086032
 11
245.286181
 21
344.086032
  0
LINE
  8
CSLAYER1
  6
CONTINUOUS
 62
     7
 10
263.848693
 20
340.344185
 11
263.848693
 21
344.086032
  0
ARC
  8
CSLAYER1
  6
CONTINUOUS
 62
     7
 10
250.788898
 20
344.086032
 40
10.565217
 50
90.000000
 51
180.000000
  0
ARC
  8
CSLAYER1
  6
CONTINUOUS
 62
     7
 10
253.283476
 20
344.086032
 40
10.565217
 50
0.000000
 51
90.000000
  0
LINE
  8
CSLAYER1
  6
CONTINUOUS
 62
     7
 10
245.286181
 20
319.213750
 11
263.848693
 21
319.213750
  0
LINE
  8
CSLAYER1
  6
CONTINUOUS
 62
     7
 10
263.848693
 20
314.151250
 11
263.848693
 21
319.213750
  0
ARC
  8
CSLAYER1
  6
CONTINUOUS
 62
     7
 10
250.788898
 20
344.086032
 40
5.502717
 50
90.000000
 51
180.000000
  0
LINE
  8
CSLAYER1
  6
CONTINUOUS
 62
     7
 10
250.788898
 20
349.588750
 11
253.283476
 21
349.588750
  0
ARC
  8
CSLAYER1
  6
CONTINUOUS
 62
     7
 10
253.283476
 20
344.086032
 40
5.510081
 50
0.000000
 51
90.000000
  0
LINE
  8
CSLAYER1
  6
CONTINUOUS
 62
     7
 10
258.786193
 20
340.344185
 11
258.786193
 21
344.086032
  0
ARC
  8
CSLAYER1
  6
CONTINUOUS
 62
     7
 10
253.283476
 20
340.344185
 40
5.502717
 50
270.000000
 51
360.000000
  0
LINE
  8
CSLAYER1
  6
CONTINUOUS
 62
     7
 10
250.788898
 20
334.841467
 11
253.283476
 21
334.841467
  0
ARC
  8
CSLAYER1
  6
CONTINUOUS
 62
     7
 10
250.788898
 20
324.276250
 40
10.565217
 50
90.000000
 51
180.000000
  0
ARC
  8
CSLAYER1
  6
CONTINUOUS
 62
     7
 10
250.788898
 20
324.276250
 40
5.502717
 50
90.000000
 51
180.000000
  0
LINE
  8
CSLAYER1
  6
CONTINUOUS
 62
     7
 10
250.788898
 20
329.778967
 11
253.283476
 21
329.778967
  0
LINE
  8
CSLAYER1
  6
CONTINUOUS
 62
     7
 10
245.286181
 20
319.213750
 11
245.286181
 21
324.276250
  0
ARC
  8
CSLAYER1
  6
CONTINUOUS
 62
     7
 10
253.283476
 20
340.344185
 40
10.565217
 50
270.000000
 51
360.000000
  0
LINE
  8
CSLAYER1
  6
CONTINUOUS
 62
     7
 10
169.576032
 20
347.607772
 11
169.576032
 21
314.151253
  0
LINE
  8
CSLAYER1
  6
CONTINUOUS
 62
     7
 10
323.248716
 20
345.846903
 11
323.248716
 21
322.955600
  0
LINE
  8
CSLAYER1
  6
CONTINUOUS
 62
     7
 10
299.623705
 20
331.759945
 11
299.623705
 21
324.716467
  0
CIRCLE
  8
CSLAYER1
  6
CONTINUOUS
 62
     7
 10
245.000036
 20
450.000000
 40
15.000000
  0
CIRCLE
  8
CSLAYER1
  6
CONTINUOUS
 62
     7
 10
245.000036
 20
190.000000
 40
15.000000
  0
LINE
  8
CSLAYER1
  6
CONTINUOUS
 62
     7
 10
906.000036
 20
281.000000
 11
906.000036
 21
339.000000
  0
LINE
  8
CSLAYER1
  6
CONTINUOUS
 62
     7
 10
912.473802
 20
328.160978
 11
922.500036
 21
327.897858
  0
ARC
  8
CSLAYER1
  6
CONTINUOUS
 62
     7
 10
912.500036
 20
329.160634
 40
1.000000
 50
245.593193
 51
268.496721
  0
LINE
  8
CSLAYER1
  6
CONTINUOUS
 62
     7
 10
910.500036
 20
332.000000
 11
910.500036
 21
310.000000
  0
LINE
  8
CSLAYER1
  6
CONTINUOUS
 62
     7
 10
906.500036
 20
333.000000
 11
909.500036
 21
333.000000
  0
ARC
  8
CSLAYER1
  6
CONTINUOUS
 62
     7
 10
909.500036
 20
332.000000
 40
1.000000
 50
0.000000
 51
90.000000
  0
LINE
  8
CSLAYER1
  6
CONTINUOUS
 62
     7
 10
911.500036
 20
328.250000
 11
912.086824
 21
328.250000
  0
ARC
  8
CSLAYER1
  6
CONTINUOUS
 62
     7
 10
911.500036
 20
329.250000
 40
1.000000
 50
180.000000
 51
270.000000
  0
LINE
  8
CSLAYER1
  6
CONTINUOUS
 62
     7
 10
922.500036
 20
327.897858
 11
924.000036
 21
323.000000
  0
LINE
  8
CSLAYER1
  6
CONTINUOUS
 62
     7
 10
924.000036
 20
323.000000
 11
931.500036
 21
323.000000
  0
LINE
  8
CSLAYER1
  6
CONTINUOUS
 62
     7
 10
925.299075
 20
322.250000
 11
931.500036
 21
322.250000
  0
LINE
  8
CSLAYER1
  6
CONTINUOUS
 62
     7
 10
924.000036
 20
323.000000
 11
925.299075
 21
322.250000
  0
LINE
  8
CSLAYER1
  6
CONTINUOUS
 62
     7
 10
925.299075
 20
322.250000
 11
925.299075
 21
310.000000
  0
LINE
  8
CSLAYER1
  6
CONTINUOUS
 62
     7
 10
949.433225
 20
316.700000
 11
960.800036
 21
316.700000
  0
LINE
  8
CSLAYER1
  6
CONTINUOUS
 62
     7
 10
949.433225
 20
303.300000
 11
960.800036
 21
303.300000
  0
LINE
  8
CSLAYER1
  6
CONTINUOUS
 62
     7
 10
946.330039
 20
328.475208
 11
933.217774
 21
328.475208
  0
LINE
  8
CSLAYER1
  6
CONTINUOUS
 62
     7
 10
931.500036
 20
325.500000
 11
931.500036
 21
310.000000
  0
ARC
  8
CSLAYER1
  6
CONTINUOUS
 62
     7
 10
902.028045
 20
310.000000
 40
48.000000
 50
9.029410
 51
22.637543
  0
LINE
  8
CSLAYER1
  6
CONTINUOUS
 62
     7
 10
931.500036
 20
325.500000
 11
933.217774
 21
328.475208
  0
LINE
  8
CSLAYER1
  6
CONTINUOUS
 62
     7
 10
949.433225
 20
317.533188
 11
949.433225
 21
310.000000
  0
LINE
  8
CSLAYER1
  6
CONTINUOUS
 62
     7
 10
912.473802
 20
291.839021
 11
922.500036
 21
292.102141
  0
ARC
  8
CSLAYER1
  6
CONTINUOUS
 62
     7
 10
912.500036
 20
290.839365
 40
1.000000
 50
91.503279
 51
114.406807
  0
LINE
  8
CSLAYER1
  6
CONTINUOUS
 62
     7
 10
910.500036
 20
288.000000
 11
910.500036
 21
310.000000
  0
LINE
  8
CSLAYER1
  6
CONTINUOUS
 62
     7
 10
906.500036
 20
287.000000
 11
909.500036
 21
287.000000
  0
ARC
  8
CSLAYER1
  6
CONTINUOUS
 62
     7
 10
909.500036
 20
288.000000
 40
1.000000
 50
270.000000
 51
360.000000
  0
LINE
  8
CSLAYER1
  6
CONTINUOUS
 62
     7
 10
911.500036
 20
291.750000
 11
912.086824
 21
291.750000
  0
ARC
  8
CSLAYER1
  6
CONTINUOUS
 62
     7
 10
911.500036
 20
290.750000
 40
1.000000
 50
90.000000
 51
180.000000
  0
LINE
  8
CSLAYER1
  6
CONTINUOUS
 62
     7
 10
922.500036
 20
292.102141
 11
924.000036
 21
297.000000
  0
LINE
  8
CSLAYER1
  6
CONTINUOUS
 62
     7
 10
924.000036
 20
297.000000
 11
931.500036
 21
297.000000
  0
LINE
  8
CSLAYER1
  6
CONTINUOUS
 62
     7
 10
925.299075
 20
297.750000
 11
931.500036
 21
297.750000
  0
LINE
  8
CSLAYER1
  6
CONTINUOUS
 62
     7
 10
924.000036
 20
297.000000
 11
925.299075
 21
297.750000
  0
LINE
  8
CSLAYER1
  6
CONTINUOUS
 62
     7
 10
925.299075
 20
310.000000
 11
925.299075
 21
297.000000
  0
LINE
  8
CSLAYER1
  6
CONTINUOUS
 62
     7
 10
946.330039
 20
291.524791
 11
933.217774
 21
291.524791
  0
LINE
  8
CSLAYER1
  6
CONTINUOUS
 62
     7
 10
931.500036
 20
294.500000
 11
931.500036
 21
310.000000
  0
ARC
  8
CSLAYER1
  6
CONTINUOUS
 62
     7
 10
902.028045
 20
310.000000
 40
48.000000
 50
337.362457
 51
350.970590
  0
LINE
  8
CSLAYER1
  6
CONTINUOUS
 62
     7
 10
931.500036
 20
294.500000
 11
933.217774
 21
291.524791
  0
LINE
  8
CSLAYER1
  6
CONTINUOUS
 62
     7
 10
949.433225
 20
302.466812
 11
949.433225
 21
310.000000
  0
LINE
  8
CSLAYER1
  6
CONTINUOUS
 62
     7
 10
924.000036
 20
323.000000
 11
924.000036
 21
297.000000
  0
LINE
  8
CSLAYER1
  6
CONTINUOUS
 62
     7
 10
946.433222
 20
319.237604
 11
933.150962
 21
319.237604
  0
ARC
  8
CSLAYER1
  6
CONTINUOUS
 62
     7
 10
939.965818
 20
323.856406
 40
8.232593
 50
145.872350
 51
214.127650
  0
ARC
  8
CSLAYER1
  6
CONTINUOUS
 62
     7
 10
938.282679
 20
323.856406
 40
9.368283
 50
-29.539633
 51
29.539633
  0
ARC
  8
CSLAYER1
  6
CONTINUOUS
 62
     7
 10
912.004438
 20
310.000000
 40
35.646524
 50
0.000000
 51
15.019312
  0
ARC
  8
CSLAYER1
  6
CONTINUOUS
 62
     7
 10
962.536992
 20
310.000000
 40
30.803768
 50
162.549272
 51
180.000000
  0
LINE
  8
CSLAYER1
  6
CONTINUOUS
 62
     7
 10
946.433222
 20
300.762395
 11
933.150962
 21
300.762395
  0
ARC
  8
CSLAYER1
  6
CONTINUOUS
 62
     7
 10
962.536992
 20
310.000000
 40
30.803768
 50
180.000000
 51
197.450728
  0
ARC
  8
CSLAYER1
  6
CONTINUOUS
 62
     7
 10
939.965818
 20
296.143593
 40
8.232593
 50
145.872350
 51
214.127650
  0
ARC
  8
CSLAYER1
  6
CONTINUOUS
 62
     7
 10
938.282679
 20
296.143593
 40
9.368283
 50
-29.539633
 51
29.539633
  0
ARC
  8
CSLAYER1
  6
CONTINUOUS
 62
     7
 10
912.004438
 20
310.000000
 40
35.646524
 50
344.980688
 51
360.000000
  0
LINE
  8
CSLAYER1
  6
CONTINUOUS
 62
     7
 10
922.500036
 20
318.948929
 11
910.500036
 21
318.948929
  0
LINE
  8
CSLAYER1
  6
CONTINUOUS
 62
     7
 10
922.500036
 20
301.051070
 11
910.500036
 21
301.051070
  0
ARC
  8
CSLAYER1
  6
CONTINUOUS
 62
     7
 10
912.989946
 20
296.576606
 40
10.510122
 50
-25.196822
 51
25.196822
  0
ARC
  8
CSLAYER1
  6
CONTINUOUS
 62
     7
 10
882.958370
 20
310.000000
 40
40.541667
 50
-12.752155
 51
12.752155
  0
ARC
  8
CSLAYER1
  6
CONTINUOUS
 62
     7
 10
912.989946
 20
323.423393
 40
10.510122
 50
-25.196822
 51
25.196822
  0
LINE
  8
CSLAYER1
  6
CONTINUOUS
 62
     7
 10
960.800036
 20
318.500000
 11
961.300036
 21
318.500000
  0
LINE
  8
CSLAYER1
  6
CONTINUOUS
 62
     7
 10
960.800036
 20
318.500000
 11
960.800036
 21
310.000000
  0
LINE
  8
CSLAYER1
  6
CONTINUOUS
 62
     7
 10
962.300036
 20
350.000000
 11
968.300036
 21
350.000000
  0
ARC
  8
CSLAYER1
  6
CONTINUOUS
 62
     7
 10
968.300036
 20
344.000000
 40
6.000000
 50
-41.409622
 51
90.000000
  0
LINE
  8
CSLAYER1
  6
CONTINUOUS
 62
     7
 10
961.300036
 20
349.000000
 11
961.300036
 21
310.000000
  0
ARC
  8
CSLAYER1
  6
CONTINUOUS
 62
     7
 10
968.300036
 20
310.000000
 40
6.000000
 50
0.000000
 51
33.557310
  0
LINE
  8
CSLAYER1
  6
CONTINUOUS
 62
     7
 10
972.800036
 20
340.031373
 11
972.800036
 21
339.016567
  0
LINE
  8
CSLAYER1
  6
CONTINUOUS
 62
     7
 10
972.800036
 20
329.066693
 11
972.800036
 21
314.974937
  0
ARC
  8
CSLAYER1
  6
CONTINUOUS
 62
     7
 10
975.800036
 20
339.016567
 40
3.000000
 50
180.000000
 51
213.557310
  0
ARC
  8
CSLAYER1
  6
CONTINUOUS
 62
     7
 10
975.800036
 20
329.066693
 40
3.000000
 50
146.442690
 51
180.000000
  0
ARC
  8
CSLAYER1
  6
CONTINUOUS
 62
     7
 10
975.800036
 20
314.974937
 40
3.000000
 50
180.000000
 51
213.557310
  0
ARC
  8
CSLAYER1
  6
CONTINUOUS
 62
     7
 10
968.300036
 20
334.041630
 40
6.000000
 50
-33.557310
 51
90.000000
  0
LINE
  8
CSLAYER1
  6
CONTINUOUS
 62
     7
 10
968.300036
 20
340.041630
 11
962.300036
 21
340.041630
  0
ARC
  8
CSLAYER1
  6
CONTINUOUS
 62
     7
 10
962.300036
 20
349.000000
 40
1.000000
 50
90.000000
 51
180.000000
  0
ARC
  8
CSLAYER1
  6
CONTINUOUS
 62
     7
 10
962.300036
 20
339.041630
 40
1.000000
 50
90.000000
 51
180.000000
  0
LINE
  8
CSLAYER1
  6
CONTINUOUS
 62
     7
 10
972.973848
 20
313.968627
 11
961.300036
 21
313.968627
  0
LINE
  8
CSLAYER1
  6
CONTINUOUS
 62
     7
 10
972.973848
 20
330.073003
 11
961.300036
 21
330.073003
  0
LINE
  8
CSLAYER1
  6
CONTINUOUS
 62
     7
 10
960.800036
 20
301.500000
 11
961.300036
 21
301.500000
  0
LINE
  8
CSLAYER1
  6
CONTINUOUS
 62
     7
 10
960.800036
 20
301.500000
 11
960.800036
 21
310.000000
  0
LINE
  8
CSLAYER1
  6
CONTINUOUS
 62
     7
 10
962.300036
 20
270.000000
 11
968.300036
 21
270.000000
  0
ARC
  8
CSLAYER1
  6
CONTINUOUS
 62
     7
 10
968.300036
 20
276.000000
 40
6.000000
 50
-90.000000
 51
41.409622
  0
LINE
  8
CSLAYER1
  6
CONTINUOUS
 62
     7
 10
961.300036
 20
271.000000
 11
961.300036
 21
310.000000
  0
ARC
  8
CSLAYER1
  6
CONTINUOUS
 62
     7
 10
968.300036
 20
310.000000
 40
6.000000
 50
326.442690
 51
360.000000
  0
LINE
  8
CSLAYER1
  6
CONTINUOUS
 62
     7
 10
972.800036
 20
279.968627
 11
972.800036
 21
280.983432
  0
LINE
  8
CSLAYER1
  6
CONTINUOUS
 62
     7
 10
972.800036
 20
290.933306
 11
972.800036
 21
305.025062
  0
ARC
  8
CSLAYER1
  6
CONTINUOUS
 62
     7
 10
975.800036
 20
280.983432
 40
3.000000
 50
146.442690
 51
180.000000
  0
ARC
  8
CSLAYER1
  6
CONTINUOUS
 62
     7
 10
975.800036
 20
290.933306
 40
3.000000
 50
180.000000
 51
213.557310
  0
ARC
  8
CSLAYER1
  6
CONTINUOUS
 62
     7
 10
975.800036
 20
305.025062
 40
3.000000
 50
146.442690
 51
180.000000
  0
ARC
  8
CSLAYER1
  6
CONTINUOUS
 62
     7
 10
968.300036
 20
285.958369
 40
6.000000
 50
-90.000000
 51
33.557310
  0
LINE
  8
CSLAYER1
  6
CONTINUOUS
 62
     7
 10
968.300036
 20
279.958369
 11
962.300036
 21
279.958369
  0
ARC
  8
CSLAYER1
  6
CONTINUOUS
 62
     7
 10
962.300036
 20
271.000000
 40
1.000000
 50
180.000000
 51
270.000000
  0
ARC
  8
CSLAYER1
  6
CONTINUOUS
 62
     7
 10
962.300036
 20
280.958369
 40
1.000000
 50
180.000000
 51
270.000000
  0
LINE
  8
CSLAYER1
  6
CONTINUOUS
 62
     7
 10
972.973848
 20
306.031373
 11
961.300036
 21
306.031373
  0
LINE
  8
CSLAYER1
  6
CONTINUOUS
 62
     7
 10
972.973848
 20
289.926996
 11
961.300036
 21
289.926996
  0
LINE
  8
CSLAYER1
  6
CONTINUOUS
 62
     7
 10
978.800036
 20
314.000000
 11
978.300036
 21
314.000000
  0
LINE
  8
CSLAYER1
  6
CONTINUOUS
 62
     7
 10
979.101278
 20
313.375000
 11
978.300036
 21
313.375000
  0
ARC
  8
CSLAYER1
  6
CONTINUOUS
 62
     7
 10
971.300036
 20
310.000000
 40
8.500000
 50
0.000000
 51
28.072487
  0
LINE
  8
CSLAYER1
  6
CONTINUOUS
 62
     7
 10
978.800036
 20
314.000000
 11
978.800036
 21
310.000000
  0
LINE
  8
CSLAYER1
  6
CONTINUOUS
 62
     7
 10
977.719480
 20
317.505553
 11
972.800036
 21
317.505553
  0
LINE
  8
CSLAYER1
  6
CONTINUOUS
 62
     7
 10
978.300036
 20
316.500000
 11
978.300036
 21
310.000000
  0
LINE
  8
CSLAYER1
  6
CONTINUOUS
 62
     7
 10
977.719480
 20
313.752776
 11
973.060269
 21
313.752776
  0
LINE
  8
CSLAYER1
  6
CONTINUOUS
 62
     7
 10
978.300036
 20
316.500000
 11
977.719480
 21
317.505553
  0
ARC
  8
CSLAYER1
  6
CONTINUOUS
 62
     7
 10
974.296471
 20
315.629165
 40
3.903565
 50
-28.730202
 51
28.730202
  0
ARC
  8
CSLAYER1
  6
CONTINUOUS
 62
     7
 10
963.306610
 20
310.000000
 40
14.893426
 50
0.000000
 51
14.594436
  0
LINE
  8
CSLAYER1
  6
CONTINUOUS
 62
     7
 10
978.800036
 20
306.000000
 11
978.300036
 21
306.000000
  0
LINE
  8
CSLAYER1
  6
CONTINUOUS
 62
     7
 10
979.101278
 20
306.625000
 11
978.300036
 21
306.625000
  0
ARC
  8
CSLAYER1
  6
CONTINUOUS
 62
     7
 10
971.300036
 20
310.000000
 40
8.500000
 50
331.927513
 51
360.000000
  0
LINE
  8
CSLAYER1
  6
CONTINUOUS
 62
     7
 10
978.800036
 20
306.000000
 11
978.800036
 21
310.000000
  0
LINE
  8
CSLAYER1
  6
CONTINUOUS
 62
     7
 10
977.719480
 20
302.494446
 11
972.800036
 21
302.494446
  0
LINE
  8
CSLAYER1
  6
CONTINUOUS
 62
     7
 10
978.300036
 20
303.500000
 11
978.300036
 21
310.000000
  0
LINE
  8
CSLAYER1
  6
CONTINUOUS
 62
     7
 10
977.719480
 20
306.247223
 11
973.060269
 21
306.247223
  0
LINE
  8
CSLAYER1
  6
CONTINUOUS
 62
     7
 10
978.300036
 20
303.500000
 11
977.719480
 21
302.494446
  0
ARC
  8
CSLAYER1
  6
CONTINUOUS
 62
     7
 10
974.296471
 20
304.370835
 40
3.903565
 50
-28.730202
 51
28.730202
  0
ARC
  8
CSLAYER1
  6
CONTINUOUS
 62
     7
 10
963.306610
 20
310.000000
 40
14.893426
 50
345.405564
 51
360.000000
  0
LINE
  8
CSLAYER1
  6
CONTINUOUS
 62
     7
 10
906.500036
 20
287.000000
 11
906.000036
 21
287.500000
  0
LINE
  8
CSLAYER1
  6
CONTINUOUS
 62
     7
 10
906.500036
 20
333.000000
 11
906.000036
 21
332.500000
  0
LINE
  8
CSLAYER1
  6
CENTER
 62
     7
 10
30.000036
 20
805.000000
 11
460.000036
 21
805.000000
  0
LINE
  8
CSLAYER1
  6
CENTER
 62
     7
 10
245.000036
 20
590.000000
 11
245.000036
 21
1099.300000
  0
CIRCLE
  8
CSLAYER1
  6
CONTINUOUS
 62
     7
 10
245.000036
 20
805.000000
 40
200.000000
  0
CIRCLE
  8
CSLAYER1
  6
CENTER
 62
     7
 10
245.000036
 20
805.000000
 40
177.500000
  0
LINE
  8
CSLAYER1
  6
CENTER
 62
     7
 10
194.530323
 20
993.355536
 11
203.588989
 21
959.548132
  0
LINE
  8
CSLAYER1
  6
CENTER
 62
     7
 10
107.114214
 20
942.885822
 11
131.862951
 21
918.137085
  0
LINE
  8
CSLAYER1
  6
CENTER
 62
     7
 10
56.644500
 20
855.469713
 11
90.451904
 21
846.411047
  0
LINE
  8
CSLAYER1
  6
CENTER
 62
     7
 10
433.355573
 20
855.469713
 11
399.548169
 21
846.411047
  0
LINE
  8
CSLAYER1
  6
CENTER
 62
     7
 10
382.885859
 20
942.885822
 11
358.137121
 21
918.137085
  0
LINE
  8
CSLAYER1
  6
CENTER
 62
     7
 10
295.469750
 20
993.355536
 11
286.411084
 21
959.548132
  0
CIRCLE
  8
CSLAYER1
  6
CONTINUOUS
 62
     7
 10
290.940417
 20
976.451834
 40
12.500000
  0
CIRCLE
  8
CSLAYER1
  6
CONTINUOUS
 62
     7
 10
370.511490
 20
930.511453
 40
12.500000
  0
CIRCLE
  8
CSLAYER1
  6
CONTINUOUS
 62
     7
 10
416.451871
 20
850.940380
 40
12.500000
  0
CIRCLE
  8
CSLAYER1
  6
CONTINUOUS
 62
     7
 10
416.451871
 20
759.059619
 40
12.500000
  0
CIRCLE
  8
CSLAYER1
  6
CONTINUOUS
 62
     7
 10
370.511490
 20
679.488546
 40
12.500000
  0
CIRCLE
  8
CSLAYER1
  6
CONTINUOUS
 62
     7
 10
290.940417
 20
633.548165
 40
12.500000
  0
CIRCLE
  8
CSLAYER1
  6
CONTINUOUS
 62
     7
 10
199.059656
 20
633.548165
 40
12.500000
  0
CIRCLE
  8
CSLAYER1
  6
CONTINUOUS
 62
     7
 10
119.488583
 20
679.488546
 40
12.500000
  0
CIRCLE
  8
CSLAYER1
  6
CONTINUOUS
 62
     7
 10
73.548202
 20
759.059619
 40
12.500000
  0
CIRCLE
  8
CSLAYER1
  6
CONTINUOUS
 62
     7
 10
73.548202
 20
850.940380
 40
12.500000
  0
CIRCLE
  8
CSLAYER1
  6
CONTINUOUS
 62
     7
 10
119.488583
 20
930.511453
 40
12.500000
  0
CIRCLE
  8
CSLAYER1
  6
CONTINUOUS
 62
     7
 10
199.059656
 20
976.451834
 40
12.500000
  0
CIRCLE
  8
CSLAYER1
  6
CONTINUOUS
 62
     7
 10
245.000036
 20
805.000000
 40
142.500000
  0
LINE
  8
CSLAYER1
  6
CENTER
 62
     7
 10
286.411084
 20
650.451867
 11
295.469750
 21
616.644464
  0
LINE
  8
CSLAYER1
  6
CENTER
 62
     7
 10
358.137121
 20
691.862915
 11
382.885859
 21
667.114177
  0
LINE
  8
CSLAYER1
  6
CENTER
 62
     7
 10
399.548169
 20
763.588952
 11
433.355573
 21
754.530286
  0
LINE
  8
CSLAYER1
  6
CENTER
 62
     7
 10
90.451904
 20
763.588952
 11
56.644500
 21
754.530286
  0
LINE
  8
CSLAYER1
  6
CENTER
 62
     7
 10
131.862951
 20
691.862915
 11
107.114214
 21
667.114177
  0
LINE
  8
CSLAYER1
  6
CENTER
 62
     7
 10
203.588989
 20
650.451867
 11
194.530323
 21
616.644464
  0
CIRCLE
  8
CSLAYER1
  6
CONTINUOUS
 62
     7
 10
245.000036
 20
805.000000
 40
205.000000
  0
LINE
  8
CSLAYER1
  6
CONTINUOUS
 62
     7
 10
215.000036
 20
1007.792998
 11
215.000036
 21
1015.000000
  0
LINE
  8
CSLAYER1
  6
CONTINUOUS
 62
     7
 10
275.000036
 20
1007.792998
 11
275.000036
 21
1015.000000
  0
LINE
  8
CSLAYER1
  6
CONTINUOUS
 62
     7
 10
216.000036
 20
1016.000000
 11
274.000036
 21
1016.000000
  0
LINE
  8
CSLAYER1
  6
CONTINUOUS
 62
     7
 10
216.000036
 20
1016.000000
 11
215.000036
 21
1015.000000
  0
LINE
  8
CSLAYER1
  6
CONTINUOUS
 62
     7
 10
274.000036
 20
1016.000000
 11
275.000036
 21
1015.000000
  0
LINE
  8
CSLAYER1
  6
CONTINUOUS
 62
     7
 10
226.839058
 20
1021.973765
 11
227.102178
 21
1032.000000
  0
ARC
  8
CSLAYER1
  6
CONTINUOUS
 62
     7
 10
225.839402
 20
1022.000000
 40
1.000000
 50
335.593193
 51
358.496721
  0
LINE
  8
CSLAYER1
  6
CONTINUOUS
 62
     7
 10
223.000036
 20
1020.000000
 11
245.000036
 21
1020.000000
  0
LINE
  8
CSLAYER1
  6
CONTINUOUS
 62
     7
 10
222.000036
 20
1016.000000
 11
222.000036
 21
1019.000000
  0
ARC
  8
CSLAYER1
  6
CONTINUOUS
 62
     7
 10
223.000036
 20
1019.000000
 40
1.000000
 50
90.000000
 51
180.000000
  0
LINE
  8
CSLAYER1
  6
CONTINUOUS
 62
     7
 10
226.750036
 20
1021.000000
 11
226.750036
 21
1021.586787
  0
ARC
  8
CSLAYER1
  6
CONTINUOUS
 62
     7
 10
225.750036
 20
1021.000000
 40
1.000000
 50
270.000000
 51
360.000000
  0
LINE
  8
CSLAYER1
  6
CONTINUOUS
 62
     7
 10
227.102178
 20
1032.000000
 11
232.000036
 21
1033.500000
  0
LINE
  8
CSLAYER1
  6
CONTINUOUS
 62
     7
 10
232.000036
 20
1033.500000
 11
232.000036
 21
1041.000000
  0
LINE
  8
CSLAYER1
  6
CONTINUOUS
 62
     7
 10
232.750036
 20
1034.799038
 11
232.750036
 21
1041.000000
  0
LINE
  8
CSLAYER1
  6
CONTINUOUS
 62
     7
 10
232.000036
 20
1033.500000
 11
232.750036
 21
1034.799038
  0
LINE
  8
CSLAYER1
  6
CONTINUOUS
 62
     7
 10
232.750036
 20
1034.799038
 11
245.000036
 21
1034.799038
  0
LINE
  8
CSLAYER1
  6
CONTINUOUS
 62
     7
 10
238.300036
 20
1058.933188
 11
238.300036
 21
1070.300000
  0
LINE
  8
CSLAYER1
  6
CONTINUOUS
 62
     7
 10
251.700036
 20
1058.933188
 11
251.700036
 21
1070.300000
  0
LINE
  8
CSLAYER1
  6
CONTINUOUS
 62
     7
 10
226.524828
 20
1055.830002
 11
226.524828
 21
1042.717737
  0
LINE
  8
CSLAYER1
  6
CONTINUOUS
 62
     7
 10
229.500036
 20
1041.000000
 11
245.000036
 21
1041.000000
  0
ARC
  8
CSLAYER1
  6
CONTINUOUS
 62
     7
 10
245.000036
 20
1011.528008
 40
48.000000
 50
99.029410
 51
112.637543
  0
LINE
  8
CSLAYER1
  6
CONTINUOUS
 62
     7
 10
229.500036
 20
1041.000000
 11
226.524828
 21
1042.717737
  0
LINE
  8
CSLAYER1
  6
CONTINUOUS
 62
     7
 10
237.466848
 20
1058.933188
 11
245.000036
 21
1058.933188
  0
LINE
  8
CSLAYER1
  6
CONTINUOUS
 62
     7
 10
263.161015
 20
1021.973765
 11
262.897895
 21
1032.000000
  0
ARC
  8
CSLAYER1
  6
CONTINUOUS
 62
     7
 10
264.160671
 20
1022.000000
 40
1.000000
 50
181.503279
 51
204.406807
  0
LINE
  8
CSLAYER1
  6
CONTINUOUS
 62
     7
 10
267.000036
 20
1020.000000
 11
245.000036
 21
1020.000000
  0
LINE
  8
CSLAYER1
  6
CONTINUOUS
 62
     7
 10
268.000036
 20
1016.000000
 11
268.000036
 21
1019.000000
  0
ARC
  8
CSLAYER1
  6
CONTINUOUS
 62
     7
 10
267.000036
 20
1019.000000
 40
1.000000
 50
0.000000
 51
90.000000
  0
LINE
  8
CSLAYER1
  6
CONTINUOUS
 62
     7
 10
263.250036
 20
1021.000000
 11
263.250036
 21
1021.586787
  0
ARC
  8
CSLAYER1
  6
CONTINUOUS
 62
     7
 10
264.250036
 20
1021.000000
 40
1.000000
 50
180.000000
 51
270.000000
  0
LINE
  8
CSLAYER1
  6
CONTINUOUS
 62
     7
 10
262.897895
 20
1032.000000
 11
258.000036
 21
1033.500000
  0
LINE
  8
CSLAYER1
  6
CONTINUOUS
 62
     7
 10
258.000036
 20
1033.500000
 11
258.000036
 21
1041.000000
  0
LINE
  8
CSLAYER1
  6
CONTINUOUS
 62
     7
 10
257.250036
 20
1034.799038
 11
257.250036
 21
1041.000000
  0
LINE
  8
CSLAYER1
  6
CONTINUOUS
 62
     7
 10
258.000036
 20
1033.500000
 11
257.250036
 21
1034.799038
  0
LINE
  8
CSLAYER1
  6
CONTINUOUS
 62
     7
 10
245.000036
 20
1034.799038
 11
258.000036
 21
1034.799038
  0
LINE
  8
CSLAYER1
  6
CONTINUOUS
 62
     7
 10
263.475245
 20
1055.830002
 11
263.475245
 21
1042.717737
  0
LINE
  8
CSLAYER1
  6
CONTINUOUS
 62
     7
 10
260.500036
 20
1041.000000
 11
245.000036
 21
1041.000000
  0
ARC
  8
CSLAYER1
  6
CONTINUOUS
 62
     7
 10
245.000036
 20
1011.528008
 40
48.000000
 50
67.362457
 51
80.970590
  0
LINE
  8
CSLAYER1
  6
CONTINUOUS
 62
     7
 10
260.500036
 20
1041.000000
 11
263.475245
 21
1042.717737
  0
LINE
  8
CSLAYER1
  6
CONTINUOUS
 62
     7
 10
252.533225
 20
1058.933188
 11
245.000036
 21
1058.933188
  0
LINE
  8
CSLAYER1
  6
CONTINUOUS
 62
     7
 10
232.000036
 20
1033.500000
 11
258.000036
 21
1033.500000
  0
LINE
  8
CSLAYER1
  6
CONTINUOUS
 62
     7
 10
235.762432
 20
1055.933185
 11
235.762432
 21
1042.650925
  0
ARC
  8
CSLAYER1
  6
CONTINUOUS
 62
     7
 10
231.143630
 20
1049.465781
 40
8.232593
 50
235.872350
 51
304.127650
  0
ARC
  8
CSLAYER1
  6
CONTINUOUS
 62
     7
 10
231.143630
 20
1047.782643
 40
9.368283
 50
60.460367
 51
119.539633
  0
ARC
  8
CSLAYER1
  6
CONTINUOUS
 62
     7
 10
245.000036
 20
1021.504401
 40
35.646524
 50
90.000000
 51
105.019312
  0
ARC
  8
CSLAYER1
  6
CONTINUOUS
 62
     7
 10
245.000036
 20
1072.036955
 40
30.803768
 50
252.549272
 51
270.000000
  0
LINE
  8
CSLAYER1
  6
CONTINUOUS
 62
     7
 10
254.237641
 20
1055.933185
 11
254.237641
 21
1042.650925
  0
ARC
  8
CSLAYER1
  6
CONTINUOUS
 62
     7
 10
245.000036
 20
1072.036955
 40
30.803768
 50
270.000000
 51
287.450728
  0
ARC
  8
CSLAYER1
  6
CONTINUOUS
 62
     7
 10
258.856443
 20
1049.465781
 40
8.232593
 50
235.872350
 51
304.127650
  0
ARC
  8
CSLAYER1
  6
CONTINUOUS
 62
     7
 10
258.856443
 20
1047.782643
 40
9.368283
 50
60.460367
 51
119.539633
  0
ARC
  8
CSLAYER1
  6
CONTINUOUS
 62
     7
 10
245.000036
 20
1021.504401
 40
35.646524
 50
74.980688
 51
90.000000
  0
LINE
  8
CSLAYER1
  6
CONTINUOUS
 62
     7
 10
236.051107
 20
1032.000000
 11
236.051107
 21
1020.000000
  0
LINE
  8
CSLAYER1
  6
CONTINUOUS
 62
     7
 10
253.948966
 20
1032.000000
 11
253.948966
 21
1020.000000
  0
ARC
  8
CSLAYER1
  6
CONTINUOUS
 62
     7
 10
258.423430
 20
1022.489909
 40
10.510122
 50
64.803178
 51
115.196822
  0
ARC
  8
CSLAYER1
  6
CONTINUOUS
 62
     7
 10
245.000036
 20
992.458333
 40
40.541667
 50
77.247845
 51
102.752155
  0
ARC
  8
CSLAYER1
  6
CONTINUOUS
 62
     7
 10
231.576643
 20
1022.489909
 40
10.510122
 50
64.803178
 51
115.196822
  0
LINE
  8
CSLAYER1
  6
CONTINUOUS
 62
     7
 10
236.500036
 20
1070.300000
 11
236.500036
 21
1070.800000
  0
LINE
  8
CSLAYER1
  6
CONTINUOUS
 62
     7
 10
236.500036
 20
1070.300000
 11
245.000036
 21
1070.300000
  0
LINE
  8
CSLAYER1
  6
CONTINUOUS
 62
     7
 10
205.000036
 20
1071.800000
 11
205.000036
 21
1077.800000
  0
ARC
  8
CSLAYER1
  6
CONTINUOUS
 62
     7
 10
211.000036
 20
1077.800000
 40
6.000000
 50
48.590378
 51
180.000000
  0
LINE
  8
CSLAYER1
  6
CONTINUOUS
 62
     7
 10
206.000036
 20
1070.800000
 11
245.000036
 21
1070.800000
  0
ARC
  8
CSLAYER1
  6
CONTINUOUS
 62
     7
 10
245.000036
 20
1077.800000
 40
6.000000
 50
90.000000
 51
123.557310
  0
LINE
  8
CSLAYER1
  6
CONTINUOUS
 62
     7
 10
214.968663
 20
1082.300000
 11
215.983469
 21
1082.300000
  0
LINE
  8
CSLAYER1
  6
CONTINUOUS
 62
     7
 10
225.933343
 20
1082.300000
 11
240.025099
 21
1082.300000
  0
ARC
  8
CSLAYER1
  6
CONTINUOUS
 62
     7
 10
215.983469
 20
1085.300000
 40
3.000000
 50
270.000000
 51
303.557310
  0
ARC
  8
CSLAYER1
  6
CONTINUOUS
 62
     7
 10
225.933343
 20
1085.300000
 40
3.000000
 50
236.442690
 51
270.000000
  0
ARC
  8
CSLAYER1
  6
CONTINUOUS
 62
     7
 10
240.025099
 20
1085.300000
 40
3.000000
 50
270.000000
 51
303.557310
  0
ARC
  8
CSLAYER1
  6
CONTINUOUS
 62
     7
 10
220.958406
 20
1077.800000
 40
6.000000
 50
56.442690
 51
180.000000
  0
LINE
  8
CSLAYER1
  6
CONTINUOUS
 62
     7
 10
214.958406
 20
1077.800000
 11
214.958406
 21
1071.800000
  0
ARC
  8
CSLAYER1
  6
CONTINUOUS
 62
     7
 10
206.000036
 20
1071.800000
 40
1.000000
 50
180.000000
 51
270.000000
  0
ARC
  8
CSLAYER1
  6
CONTINUOUS
 62
     7
 10
215.958406
 20
1071.800000
 40
1.000000
 50
180.000000
 51
270.000000
  0
LINE
  8
CSLAYER1
  6
CONTINUOUS
 62
     7
 10
241.031409
 20
1082.473811
 11
241.031409
 21
1070.800000
  0
LINE
  8
CSLAYER1
  6
CONTINUOUS
 62
     7
 10
224.927033
 20
1082.473811
 11
224.927033
 21
1070.800000
  0
LINE
  8
CSLAYER1
  6
CONTINUOUS
 62
     7
 10
253.500036
 20
1070.300000
 11
253.500036
 21
1070.800000
  0
LINE
  8
CSLAYER1
  6
CONTINUOUS
 62
     7
 10
253.500036
 20
1070.300000
 11
245.000036
 21
1070.300000
  0
LINE
  8
CSLAYER1
  6
CONTINUOUS
 62
     7
 10
285.000036
 20
1071.800000
 11
285.000036
 21
1077.800000
  0
ARC
  8
CSLAYER1
  6
CONTINUOUS
 62
     7
 10
279.000036
 20
1077.800000
 40
6.000000
 50
0.000000
 51
131.409622
  0
LINE
  8
CSLAYER1
  6
CONTINUOUS
 62
     7
 10
284.000036
 20
1070.800000
 11
245.000036
 21
1070.800000
  0
ARC
  8
CSLAYER1
  6
CONTINUOUS
 62
     7
 10
245.000036
 20
1077.800000
 40
6.000000
 50
56.442690
 51
90.000000
  0
LINE
  8
CSLAYER1
  6
CONTINUOUS
 62
     7
 10
275.031409
 20
1082.300000
 11
274.016604
 21
1082.300000
  0
LINE
  8
CSLAYER1
  6
CONTINUOUS
 62
     7
 10
264.066730
 20
1082.300000
 11
249.974974
 21
1082.300000
  0
ARC
  8
CSLAYER1
  6
CONTINUOUS
 62
     7
 10
274.016604
 20
1085.300000
 40
3.000000
 50
236.442690
 51
270.000000
  0
ARC
  8
CSLAYER1
  6
CONTINUOUS
 62
     7
 10
264.066730
 20
1085.300000
 40
3.000000
 50
270.000000
 51
303.557310
  0
ARC
  8
CSLAYER1
  6
CONTINUOUS
 62
     7
 10
249.974974
 20
1085.300000
 40
3.000000
 50
236.442690
 51
270.000000
  0
ARC
  8
CSLAYER1
  6
CONTINUOUS
 62
     7
 10
269.041667
 20
1077.800000
 40
6.000000
 50
0.000000
 51
123.557310
  0
LINE
  8
CSLAYER1
  6
CONTINUOUS
 62
     7
 10
275.041667
 20
1077.800000
 11
275.041667
 21
1071.800000
  0
ARC
  8
CSLAYER1
  6
CONTINUOUS
 62
     7
 10
284.000036
 20
1071.800000
 40
1.000000
 50
270.000000
 51
360.000000
  0
ARC
  8
CSLAYER1
  6
CONTINUOUS
 62
     7
 10
274.041667
 20
1071.800000
 40
1.000000
 50
270.000000
 51
360.000000
  0
LINE
  8
CSLAYER1
  6
CONTINUOUS
 62
     7
 10
248.968663
 20
1082.473811
 11
248.968663
 21
1070.800000
  0
LINE
  8
CSLAYER1
  6
CONTINUOUS
 62
     7
 10
265.073040
 20
1082.473811
 11
265.073040
 21
1070.800000
  0
LINE
  8
CSLAYER1
  6
CONTINUOUS
 62
     7
 10
241.000036
 20
1088.300000
 11
241.000036
 21
1087.800000
  0
LINE
  8
CSLAYER1
  6
CONTINUOUS
 62
     7
 10
241.625036
 20
1088.601242
 11
241.625036
 21
1087.800000
  0
ARC
  8
CSLAYER1
  6
CONTINUOUS
 62
     7
 10
245.000036
 20
1080.800000
 40
8.500000
 50
90.000000
 51
118.072487
  0
LINE
  8
CSLAYER1
  6
CONTINUOUS
 62
     7
 10
241.000036
 20
1088.300000
 11
245.000036
 21
1088.300000
  0
LINE
  8
CSLAYER1
  6
CONTINUOUS
 62
     7
 10
237.494483
 20
1087.219443
 11
237.494483
 21
1082.300000
  0
LINE
  8
CSLAYER1
  6
CONTINUOUS
 62
     7
 10
238.500036
 20
1087.800000
 11
245.000036
 21
1087.800000
  0
LINE
  8
CSLAYER1
  6
CONTINUOUS
 62
     7
 10
241.247260
 20
1087.219443
 11
241.247260
 21
1082.560233
  0
LINE
  8
CSLAYER1
  6
CONTINUOUS
 62
     7
 10
238.500036
 20
1087.800000
 11
237.494483
 21
1087.219443
  0
ARC
  8
CSLAYER1
  6
CONTINUOUS
 62
     7
 10
239.370871
 20
1083.796434
 40
3.903565
 50
61.269798
 51
118.730202
  0
ARC
  8
CSLAYER1
  6
CONTINUOUS
 62
     7
 10
245.000036
 20
1072.806574
 40
14.893426
 50
90.000000
 51
104.594436
  0
LINE
  8
CSLAYER1
  6
CONTINUOUS
 62
     7
 10
249.000036
 20
1088.300000
 11
249.000036
 21
1087.800000
  0
LINE
  8
CSLAYER1
  6
CONTINUOUS
 62
     7
 10
248.375036
 20
1088.601242
 11
248.375036
 21
1087.800000
  0
ARC
  8
CSLAYER1
  6
CONTINUOUS
 62
     7
 10
245.000036
 20
1080.800000
 40
8.500000
 50
61.927513
 51
90.000000
  0
LINE
  8
CSLAYER1
  6
CONTINUOUS
 62
     7
 10
249.000036
 20
1088.300000
 11
245.000036
 21
1088.300000
  0
LINE
  8
CSLAYER1
  6
CONTINUOUS
 62
     7
 10
252.505590
 20
1087.219443
 11
252.505590
 21
1082.300000
  0
LINE
  8
CSLAYER1
  6
CONTINUOUS
 62
     7
 10
251.500036
 20
1087.800000
 11
245.000036
 21
1087.800000
  0
LINE
  8
CSLAYER1
  6
CONTINUOUS
 62
     7
 10
248.752813
 20
1087.219443
 11
248.752813
 21
1082.560233
  0
LINE
  8
CSLAYER1
  6
CONTINUOUS
 62
     7
 10
251.500036
 20
1087.800000
 11
252.505590
 21
1087.219443
  0
ARC
  8
CSLAYER1
  6
CONTINUOUS
 62
     7
 10
250.629202
 20
1083.796434
 40
3.903565
 50
61.269798
 51
118.730202
  0
ARC
  8
CSLAYER1
  6
CONTINUOUS
 62
     7
 10
245.000036
 20
1072.806574
 40
14.893426
 50
75.405564
 51
90.000000
  0
LINE
  8
CSLAYER1
  6
CONTINUOUS
 62
     7
 10
125.579363
 20
269.151253
 11
116.579363
 21
269.151253
  0
INSERT
  8
CSLAYER1
  2
BLKF0000
 10
0.0
 20
0.0
 30
0.0
  0
LINE
  8
CSLAYER1
  6
CONTINUOUS
 62
     7
 10
490.000036
 20
465.000000
 11
490.000036
 21
175.000000
  0
LINE
  8
CSLAYER1
  6
CONTINUOUS
 62
     7
 10
999.800036
 20
310.000000
 11
999.800036
 21
137.743778
  0
INSERT
  8
CSLAYER1
  2
BLKF0001
 10
0.0
 20
0.0
 30
0.0
  0
INSERT
  8
CSLAYER1
  2
BLKF0002
 10
0.0
 20
0.0
 30
0.0
  0
INSERT
  8
CSLAYER1
  2
BLKF0003
 10
0.0
 20
0.0
 30
0.0
  0
TEXT
  8
CSLAYER1
 62
     7
 10
893.730469
 20
1063.587280
 40
6.000000
 41
0.846774
  1
SMOLENSKY CHECK VALVE
 50
0.000000
 51
0.000000
  7
EASYDRAW_FONT
 72
     5
 11
998.730469
 21
1063.587280
  0
TEXT
  8
CSLAYER1
 62
     7
 10
893.813721
 20
1043.587280
 40
6.000000
 41
0.865385
  1
株式会社　イシザキ
 50
0.000000
 51
0.000000
  7
EASYDRAW_FONT
 72
     5
 11
938.813721
 21
1043.587280
  0
TEXT
  8
CSLAYER1
 62
     7
 10
893.591187
 20
1053.587280
 40
6.000000
 41
0.850000
  1
SM ・ SMC 10K 250A
 50
0.000000
 51
0.000000
  7
EASYDRAW_FONT
 72
     5
 11
978.591187
 21
1053.587280
  0
ENDSEC
  0
EOF
