  0
SECTION
  2
HEADER
  9
$ACADVER
  1
AC1006
  9
$INSBASE
 10
0.000000
 20
0.000000
 30
0.0
  9
$EXTMIN
 10
0.000000
 20
0.000000
  9
$EXTMAX
 10
1447.484133
 20
1296.473540
  9
$LIMMIN
 10
0.000000
 20
0.000000
  9
$LIMMAX
 10
1447.484133
 20
1296.473540
  9
$VIEWCTR
 10
723.742066
 20
648.236770
  9
$VIEWSIZE
 40
1296.473540
  9
$SNAPMODE
 70
     0
  9
$SNAPUNIT
 10
1.0
 20
1.0
  9
$SNAPBASE
 10
0.0
 20
0.0
  9
$SNAPANG
 50
0.0
  9
$SNAPSTYLE
 70
     0
  9
$SNAPISOPAIR
 70
     0
  9
$GRIDMODE
 70
     0
  9
$GRIDUNIT
 10
0.0
 20
0.0
  9
$ORTHOMODE
 70
     0
  9
$REGENMODE
 70
     1
  9
$FILLMODE
 70
     1
  9
$QTEXTMODE
 70
     0
  9
$DRAGMODE
 70
     2
  9
$LTSCALE
 40
15.000000
  9
$OSMODE
 70
     0
  9
$ATTMODE
 70
     1
  9
$TEXTSIZE
 40
0.2
  9
$TRACEWID
 40
0.05
  9
$TEXTSTYLE
  7
STANDARD
  9
$CLAYER
  8
CSLAYER1
  9
$CELTYPE
  6
BYLAYER
  9
$CECOLOR
 62
   256
  9
$DIMSCALE
 40
1.0
  9
$DIMASZ
 40
0.18
  9
$DIMEXO
 40
0.0625
  9
$DIMDLI
 40
0.38
  9
$DIMRND
 40
0.0
  9
$DIMDLE
 40
0.0
  9
$DIMEXE
 40
0.18
  9
$DIMTP
 40
0.0
  9
$DIMTM
 40
0.0
  9
$DIMTXT
 40
0.18
  9
$DIMCEN
 40
0.09
  9
$DIMTSZ
 40
0.0
  9
$DIMTOL
 70
     0
  9
$DIMLIM
 70
     0
  9
$DIMTIH
 70
     1
  9
$DIMTOH
 70
     1
  9
$DIMSE1
 70
     0
  9
$DIMSE2
 70
     0
  9
$DIMTAD
 70
     0
  9
$DIMZIN
 70
     0
  9
$DIMBLK
  1

  9
$LUNITS
 70
     2
  9
$LUPREC
 70
     4
  9
$AXISMODE
 70
     0
  9
$AXISUNIT
 10
0.0
 20
0.0
  9
$SKETCHINC
 40
0.1
  9
$FILLETRAD
 40
0.0
  9
$AUNITS
 70
     0
  9
$AUPREC
 70
     0
  9
$MENU
  1
ACAD
  9
$ELEVATION
 40
0.0
  9
$THICKNESS
 40
0.0
  9
$VIEWDIR
 10
0.0
 20
0.0
 30
1.0
  9
$LIMCHECK
 70
     0
  9
$BLIPMODE
 70
     1
  9
$CHAMFERA
 40
0.0
  9
$CHAMFERB
 40
0.0
  9
$FASTZOOM
 70
     1
  9
$SKPOLY
 70
     0
  9
$TDCREATE
 40
2456637.000000
  9
$TDUPDATE
 40
2456637.000000
  9
$TDINDWG
 40
0.0
  9
$TDUSRTIMER
 40
0.0
  9
$USRTIMER
 70
     1
  9
$ANGBASE
 50
0.0
  9
$ANGDIR
 70
     0
  9
$PDMODE
 70
     0
  9
$PDSIZE
 40
0.0
  9
$PLINEWID
 40
0.0
  9
$COORDS
 70
     0
  9
$USERI1
 70
     0
  9
$USERI2
 70
     0
  9
$USERI3
 70
     0
  9
$USERI4
 70
     0
  9
$USERI5
 70
     0
  9
$USERR1
 40
0.0
  9
$USERR2
 40
0.0
  9
$USERR3
 40
0.0
  9
$USERR4
 40
0.0
  9
$USERR5
 40
0.0
  0
ENDSEC
  0
SECTION
  2
TABLES
  0
TABLE
  2
LTYPE
 70
     9
  0
LTYPE
  2
CONTINUOUS
 70
    64
  3
Solid line
 72
    65
 73
     0
 40
0.0
  0
LTYPE
  2
DASHED
 70
    64
  3
__ __ __ __ __ __ __ __ __ __ __ __ __ __ __
 72
    65
 73
     2
 40
0.75
 49
0.5
 49
-0.25
  0
LTYPE
  2
HIDDEN
 70
    64
  3
_ _ _ _ _ _ _ _ _ _ _ _ _ _ _ _ _ _ _ _ _ _ _
 72
    65
 73
     2
 40
0.375
 49
0.25
 49
-0.125
  0
LTYPE
  2
DOT
 70
    64
  3
...............................................
 72
    65
 73
     2
 40
0.25
 49
0.0
 49
-0.25
  0
LTYPE
  2
DASHDOT
 70
    64
  3
__ . __ . __ . __ . __ . __ . __ . __ . __ . __
 72
    65
 73
     4
 40
1.0
 49
0.5
 49
-0.25
 49
0.0
 49
-0.25
  0
LTYPE
  2
DIVIDE
 70
    64
  3
__ . . __ . . __ . . __ . . __ . . __ . . __
 72
    65
 73
     6
 40
1.25
 49
0.5
 49
-0.25
 49
0.0
 49
-0.25
 49
0.0
 49
-0.25
  0
LTYPE
  2
CENTER
 70
    64
  3
____ _ ____ _ ____ _ ____ _ ____ _ ____ _ ____ 
 72
    65
 73
     4
 40
2.0
 49
1.25
 49
-0.25
 49
0.25
 49
-0.25
  0
LTYPE
  2
PHANTOM
 70
    64
  3
______  __  __  ______  __  __  ______  __  __ 
 72
    65
 73
     6
 40
2.5
 49
1.25
 49
-0.25
 49
0.25
 49
-0.25
 49
0.25
 49
-0.25
  0
LTYPE
  2
BORDER
 70
    64
  3
__ __ . __ __ . __ __ . __ __ . __ __ . __ __ .
 72
    65
 73
     6
 40
1.75
 49
0.5
 49
-0.25
 49
0.5
 49
-0.25
 49
0.0
 49
-0.25
  0
ENDTAB
  0
TABLE
  2
LAYER
 70
    16
  0
LAYER
  2
CSLAYER1
 70
    64
 62
     7
  6
CONTINUOUS
  0
LAYER
  2
CSLAYER2
 70
    64
 62
     7
  6
CONTINUOUS
  0
LAYER
  2
CSLAYER3
 70
    64
 62
     7
  6
CONTINUOUS
  0
LAYER
  2
CSLAYER4
 70
    64
 62
     7
  6
CONTINUOUS
  0
LAYER
  2
CSLAYER5
 70
    64
 62
     7
  6
CONTINUOUS
  0
LAYER
  2
CSLAYER6
 70
    64
 62
     7
  6
CONTINUOUS
  0
LAYER
  2
CSLAYER7
 70
    64
 62
     7
  6
CONTINUOUS
  0
LAYER
  2
CSLAYER8
 70
    64
 62
     7
  6
CONTINUOUS
  0
LAYER
  2
CSLAYER9
 70
    64
 62
     7
  6
CONTINUOUS
  0
LAYER
  2
CSLAYER10
 70
    64
 62
     7
  6
CONTINUOUS
  0
LAYER
  2
CSLAYER11
 70
    64
 62
     7
  6
CONTINUOUS
  0
LAYER
  2
CSLAYER12
 70
    64
 62
     7
  6
CONTINUOUS
  0
LAYER
  2
CSLAYER13
 70
    64
 62
     7
  6
CONTINUOUS
  0
LAYER
  2
CSLAYER14
 70
    64
 62
     7
  6
CONTINUOUS
  0
LAYER
  2
CSLAYER15
 70
    64
 62
     7
  6
CONTINUOUS
  0
LAYER
  2
CSLAYER16
 70
    64
 62
     7
  6
CONTINUOUS
  0
ENDTAB
  0
TABLE
  2
STYLE
 70
     1
  0
STYLE
  2
EASYDRAW_FONT
 70
     0
 40
1.0
 41
1.0
 50
0.0
 71
     0
 42
1.0
  3
monotxt
  4
bigfont
  0
ENDTAB
  0
TABLE
  2
VIEW
 70
     0
  0
ENDTAB
  0
ENDSEC
  0
SECTION
  2
BLOCKS
  0
BLOCK
  8
CSLAYER1
  2
BLKF0000
 70
   64
 10
0.0
 20
0.0
 30
0.0
  0
LINE
  8
CSLAYER1
  6
CONTINUOUS
 62
     7
 10
694.588888
 20
260.832121
 11
694.588120
 21
260.833025
  0
LINE
  8
CSLAYER1
  6
CONTINUOUS
 62
     7
 10
694.588120
 20
260.833025
 11
694.587226
 21
260.833843
  0
LINE
  8
CSLAYER1
  6
CONTINUOUS
 62
     7
 10
694.587226
 20
260.833843
 11
694.586218
 21
260.834559
  0
LINE
  8
CSLAYER1
  6
CONTINUOUS
 62
     7
 10
694.586218
 20
260.834559
 11
694.585126
 21
260.835159
  0
LINE
  8
CSLAYER1
  6
CONTINUOUS
 62
     7
 10
694.585126
 20
260.835159
 11
694.583962
 21
260.835634
  0
LINE
  8
CSLAYER1
  6
CONTINUOUS
 62
     7
 10
694.583962
 20
260.835634
 11
694.582756
 21
260.835980
  0
LINE
  8
CSLAYER1
  6
CONTINUOUS
 62
     7
 10
694.582756
 20
260.835980
 11
694.581526
 21
260.836196
  0
LINE
  8
CSLAYER1
  6
CONTINUOUS
 62
     7
 10
694.581526
 20
260.836196
 11
694.580032
 21
260.836288
  0
ENDBLK
  8
0
  0
BLOCK
  8
CSLAYER1
  2
BLKF0001
 70
   64
 10
0.0
 20
0.0
 30
0.0
  0
LINE
  8
CSLAYER1
  6
CONTINUOUS
 62
     7
 10
138.400002
 20
51.000000
 11
24.000002
 21
51.000000
  0
LINE
  8
CSLAYER1
  6
CONTINUOUS
 62
     7
 10
138.400002
 20
651.000000
 11
24.000002
 21
651.000000
  0
LINE
  8
CSLAYER1
  6
CONTINUOUS
 62
     7
 10
25.000002
 20
51.000000
 11
25.000002
 21
651.000000
  0
LINE
  8
CSLAYER1
  6
CONTINUOUS
 62
     7
 10
25.000002
 20
51.000000
 11
24.223545
 21
53.897777
  0
LINE
  8
CSLAYER1
  6
CONTINUOUS
 62
     7
 10
25.000002
 20
51.000000
 11
25.776459
 21
53.897777
  0
LINE
  8
CSLAYER1
  6
CONTINUOUS
 62
     7
 10
25.000002
 20
651.000000
 11
24.223545
 21
648.102222
  0
LINE
  8
CSLAYER1
  6
CONTINUOUS
 62
     7
 10
25.000002
 20
651.000000
 11
25.776459
 21
648.102222
  0
TEXT
  8
CSLAYER1
 62
     7
 10
24.000000
 20
345.000000
 40
4.000000
 41
0.818182
  1
1000
 50
90.000000
 51
0.000000
  7
EASYDRAW_FONT
 72
     5
 11
24.000000
 21
357.000000
  0
ENDBLK
  8
0
  0
BLOCK
  8
CSLAYER1
  2
BLKF0002
 70
   64
 10
0.0
 20
0.0
 30
0.0
  0
LINE
  8
CSLAYER1
  6
CONTINUOUS
 62
     7
 10
341.000002
 20
38.000000
 11
341.000002
 21
20.000000
  0
LINE
  8
CSLAYER1
  6
CONTINUOUS
 62
     7
 10
686.600002
 20
107.096323
 11
686.600002
 21
20.000000
  0
LINE
  8
CSLAYER1
  6
CONTINUOUS
 62
     7
 10
341.000002
 20
21.000000
 11
686.600002
 21
21.000000
  0
LINE
  8
CSLAYER1
  6
CONTINUOUS
 62
     7
 10
341.000002
 20
21.000000
 11
343.897779
 21
21.776457
  0
LINE
  8
CSLAYER1
  6
CONTINUOUS
 62
     7
 10
341.000002
 20
21.000000
 11
343.897779
 21
20.223543
  0
LINE
  8
CSLAYER1
  6
CONTINUOUS
 62
     7
 10
686.600002
 20
21.000000
 11
683.702224
 21
21.776457
  0
LINE
  8
CSLAYER1
  6
CONTINUOUS
 62
     7
 10
686.600002
 20
21.000000
 11
683.702224
 21
20.223543
  0
TEXT
  8
CSLAYER1
 62
     7
 10
509.300049
 20
22.000002
 40
4.000000
 41
0.843750
  1
576
 50
0.000000
 51
0.000000
  7
EASYDRAW_FONT
 72
     5
 11
518.300049
 21
22.000002
  0
ENDBLK
  8
0
  0
BLOCK
  8
CSLAYER1
  2
BLKF0003
 70
   64
 10
0.0
 20
0.0
 30
0.0
  0
LINE
  8
CSLAYER1
  6
CONTINUOUS
 62
     7
 10
1303.084133
 20
51.000000
 11
1427.484133
 21
51.000000
  0
LINE
  8
CSLAYER1
  6
CONTINUOUS
 62
     7
 10
1153.984133
 20
257.400000
 11
1427.484133
 21
257.400000
  0
LINE
  8
CSLAYER1
  6
CONTINUOUS
 62
     7
 10
1426.484133
 20
51.000000
 11
1426.484133
 21
257.400000
  0
LINE
  8
CSLAYER1
  6
CONTINUOUS
 62
     7
 10
1426.484133
 20
51.000000
 11
1425.707676
 21
53.897777
  0
LINE
  8
CSLAYER1
  6
CONTINUOUS
 62
     7
 10
1426.484133
 20
51.000000
 11
1427.260590
 21
53.897777
  0
LINE
  8
CSLAYER1
  6
CONTINUOUS
 62
     7
 10
1426.484133
 20
257.400000
 11
1425.707676
 21
254.502222
  0
LINE
  8
CSLAYER1
  6
CONTINUOUS
 62
     7
 10
1426.484133
 20
257.400000
 11
1427.260590
 21
254.502222
  0
TEXT
  8
CSLAYER1
 62
     7
 10
1425.484253
 20
149.700012
 40
4.000000
 41
0.843750
  1
344
 50
90.000000
 51
0.000000
  7
EASYDRAW_FONT
 72
     5
 11
1425.484253
 21
158.700012
  0
ENDBLK
  8
0
  0
BLOCK
  8
CSLAYER1
  2
BLKF0004
 70
   64
 10
0.0
 20
0.0
 30
0.0
  0
LINE
  8
CSLAYER1
  6
CONTINUOUS
 62
     7
 10
1303.084133
 20
651.000000
 11
1427.484133
 21
651.000000
  0
LINE
  8
CSLAYER1
  6
CONTINUOUS
 62
     7
 10
1426.484133
 20
257.400000
 11
1426.484133
 21
651.000000
  0
LINE
  8
CSLAYER1
  6
CONTINUOUS
 62
     7
 10
1426.484133
 20
257.400000
 11
1425.707676
 21
260.297777
  0
LINE
  8
CSLAYER1
  6
CONTINUOUS
 62
     7
 10
1426.484133
 20
257.400000
 11
1427.260590
 21
260.297777
  0
LINE
  8
CSLAYER1
  6
CONTINUOUS
 62
     7
 10
1426.484133
 20
651.000000
 11
1425.707676
 21
648.102222
  0
LINE
  8
CSLAYER1
  6
CONTINUOUS
 62
     7
 10
1426.484133
 20
651.000000
 11
1427.260590
 21
648.102222
  0
TEXT
  8
CSLAYER1
 62
     7
 10
1425.484253
 20
449.699982
 40
4.000000
 41
0.843750
  1
656
 50
90.000000
 51
0.000000
  7
EASYDRAW_FONT
 72
     5
 11
1425.484253
 21
458.699982
  0
ENDBLK
  8
0
  0
ENDSEC
  0
SECTION
  2
ENTITIES
  0
TEXT
  8
CSLAYER1
 62
     7
 10
1198.465698
 20
1258.713501
 40
12.000000
 41
0.846774
  1
SMOLENSKY CHECK VALVE
 50
0.000000
 51
0.000000
  7
EASYDRAW_FONT
 72
     5
 11
1408.465698
 21
1258.713501
  0
TEXT
  8
CSLAYER1
 62
     7
 10
1198.631958
 20
1218.713501
 40
12.000000
 41
0.865385
  1
株式会社　イシザキ
 50
0.000000
 51
0.000000
  7
EASYDRAW_FONT
 72
     5
 11
1288.631958
 21
1218.713501
  0
TEXT
  8
CSLAYER1
 62
     7
 10
1198.484009
 20
1238.713501
 40
12.000000
 41
0.859375
  1
SM 10K 500A
 50
0.000000
 51
0.000000
  7
EASYDRAW_FONT
 72
     5
 11
1308.484009
 21
1238.713501
  0
TEXT
  8
CSLAYER1
 62
     7
 10
1342.671021
 20
1198.594604
 40
12.000000
 41
0.882353
  1
縮尺　３／５
 50
0.000000
 51
0.000000
  7
EASYDRAW_FONT
 72
     5
 11
1402.671021
 21
1198.594604
  0
LINE
  8
CSLAYER1
  6
CONTINUOUS
 62
     7
 10
582.800002
 20
302.400000
 11
582.800002
 21
377.400000
  0
LINE
  8
CSLAYER1
  6
CENTER
 62
     2
 10
341.000002
 20
663.000000
 11
341.000002
 21
39.000000
  0
ARC
  8
CSLAYER1
  6
CONTINUOUS
 62
     7
 10
523.400002
 20
169.202400
 40
15.000000
 50
90.458371
 51
180.000000
  0
ARC
  8
CSLAYER1
  6
CONTINUOUS
 62
     7
 10
522.800002
 20
244.200000
 40
60.000000
 50
270.458371
 51
343.739795
  0
LINE
  8
CSLAYER1
  6
CONTINUOUS
 62
     7
 10
591.200004
 20
111.900000
 11
510.800002
 21
111.900000
  0
ARC
  8
CSLAYER1
  6
CONTINUOUS
 62
     7
 10
510.800002
 20
109.500000
 40
2.400000
 50
90.000000
 51
180.000000
  0
ARC
  8
CSLAYER1
  6
CONTINUOUS
 62
     7
 10
510.800002
 20
165.300000
 40
2.400000
 50
180.000000
 51
270.000000
  0
LINE
  8
CSLAYER1
  6
CONTINUOUS
 62
     7
 10
510.800002
 20
162.900000
 11
591.200004
 21
162.900000
  0
LINE
  8
CSLAYER1
  6
CENTER
 62
     2
 10
492.800002
 20
137.400000
 11
715.903678
 21
137.400000
  0
LINE
  8
CSLAYER1
  6
CONTINUOUS
 62
     7
 10
605.000002
 20
377.400000
 11
605.000002
 21
423.300000
  0
LINE
  8
CSLAYER1
  6
CONTINUOUS
 62
     7
 10
605.600002
 20
423.900000
 11
616.400002
 21
423.900000
  0
LINE
  8
CSLAYER1
  6
CONTINUOUS
 62
     7
 10
585.200002
 20
402.900000
 11
592.550004
 21
402.900000
  0
ARC
  8
CSLAYER1
  6
CONTINUOUS
 62
     7
 10
585.200002
 20
405.300000
 40
2.400000
 50
180.000000
 51
270.000000
  0
LINE
  8
CSLAYER1
  6
CONTINUOUS
 62
     7
 10
605.600002
 20
330.900000
 11
616.400002
 21
330.900000
  0
LINE
  8
CSLAYER1
  6
CONTINUOUS
 62
     7
 10
585.200002
 20
351.900000
 11
591.200004
 21
351.900000
  0
ARC
  8
CSLAYER1
  6
CONTINUOUS
 62
     7
 10
585.200002
 20
349.500000
 40
2.400000
 50
90.000000
 51
180.000000
  0
LINE
  8
CSLAYER1
  6
CENTER
 62
     2
 10
555.200002
 20
377.400000
 11
715.903678
 21
377.400000
  0
LINE
  8
CSLAYER1
  6
CONTINUOUS
 62
     7
 10
605.000002
 20
423.300000
 11
605.600002
 21
423.900000
  0
LINE
  8
CSLAYER1
  6
CONTINUOUS
 62
     7
 10
616.400002
 20
423.900000
 11
617.000002
 21
423.300000
  0
LINE
  8
CSLAYER1
  6
CONTINUOUS
 62
     7
 10
605.000002
 20
331.500000
 11
605.600002
 21
330.900000
  0
LINE
  8
CSLAYER1
  6
CONTINUOUS
 62
     7
 10
616.400002
 20
330.900000
 11
617.000002
 21
331.500000
  0
LINE
  8
CSLAYER1
  6
CONTINUOUS
 62
     7
 10
582.800002
 20
377.400000
 11
582.800002
 21
444.600000
  0
LINE
  8
CSLAYER1
  6
CENTER
 62
     2
 10
634.100002
 20
257.400000
 11
739.100002
 21
257.400000
  0
LINE
  8
CSLAYER1
  6
CONTINUOUS
 62
     7
 10
617.000002
 20
423.900000
 11
617.000002
 21
330.900000
  0
LINE
  8
CSLAYER1
  6
CONTINUOUS
 62
     7
 10
618.200002
 20
423.900000
 11
617.000002
 21
423.900000
  0
LINE
  8
CSLAYER1
  6
CONTINUOUS
 62
     7
 10
618.200002
 20
330.900000
 11
617.000002
 21
330.900000
  0
LINE
  8
CSLAYER1
  6
CONTINUOUS
 62
     7
 10
618.200002
 20
330.900000
 11
618.200002
 21
423.900000
  0
LINE
  8
CSLAYER1
  6
CONTINUOUS
 62
     7
 10
619.400002
 20
423.600000
 11
619.400002
 21
331.200000
  0
LINE
  8
CSLAYER1
  6
CONTINUOUS
 62
     7
 10
619.700002
 20
330.900000
 11
629.000002
 21
330.900000
  0
LINE
  8
CSLAYER1
  6
CONTINUOUS
 62
     7
 10
630.200002
 20
332.100000
 11
630.200002
 21
422.700000
  0
LINE
  8
CSLAYER1
  6
CONTINUOUS
 62
     7
 10
629.000002
 20
423.900000
 11
619.700002
 21
423.900000
  0
LINE
  8
CSLAYER1
  6
CONTINUOUS
 62
     7
 10
619.400002
 20
406.200000
 11
618.200002
 21
406.200000
  0
LINE
  8
CSLAYER1
  6
CONTINUOUS
 62
     7
 10
618.200002
 20
348.600000
 11
619.400002
 21
348.600000
  0
LINE
  8
CSLAYER1
  6
CONTINUOUS
 62
     7
 10
635.600002
 20
394.616613
 11
635.600002
 21
360.183386
  0
ARC
  8
CSLAYER1
  6
CONTINUOUS
 62
     7
 10
629.000002
 20
422.700000
 40
1.200000
 50
0.000000
 51
90.000000
  0
ARC
  8
CSLAYER1
  6
CONTINUOUS
 62
     7
 10
629.000002
 20
332.100000
 40
1.200000
 50
270.000000
 51
360.000000
  0
LINE
  8
CSLAYER1
  6
CONTINUOUS
 62
     7
 10
619.700002
 20
423.900000
 11
619.400002
 21
423.600000
  0
LINE
  8
CSLAYER1
  6
CONTINUOUS
 62
     7
 10
619.400002
 20
331.200000
 11
619.700002
 21
330.900000
  0
LINE
  8
CSLAYER1
  6
CONTINUOUS
 62
     7
 10
665.900002
 20
343.200000
 11
707.300002
 21
343.200000
  0
LINE
  8
CSLAYER1
  6
CONTINUOUS
 62
     7
 10
652.400002
 20
398.100000
 11
652.400002
 21
356.700000
  0
LINE
  8
CSLAYER1
  6
CONTINUOUS
 62
     7
 10
652.400002
 20
356.700000
 11
659.900002
 21
356.700000
  0
LINE
  8
CSLAYER1
  6
CONTINUOUS
 62
     7
 10
665.900002
 20
350.700000
 11
665.900002
 21
343.200000
  0
LINE
  8
CSLAYER1
  6
CONTINUOUS
 62
     7
 10
652.400002
 20
398.100000
 11
668.300002
 21
398.100000
  0
LINE
  8
CSLAYER1
  6
CONTINUOUS
 62
     7
 10
707.300002
 20
359.100000
 11
707.300002
 21
343.200000
  0
ARC
  8
CSLAYER1
  6
CONTINUOUS
 62
     7
 10
659.900002
 20
350.700000
 40
6.000000
 50
0.000000
 51
90.000000
  0
ARC
  8
CSLAYER1
  6
CONTINUOUS
 62
     7
 10
668.300002
 20
359.100000
 40
39.000000
 50
0.000000
 51
90.000000
  0
LINE
  8
CSLAYER1
  6
CENTER
 62
     2
 10
686.600002
 20
406.703676
 11
686.600002
 21
108.096323
  0
LINE
  8
CSLAYER1
  6
CONTINUOUS
 62
     7
 10
665.900002
 20
171.600000
 11
707.300002
 21
171.600000
  0
LINE
  8
CSLAYER1
  6
CONTINUOUS
 62
     7
 10
652.400002
 20
116.700000
 11
652.400002
 21
158.100000
  0
LINE
  8
CSLAYER1
  6
CONTINUOUS
 62
     7
 10
652.400002
 20
158.100000
 11
659.900002
 21
158.100000
  0
LINE
  8
CSLAYER1
  6
CONTINUOUS
 62
     7
 10
665.900002
 20
164.100000
 11
665.900002
 21
171.600000
  0
LINE
  8
CSLAYER1
  6
CONTINUOUS
 62
     7
 10
652.400002
 20
116.700000
 11
668.300002
 21
116.700000
  0
LINE
  8
CSLAYER1
  6
CONTINUOUS
 62
     7
 10
707.300002
 20
155.700000
 11
707.300002
 21
171.600000
  0
ARC
  8
CSLAYER1
  6
CONTINUOUS
 62
     7
 10
659.900002
 20
164.100000
 40
6.000000
 50
270.000000
 51
360.000000
  0
ARC
  8
CSLAYER1
  6
CONTINUOUS
 62
     7
 10
668.300002
 20
155.700000
 40
39.000000
 50
270.000000
 51
360.000000
  0
LINE
  8
CSLAYER1
  6
CONTINUOUS
 62
     7
 10
668.715802
 20
303.828000
 11
669.589004
 21
299.400000
  0
LINE
  8
CSLAYER1
  6
CONTINUOUS
 62
     7
 10
668.715802
 20
343.200000
 11
668.715802
 21
299.400000
  0
LINE
  8
CSLAYER1
  6
CONTINUOUS
 62
     7
 10
668.715802
 20
338.772000
 11
669.589004
 21
343.200000
  0
LINE
  8
CSLAYER1
  6
CONTINUOUS
 62
     7
 10
704.484202
 20
303.828000
 11
703.611000
 21
299.400000
  0
LINE
  8
CSLAYER1
  6
CONTINUOUS
 62
     7
 10
704.484202
 20
343.200000
 11
704.484202
 21
299.400000
  0
LINE
  8
CSLAYER1
  6
CONTINUOUS
 62
     7
 10
704.484202
 20
338.772000
 11
703.611000
 21
343.200000
  0
LINE
  8
CSLAYER1
  6
CONTINUOUS
 62
     7
 10
668.715802
 20
176.028000
 11
669.589004
 21
171.600000
  0
LINE
  8
CSLAYER1
  6
CONTINUOUS
 62
     7
 10
668.715802
 20
215.400000
 11
668.715802
 21
171.600000
  0
LINE
  8
CSLAYER1
  6
CONTINUOUS
 62
     7
 10
668.715802
 20
210.972000
 11
669.589004
 21
215.400000
  0
LINE
  8
CSLAYER1
  6
CONTINUOUS
 62
     7
 10
704.484202
 20
176.028000
 11
703.611000
 21
171.600000
  0
LINE
  8
CSLAYER1
  6
CONTINUOUS
 62
     7
 10
704.484202
 20
215.400000
 11
704.484202
 21
171.600000
  0
LINE
  8
CSLAYER1
  6
CONTINUOUS
 62
     7
 10
704.484202
 20
210.972000
 11
703.611000
 21
215.400000
  0
LINE
  8
CSLAYER1
  6
CONTINUOUS
 62
     7
 10
647.972002
 20
359.515800
 11
652.400002
 21
360.389001
  0
LINE
  8
CSLAYER1
  6
CONTINUOUS
 62
     7
 10
635.985433
 20
359.515800
 11
652.400002
 21
359.515800
  0
LINE
  8
CSLAYER1
  6
CONTINUOUS
 62
     7
 10
640.028002
 20
359.515800
 11
635.600002
 21
360.389001
  0
LINE
  8
CSLAYER1
  6
CONTINUOUS
 62
     7
 10
647.972002
 20
395.284200
 11
652.400002
 21
394.410998
  0
LINE
  8
CSLAYER1
  6
CONTINUOUS
 62
     7
 10
635.985433
 20
395.284200
 11
652.400002
 21
395.284200
  0
LINE
  8
CSLAYER1
  6
CONTINUOUS
 62
     7
 10
640.028002
 20
395.284200
 11
635.600002
 21
394.410998
  0
LINE
  8
CSLAYER1
  6
CONTINUOUS
 62
     7
 10
647.972002
 20
119.515800
 11
652.400002
 21
120.389001
  0
LINE
  8
CSLAYER1
  6
CONTINUOUS
 62
     7
 10
635.985433
 20
119.515800
 11
652.400002
 21
119.515800
  0
LINE
  8
CSLAYER1
  6
CONTINUOUS
 62
     7
 10
640.028002
 20
119.515800
 11
635.600002
 21
120.389001
  0
LINE
  8
CSLAYER1
  6
CONTINUOUS
 62
     7
 10
647.972002
 20
155.284200
 11
652.400002
 21
154.410998
  0
LINE
  8
CSLAYER1
  6
CONTINUOUS
 62
     7
 10
635.985433
 20
155.284200
 11
652.400002
 21
155.284200
  0
LINE
  8
CSLAYER1
  6
CONTINUOUS
 62
     7
 10
640.028002
 20
155.284200
 11
635.600002
 21
154.410998
  0
LINE
  8
CSLAYER1
  6
CONTINUOUS
 62
     7
 10
341.000002
 20
485.400000
 11
65.900002
 21
485.400000
  0
LINE
  8
CSLAYER1
  6
CONTINUOUS
 62
     7
 10
65.000002
 20
484.500000
 11
65.000002
 21
463.200000
  0
LINE
  8
CSLAYER1
  6
CONTINUOUS
 62
     7
 10
66.800002
 20
461.400000
 11
341.000002
 21
461.400000
  0
LINE
  8
CSLAYER1
  6
CONTINUOUS
 62
     7
 10
92.000002
 20
269.400000
 11
92.000002
 21
268.200000
  0
LINE
  8
CSLAYER1
  6
CONTINUOUS
 62
     7
 10
341.000002
 20
269.400000
 11
65.900002
 21
269.400000
  0
LINE
  8
CSLAYER1
  6
CONTINUOUS
 62
     7
 10
65.000002
 20
270.300000
 11
65.000002
 21
291.600000
  0
LINE
  8
CSLAYER1
  6
CONTINUOUS
 62
     7
 10
66.800002
 20
293.400000
 11
341.000002
 21
293.400000
  0
LINE
  8
CSLAYER1
  6
CONTINUOUS
 62
     7
 10
99.200002
 20
302.400000
 11
99.200002
 21
444.600000
  0
LINE
  8
CSLAYER1
  6
CONTINUOUS
 62
     7
 10
65.000002
 20
463.200000
 11
66.800002
 21
461.400000
  0
LINE
  8
CSLAYER1
  6
CONTINUOUS
 62
     7
 10
65.000002
 20
291.600000
 11
66.800002
 21
293.400000
  0
LINE
  8
CSLAYER1
  6
CONTINUOUS
 62
     7
 10
65.000002
 20
270.300000
 11
65.900002
 21
269.400000
  0
LINE
  8
CSLAYER1
  6
CONTINUOUS
 62
     7
 10
65.900002
 20
485.400000
 11
65.000002
 21
484.500000
  0
LINE
  8
CSLAYER1
  6
CONTINUOUS
 62
     7
 10
341.000002
 20
651.000000
 11
139.400002
 21
651.000000
  0
LINE
  8
CSLAYER1
  6
CONTINUOUS
 62
     7
 10
138.500002
 20
650.100000
 11
138.500002
 21
628.800000
  0
LINE
  8
CSLAYER1
  6
CONTINUOUS
 62
     7
 10
341.000002
 20
627.000000
 11
140.300002
 21
627.000000
  0
LINE
  8
CSLAYER1
  6
CONTINUOUS
 62
     7
 10
92.000002
 20
485.400000
 11
92.000002
 21
486.600000
  0
LINE
  8
CSLAYER1
  6
CONTINUOUS
 62
     7
 10
341.000002
 20
486.600000
 11
65.900002
 21
486.600000
  0
LINE
  8
CSLAYER1
  6
CONTINUOUS
 62
     7
 10
65.000002
 20
487.500000
 11
65.000002
 21
508.800000
  0
LINE
  8
CSLAYER1
  6
CONTINUOUS
 62
     7
 10
66.800002
 20
510.600000
 11
341.000002
 21
510.600000
  0
LINE
  8
CSLAYER1
  6
CONTINUOUS
 62
     7
 10
173.600002
 20
624.600000
 11
173.600002
 21
602.916879
  0
LINE
  8
CSLAYER1
  6
CONTINUOUS
 62
     7
 10
99.200002
 20
525.000000
 11
99.200002
 21
519.600000
  0
ARC
  8
CSLAYER1
  6
CONTINUOUS
 62
     7
 10
171.200002
 20
624.600000
 40
2.400000
 50
0.000000
 51
90.000000
  0
ARC
  8
CSLAYER1
  6
CONTINUOUS
 62
     7
 10
159.200002
 20
525.000000
 40
60.000000
 50
92.645360
 51
180.000000
  0
ARC
  8
CSLAYER1
  6
CONTINUOUS
 62
     7
 10
155.600002
 20
602.916879
 40
18.000000
 50
272.645360
 51
360.000000
  0
LINE
  8
CSLAYER1
  6
CENTER
 62
     2
 10
155.000002
 20
663.000000
 11
155.000002
 21
615.000000
  0
LINE
  8
CSLAYER1
  6
CONTINUOUS
 62
     7
 10
138.500002
 20
628.800000
 11
140.300002
 21
627.000000
  0
LINE
  8
CSLAYER1
  6
CONTINUOUS
 62
     7
 10
65.000002
 20
487.500000
 11
65.900002
 21
486.600000
  0
LINE
  8
CSLAYER1
  6
CONTINUOUS
 62
     7
 10
66.800002
 20
510.600000
 11
65.000002
 21
508.800000
  0
LINE
  8
CSLAYER1
  6
CONTINUOUS
 62
     7
 10
139.400002
 20
651.000000
 11
138.500002
 21
650.100000
  0
LINE
  8
CSLAYER1
  6
CONTINUOUS
 62
     7
 10
341.000002
 20
51.000000
 11
139.400002
 21
51.000000
  0
LINE
  8
CSLAYER1
  6
CONTINUOUS
 62
     7
 10
138.500002
 20
51.900000
 11
138.500002
 21
73.200000
  0
LINE
  8
CSLAYER1
  6
CONTINUOUS
 62
     7
 10
140.300002
 20
75.000000
 11
341.000002
 21
75.000000
  0
ARC
  8
CSLAYER1
  6
CONTINUOUS
 62
     7
 10
171.200002
 20
77.400000
 40
2.400000
 50
270.000000
 51
360.000000
  0
LINE
  8
CSLAYER1
  6
CONTINUOUS
 62
     7
 10
65.900002
 20
268.200000
 11
341.000002
 21
268.200000
  0
LINE
  8
CSLAYER1
  6
CONTINUOUS
 62
     7
 10
65.000002
 20
267.300000
 11
65.000002
 21
246.000000
  0
LINE
  8
CSLAYER1
  6
CONTINUOUS
 62
     7
 10
341.000002
 20
244.200000
 11
66.800002
 21
244.200000
  0
ARC
  8
CSLAYER1
  6
CONTINUOUS
 62
     7
 10
158.600002
 20
169.202400
 40
15.000000
 50
0.000000
 51
89.541629
  0
ARC
  8
CSLAYER1
  6
CONTINUOUS
 62
     7
 10
159.200002
 20
244.200000
 40
60.000000
 50
196.260205
 51
269.541629
  0
LINE
  8
CSLAYER1
  6
CENTER
 62
     2
 10
155.000002
 20
87.000000
 11
155.000002
 21
39.000000
  0
LINE
  8
CSLAYER1
  6
CONTINUOUS
 62
     7
 10
65.000002
 20
246.000000
 11
66.800002
 21
244.200000
  0
LINE
  8
CSLAYER1
  6
CONTINUOUS
 62
     7
 10
140.300002
 20
75.000000
 11
138.500002
 21
73.200000
  0
LINE
  8
CSLAYER1
  6
CONTINUOUS
 62
     7
 10
65.900002
 20
268.200000
 11
65.000002
 21
267.300000
  0
LINE
  8
CSLAYER1
  6
CONTINUOUS
 62
     7
 10
138.500002
 20
51.900000
 11
139.400002
 21
51.000000
  0
LINE
  8
CSLAYER1
  6
CONTINUOUS
 62
     7
 10
173.600002
 20
169.202400
 11
173.600002
 21
77.400000
  0
LINE
  8
CSLAYER1
  6
CONTINUOUS
 62
     7
 10
156.430771
 20
584.936060
 11
341.000002
 21
584.936060
  0
LINE
  8
CSLAYER1
  6
CONTINUOUS
 62
     7
 10
341.000002
 20
651.000000
 11
542.600002
 21
651.000000
  0
LINE
  8
CSLAYER1
  6
CONTINUOUS
 62
     7
 10
341.000002
 20
627.000000
 11
541.700002
 21
627.000000
  0
LINE
  8
CSLAYER1
  6
CONTINUOUS
 62
     7
 10
525.569233
 20
584.936060
 11
341.000002
 21
584.936060
  0
LINE
  8
CSLAYER1
  6
CONTINUOUS
 62
     7
 10
605.000002
 20
377.400000
 11
605.000002
 21
331.500000
  0
LINE
  8
CSLAYER1
  6
CONTINUOUS
 62
     7
 10
158.720002
 20
184.201920
 11
341.000002
 21
184.201920
  0
LINE
  8
CSLAYER1
  6
CONTINUOUS
 62
     7
 10
341.000002
 20
51.000000
 11
542.600002
 21
51.000000
  0
LINE
  8
CSLAYER1
  6
CONTINUOUS
 62
     7
 10
543.500002
 20
51.900000
 11
543.500002
 21
73.200000
  0
LINE
  8
CSLAYER1
  6
CONTINUOUS
 62
     7
 10
541.700002
 20
75.000000
 11
341.000002
 21
75.000000
  0
ARC
  8
CSLAYER1
  6
CONTINUOUS
 62
     7
 10
510.800002
 20
77.400000
 40
2.400000
 50
180.000000
 51
270.000000
  0
LINE
  8
CSLAYER1
  6
CENTER
 62
     2
 10
527.000002
 20
87.000000
 11
527.000002
 21
39.000000
  0
LINE
  8
CSLAYER1
  6
CONTINUOUS
 62
     7
 10
541.700002
 20
75.000000
 11
543.500002
 21
73.200000
  0
LINE
  8
CSLAYER1
  6
CONTINUOUS
 62
     7
 10
543.500002
 20
51.900000
 11
542.600002
 21
51.000000
  0
LINE
  8
CSLAYER1
  6
CONTINUOUS
 62
     7
 10
508.400002
 20
169.202400
 11
508.400002
 21
77.400000
  0
LINE
  8
CSLAYER1
  6
CONTINUOUS
 62
     7
 10
590.000002
 20
269.400000
 11
590.000002
 21
268.200000
  0
LINE
  8
CSLAYER1
  6
CONTINUOUS
 62
     7
 10
341.000002
 20
269.400000
 11
616.100002
 21
269.400000
  0
LINE
  8
CSLAYER1
  6
CONTINUOUS
 62
     7
 10
617.000002
 20
270.300000
 11
617.000002
 21
291.600000
  0
LINE
  8
CSLAYER1
  6
CONTINUOUS
 62
     7
 10
615.200002
 20
293.400000
 11
341.000002
 21
293.400000
  0
LINE
  8
CSLAYER1
  6
CONTINUOUS
 62
     7
 10
617.000002
 20
291.600000
 11
615.200002
 21
293.400000
  0
LINE
  8
CSLAYER1
  6
CONTINUOUS
 62
     7
 10
617.000002
 20
270.300000
 11
616.100002
 21
269.400000
  0
LINE
  8
CSLAYER1
  6
CONTINUOUS
 62
     7
 10
616.100002
 20
268.200000
 11
341.000002
 21
268.200000
  0
LINE
  8
CSLAYER1
  6
CONTINUOUS
 62
     7
 10
617.000002
 20
267.300000
 11
617.000002
 21
246.000000
  0
LINE
  8
CSLAYER1
  6
CONTINUOUS
 62
     7
 10
617.000002
 20
246.000000
 11
615.200002
 21
244.200000
  0
LINE
  8
CSLAYER1
  6
CONTINUOUS
 62
     7
 10
616.100002
 20
268.200000
 11
617.000002
 21
267.300000
  0
LINE
  8
CSLAYER1
  6
CONTINUOUS
 62
     7
 10
523.280002
 20
184.201920
 11
341.000002
 21
184.201920
  0
LINE
  8
CSLAYER1
  6
CONTINUOUS
 62
     7
 10
691.700002
 20
225.679577
 11
691.700002
 21
223.643088
  0
LINE
  8
CSLAYER1
  6
CONTINUOUS
 62
     7
 10
701.118670
 20
228.739881
 11
702.315706
 21
227.092310
  0
LINE
  8
CSLAYER1
  6
CONTINUOUS
 62
     7
 10
709.370686
 20
234.735282
 11
710.567698
 21
233.087729
  0
LINE
  8
CSLAYER1
  6
CONTINUOUS
 62
     7
 10
715.191556
 20
242.747470
 11
717.128314
 21
242.118180
  0
LINE
  8
CSLAYER1
  6
CONTINUOUS
 62
     7
 10
718.343584
 20
252.448376
 11
720.280330
 21
251.819086
  0
LINE
  8
CSLAYER1
  6
CONTINUOUS
 62
     7
 10
718.343584
 20
262.351615
 11
720.280330
 21
262.980905
  0
LINE
  8
CSLAYER1
  6
CONTINUOUS
 62
     7
 10
715.191574
 20
272.052522
 11
717.128314
 21
272.681812
  0
LINE
  8
CSLAYER1
  6
CONTINUOUS
 62
     7
 10
709.370686
 20
280.064708
 11
710.567662
 21
281.712213
  0
LINE
  8
CSLAYER1
  6
CONTINUOUS
 62
     7
 10
701.118688
 20
286.060130
 11
702.315670
 21
287.707633
  0
LINE
  8
CSLAYER1
  6
CONTINUOUS
 62
     7
 10
691.700002
 20
289.120406
 11
691.700002
 21
291.156832
  0
LINE
  8
CSLAYER1
  6
CONTINUOUS
 62
     7
 10
681.500002
 20
289.120406
 11
681.500002
 21
291.156832
  0
LINE
  8
CSLAYER1
  6
CONTINUOUS
 62
     7
 10
672.081112
 20
286.059990
 11
670.884112
 21
287.707493
  0
LINE
  8
CSLAYER1
  6
CONTINUOUS
 62
     7
 10
663.829162
 20
280.064603
 11
662.632174
 21
281.712105
  0
LINE
  8
CSLAYER1
  6
CONTINUOUS
 62
     7
 10
658.008052
 20
272.052576
 11
656.071294
 21
272.681867
  0
LINE
  8
CSLAYER1
  6
CONTINUOUS
 62
     7
 10
654.856060
 20
262.351731
 11
652.919296
 21
262.981021
  0
LINE
  8
CSLAYER1
  6
CONTINUOUS
 62
     7
 10
654.856042
 20
252.448321
 11
652.919290
 21
251.819031
  0
LINE
  8
CSLAYER1
  6
CONTINUOUS
 62
     7
 10
658.008034
 20
242.747475
 11
656.071282
 21
242.118185
  0
LINE
  8
CSLAYER1
  6
CONTINUOUS
 62
     7
 10
663.829114
 20
234.735429
 11
662.632138
 21
233.087926
  0
LINE
  8
CSLAYER1
  6
CONTINUOUS
 62
     7
 10
672.081112
 20
228.740009
 11
670.884112
 21
227.092506
  0
LINE
  8
CSLAYER1
  6
CONTINUOUS
 62
     7
 10
681.500002
 20
225.679589
 11
681.500002
 21
223.643163
  0
LINE
  8
CSLAYER1
  6
CONTINUOUS
 62
     7
 10
691.764946
 20
248.258096
 11
690.696988
 21
231.153573
  0
LINE
  8
CSLAYER1
  6
CONTINUOUS
 62
     7
 10
681.435184
 20
248.258130
 11
682.503142
 21
231.153536
  0
LINE
  8
CSLAYER1
  6
CONTINUOUS
 62
     7
 10
695.741998
 20
262.564829
 11
712.846336
 21
261.496877
  0
LINE
  8
CSLAYER1
  6
CONTINUOUS
 62
     7
 10
695.742016
 20
252.235116
 11
712.846336
 21
253.303067
  0
LINE
  8
CSLAYER1
  6
CONTINUOUS
 62
     7
 10
681.435184
 20
266.541888
 11
682.503142
 21
283.646463
  0
LINE
  8
CSLAYER1
  6
CONTINUOUS
 62
     7
 10
691.764946
 20
266.541923
 11
690.696988
 21
283.646427
  0
LINE
  8
CSLAYER1
  6
CONTINUOUS
 62
     7
 10
677.458114
 20
252.235080
 11
660.353434
 21
253.303053
  0
LINE
  8
CSLAYER1
  6
CONTINUOUS
 62
     7
 10
677.458132
 20
262.564864
 11
660.353446
 21
261.496891
  0
LINE
  8
CSLAYER1
  6
CONTINUOUS
 62
     7
 10
681.800002
 20
260.171281
 11
681.800002
 21
254.628719
  0
LINE
  8
CSLAYER1
  6
CONTINUOUS
 62
     7
 10
691.400002
 20
260.171281
 11
691.400002
 21
254.628719
  0
LINE
  8
CSLAYER1
  6
CONTINUOUS
 62
     7
 10
681.800182
 20
254.628580
 11
686.600200
 21
251.857288
  0
LINE
  8
CSLAYER1
  6
CONTINUOUS
 62
     7
 10
686.600182
 20
262.942424
 11
691.400200
 21
260.171132
  0
LINE
  8
CSLAYER1
  6
CONTINUOUS
 62
     7
 10
686.600182
 20
251.857576
 11
691.400200
 21
254.628868
  0
LINE
  8
CSLAYER1
  6
CONTINUOUS
 62
     7
 10
681.800182
 20
260.171420
 11
686.600200
 21
262.942712
  0
LINE
  8
CSLAYER1
  6
CONTINUOUS
 62
     7
 10
698.000002
 20
252.376090
 11
698.000002
 21
250.818207
  0
LINE
  8
CSLAYER1
  6
CONTINUOUS
 62
     7
 10
698.000200
 20
250.818325
 11
691.697566
 21
247.179493
  0
LINE
  8
CSLAYER1
  6
CONTINUOUS
 62
     7
 10
675.200002
 20
252.376090
 11
675.200002
 21
250.818207
  0
LINE
  8
CSLAYER1
  6
CONTINUOUS
 62
     7
 10
675.200038
 20
250.818186
 11
681.502726
 21
247.179326
  0
LINE
  8
CSLAYER1
  6
CONTINUOUS
 62
     7
 10
698.000002
 20
262.423910
 11
698.000002
 21
263.981793
  0
LINE
  8
CSLAYER1
  6
CONTINUOUS
 62
     7
 10
698.000200
 20
263.981675
 11
691.697566
 21
267.620507
  0
LINE
  8
CSLAYER1
  6
CONTINUOUS
 62
     7
 10
675.200002
 20
262.423910
 11
675.200002
 21
263.981793
  0
LINE
  8
CSLAYER1
  6
CONTINUOUS
 62
     7
 10
675.200038
 20
263.981813
 11
681.502726
 21
267.620673
  0
LINE
  8
CSLAYER1
  6
CONTINUOUS
 62
     7
 10
708.800002
 20
215.400000
 11
664.400002
 21
215.400000
  0
LINE
  8
CSLAYER1
  6
CONTINUOUS
 62
     7
 10
664.400002
 20
223.803442
 11
664.400002
 21
215.400000
  0
LINE
  8
CSLAYER1
  6
CONTINUOUS
 62
     7
 10
664.400002
 20
290.996558
 11
664.400002
 21
299.400000
  0
LINE
  8
CSLAYER1
  6
CONTINUOUS
 62
     7
 10
708.800002
 20
223.803442
 11
708.800002
 21
215.400000
  0
LINE
  8
CSLAYER1
  6
CONTINUOUS
 62
     7
 10
708.800002
 20
290.996558
 11
708.800002
 21
299.400000
  0
LINE
  8
CSLAYER1
  6
CONTINUOUS
 62
     7
 10
672.800002
 20
252.525921
 11
672.800002
 21
249.432566
  0
LINE
  8
CSLAYER1
  6
CONTINUOUS
 62
     7
 10
672.799948
 20
249.432596
 11
681.681952
 21
244.304562
  0
LINE
  8
CSLAYER1
  6
CONTINUOUS
 62
     7
 10
672.800002
 20
262.274079
 11
672.800002
 21
265.367434
  0
LINE
  8
CSLAYER1
  6
CONTINUOUS
 62
     7
 10
672.799948
 20
265.367403
 11
681.681952
 21
270.495437
  0
LINE
  8
CSLAYER1
  6
CONTINUOUS
 62
     7
 10
700.400002
 20
252.525921
 11
700.400002
 21
249.432566
  0
LINE
  8
CSLAYER1
  6
CONTINUOUS
 62
     7
 10
700.400164
 20
249.432662
 11
691.518196
 21
244.304656
  0
LINE
  8
CSLAYER1
  6
CONTINUOUS
 62
     7
 10
700.400002
 20
262.274079
 11
700.400002
 21
265.367434
  0
LINE
  8
CSLAYER1
  6
CONTINUOUS
 62
     7
 10
700.400164
 20
265.367337
 11
691.518196
 21
270.495344
  0
LINE
  8
CSLAYER1
  6
CONTINUOUS
 62
     7
 10
708.800002
 20
299.400000
 11
664.400002
 21
299.400000
  0
LINE
  8
CSLAYER1
  6
CONTINUOUS
 62
     7
 10
686.600002
 20
299.400000
 11
686.600002
 21
297.900018
  0
LINE
  8
CSLAYER1
  6
CONTINUOUS
 62
     7
 10
686.600002
 20
216.900000
 11
686.600002
 21
215.400000
  0
LINE
  8
CSLAYER1
  6
CONTINUOUS
 62
     7
 10
681.471874
 20
225.937124
 11
673.347562
 21
225.937124
  0
LINE
  8
CSLAYER1
  6
CONTINUOUS
 62
     7
 10
691.728124
 20
225.937124
 11
699.852442
 21
225.937124
  0
LINE
  8
CSLAYER1
  6
CONTINUOUS
 62
     7
 10
681.471874
 20
288.862875
 11
673.347562
 21
288.862875
  0
LINE
  8
CSLAYER1
  6
CONTINUOUS
 62
     7
 10
691.728124
 20
288.862875
 11
699.852442
 21
288.862875
  0
LINE
  8
CSLAYER1
  6
CONTINUOUS
 62
     7
 10
695.382766
 20
261.337500
 11
693.777148
 21
261.337500
  0
LINE
  8
CSLAYER1
  6
CONTINUOUS
 62
     7
 10
695.382766
 20
260.843101
 11
693.777148
 21
260.843101
  0
LINE
  8
CSLAYER1
  6
CONTINUOUS
 62
     7
 10
694.571368
 20
260.832440
 11
693.609550
 21
259.649101
  0
LINE
  8
CSLAYER1
  6
CONTINUOUS
 62
     7
 10
694.588582
 20
260.832446
 11
695.578540
 21
259.614465
  0
LINE
  8
CSLAYER1
  6
CONTINUOUS
 62
     7
 10
694.755832
 20
260.193858
 11
694.033204
 21
259.304775
  0
LINE
  8
CSLAYER1
  6
CONTINUOUS
 62
     7
 10
694.755850
 20
260.193835
 11
695.169664
 21
259.684703
  0
LINE
  8
CSLAYER1
  6
CONTINUOUS
 62
     7
 10
695.630032
 20
255.249243
 11
695.630032
 21
253.760551
  0
LINE
  8
CSLAYER1
  6
CONTINUOUS
 62
     7
 10
695.375860
 20
254.072462
 11
694.045948
 21
255.523583
  0
LINE
  8
CSLAYER1
  6
CONTINUOUS
 62
     7
 10
695.112208
 20
253.559166
 11
694.125730
 21
254.635541
  0
LINE
  8
CSLAYER1
  6
CONTINUOUS
 62
     7
 10
694.107472
 20
253.751243
 11
694.107472
 21
254.628453
  0
LINE
  8
CSLAYER1
  6
CONTINUOUS
 62
     7
 10
693.530032
 20
255.320090
 11
693.530032
 21
253.751243
  0
LINE
  8
CSLAYER1
  6
CONTINUOUS
 62
     7
 10
695.394046
 20
255.034841
 11
695.394046
 21
254.079549
  0
LINE
  8
CSLAYER1
  6
CONTINUOUS
 62
     7
 10
695.629882
 20
257.746100
 11
695.629882
 21
256.168370
  0
LINE
  8
CSLAYER1
  6
CONTINUOUS
 62
     7
 10
695.394046
 20
257.159628
 11
693.777148
 21
257.159628
  0
LINE
  8
CSLAYER1
  6
CONTINUOUS
 62
     7
 10
695.052442
 20
256.665198
 11
693.777148
 21
256.665198
  0
LINE
  8
CSLAYER1
  6
CONTINUOUS
 62
     7
 10
695.052442
 20
256.665198
 11
695.052442
 21
256.168370
  0
LINE
  8
CSLAYER1
  6
CONTINUOUS
 62
     7
 10
695.394046
 20
257.531698
 11
695.394046
 21
257.159628
  0
LINE
  8
CSLAYER1
  6
CONTINUOUS
 62
     7
 10
677.107192
 20
259.834513
 11
677.615728
 21
259.704092
  0
LINE
  8
CSLAYER1
  6
CONTINUOUS
 62
     7
 10
678.354376
 20
260.815447
 11
677.107210
 21
259.834525
  0
LINE
  8
CSLAYER1
  6
CONTINUOUS
 62
     7
 10
678.802342
 20
259.399780
 11
678.354358
 21
260.815440
  0
LINE
  8
CSLAYER1
  6
CONTINUOUS
 62
     7
 10
678.293842
 20
259.530185
 11
678.802384
 21
259.399765
  0
LINE
  8
CSLAYER1
  6
CONTINUOUS
 62
     7
 10
677.107192
 20
254.965469
 11
677.615728
 21
255.095890
  0
LINE
  8
CSLAYER1
  6
CONTINUOUS
 62
     7
 10
678.354376
 20
253.984552
 11
677.107210
 21
254.965475
  0
LINE
  8
CSLAYER1
  6
CONTINUOUS
 62
     7
 10
678.802342
 20
255.400211
 11
678.354358
 21
253.984550
  0
LINE
  8
CSLAYER1
  6
CONTINUOUS
 62
     7
 10
678.293842
 20
255.269797
 11
678.802384
 21
255.400217
  0
LINE
  8
CSLAYER1
  6
CONTINUOUS
 62
     7
 10
683.234506
 20
265.476415
 11
682.205818
 21
265.188716
  0
LINE
  8
CSLAYER1
  6
CONTINUOUS
 62
     7
 10
683.177962
 20
265.678641
 11
682.149256
 21
265.390941
  0
LINE
  8
CSLAYER1
  6
CONTINUOUS
 62
     7
 10
681.356554
 20
265.564187
 11
682.294168
 21
264.336743
  0
LINE
  8
CSLAYER1
  6
CONTINUOUS
 62
     7
 10
680.102482
 20
264.606243
 11
681.040078
 21
263.378800
  0
LINE
  8
CSLAYER1
  6
CONTINUOUS
 62
     7
 10
681.706138
 20
264.760562
 11
680.785852
 21
264.057585
  0
LINE
  8
CSLAYER1
  6
CONTINUOUS
 62
     7
 10
681.578662
 20
264.927440
 11
680.658394
 21
264.224463
  0
LINE
  8
CSLAYER1
  6
CONTINUOUS
 62
     7
 10
681.189658
 20
265.436703
 11
681.578662
 21
264.927440
  0
LINE
  8
CSLAYER1
  6
CONTINUOUS
 62
     7
 10
680.269366
 20
264.733727
 11
680.658394
 21
264.224463
  0
LINE
  8
CSLAYER1
  6
CONTINUOUS
 62
     7
 10
680.785852
 20
264.057585
 11
681.206980
 21
263.506283
  0
LINE
  8
CSLAYER1
  6
CONTINUOUS
 62
     7
 10
681.706138
 20
264.760562
 11
682.127266
 21
264.209259
  0
LINE
  8
CSLAYER1
  6
CONTINUOUS
 62
     7
 10
679.907422
 20
261.927539
 11
679.228264
 21
260.708581
  0
LINE
  8
CSLAYER1
  6
CONTINUOUS
 62
     7
 10
679.723990
 20
262.029752
 11
679.435504
 21
261.511990
  0
LINE
  8
CSLAYER1
  6
CONTINUOUS
 62
     7
 10
678.079756
 20
262.026987
 11
679.333294
 21
261.328555
  0
LINE
  8
CSLAYER1
  6
CONTINUOUS
 62
     7
 10
678.181966
 20
262.210422
 11
679.435504
 21
261.511989
  0
LINE
  8
CSLAYER1
  6
CONTINUOUS
 62
     7
 10
679.333294
 20
261.328555
 11
679.044814
 21
260.810793
  0
LINE
  8
CSLAYER1
  6
CONTINUOUS
 62
     7
 10
680.302822
 20
263.893485
 11
680.971762
 21
263.314539
  0
LINE
  8
CSLAYER1
  6
CONTINUOUS
 62
     7
 10
679.270108
 20
262.700233
 11
679.939042
 21
262.121287
  0
LINE
  8
CSLAYER1
  6
CONTINUOUS
 62
     7
 10
679.407544
 20
262.859032
 11
680.076484
 21
262.280086
  0
LINE
  8
CSLAYER1
  6
CONTINUOUS
 62
     7
 10
680.165380
 20
263.734686
 11
680.834338
 21
263.155740
  0
LINE
  8
CSLAYER1
  6
CONTINUOUS
 62
     7
 10
678.771160
 20
251.667917
 11
679.996726
 21
252.728601
  0
LINE
  8
CSLAYER1
  6
CONTINUOUS
 62
     7
 10
679.472530
 20
251.997201
 11
680.048542
 21
251.331657
  0
LINE
  8
CSLAYER1
  6
CONTINUOUS
 62
     7
 10
679.996726
 20
252.728601
 11
680.710156
 21
251.904264
  0
LINE
  8
CSLAYER1
  6
CONTINUOUS
 62
     7
 10
678.908584
 20
251.509125
 11
679.313740
 21
251.859772
  0
LINE
  8
CSLAYER1
  6
CONTINUOUS
 62
     7
 10
679.975354
 20
252.432380
 11
680.551366
 21
251.766836
  0
LINE
  8
CSLAYER1
  6
CONTINUOUS
 62
     7
 10
679.313740
 20
251.859772
 11
679.889734
 21
251.194228
  0
LINE
  8
CSLAYER1
  6
CONTINUOUS
 62
     7
 10
679.472530
 20
251.997201
 11
679.975354
 21
252.432380
  0
LINE
  8
CSLAYER1
  6
CONTINUOUS
 62
     7
 10
681.086386
 20
251.481787
 11
682.256998
 21
250.587593
  0
LINE
  8
CSLAYER1
  6
CONTINUOUS
 62
     7
 10
680.052736
 20
250.128593
 11
681.223348
 21
249.234399
  0
LINE
  8
CSLAYER1
  6
CONTINUOUS
 62
     7
 10
680.052736
 20
250.128593
 11
681.086386
 21
251.481787
  0
LINE
  8
CSLAYER1
  6
CONTINUOUS
 62
     7
 10
681.125806
 20
251.187430
 11
682.129534
 21
250.420715
  0
LINE
  8
CSLAYER1
  6
CONTINUOUS
 62
     7
 10
680.347096
 20
250.168015
 11
680.672710
 21
250.594287
  0
LINE
  8
CSLAYER1
  6
CONTINUOUS
 62
     7
 10
680.347096
 20
250.168015
 11
681.350824
 21
249.401300
  0
LINE
  8
CSLAYER1
  6
CONTINUOUS
 62
     7
 10
680.800192
 20
250.761158
 11
681.637036
 21
250.121916
  0
LINE
  8
CSLAYER1
  6
CONTINUOUS
 62
     7
 10
680.672710
 20
250.594287
 11
681.509578
 21
249.955044
  0
LINE
  8
CSLAYER1
  6
CONTINUOUS
 62
     7
 10
680.800192
 20
250.761158
 11
681.125806
 21
251.187430
  0
LINE
  8
CSLAYER1
  6
CONTINUOUS
 62
     7
 10
683.129056
 20
248.339082
 11
683.797042
 21
249.731741
  0
LINE
  8
CSLAYER1
  6
CONTINUOUS
 62
     7
 10
681.706180
 20
249.021567
 11
682.374184
 21
250.414226
  0
LINE
  8
CSLAYER1
  6
CONTINUOUS
 62
     7
 10
681.895456
 20
248.930785
 11
682.443688
 21
250.073777
  0
LINE
  8
CSLAYER1
  6
CONTINUOUS
 62
     7
 10
683.059402
 20
248.679603
 11
683.607652
 21
249.822587
  0
LINE
  8
CSLAYER1
  6
CONTINUOUS
 62
     7
 10
682.569850
 20
250.397642
 11
683.059474
 21
248.679609
  0
LINE
  8
CSLAYER1
  6
CONTINUOUS
 62
     7
 10
682.443724
 20
250.073753
 11
682.933348
 21
248.355738
  0
LINE
  8
CSLAYER1
  6
CONTINUOUS
 62
     7
 10
695.349952
 20
259.226477
 11
695.332666
 21
259.226477
  0
LINE
  8
CSLAYER1
  6
CONTINUOUS
 62
     7
 10
695.382766
 20
258.874380
 11
693.777148
 21
258.874380
  0
LINE
  8
CSLAYER1
  6
CONTINUOUS
 62
     7
 10
695.382766
 20
258.379980
 11
693.777148
 21
258.379980
  0
LINE
  8
CSLAYER1
  6
CONTINUOUS
 62
     7
 10
695.349952
 20
258.026099
 11
695.311426
 21
258.026099
  0
LINE
  8
CSLAYER1
  6
CONTINUOUS
 62
     7
 10
695.394046
 20
257.531698
 11
695.332372
 21
257.531698
  0
LINE
  8
CSLAYER1
  6
CONTINUOUS
 62
     7
 10
695.394046
 20
255.034841
 11
695.332522
 21
255.034841
  0
LINE
  8
CSLAYER1
  6
CONTINUOUS
 62
     7
 10
695.349952
 20
255.529242
 11
695.311426
 21
255.529242
  0
ARC
  8
CSLAYER1
  6
CONTINUOUS
 62
     7
 10
686.600002
 20
222.930002
 40
6.030000
 50
234.685580
 51
305.195726
  0
ARC
  8
CSLAYER1
  6
CONTINUOUS
 62
     7
 10
707.366650
 20
193.486734
 40
30.000000
 50
90.804200
 51
125.195780
  0
ARC
  8
CSLAYER1
  6
CONTINUOUS
 62
     7
 10
686.600002
 20
257.400000
 40
34.139996
 50
278.591282
 51
297.408596
  0
ARC
  8
CSLAYER1
  6
CONTINUOUS
 62
     7
 10
686.600002
 20
257.400000
 40
31.139996
 50
281.233346
 51
294.766488
  0
ARC
  8
CSLAYER1
  6
CONTINUOUS
 62
     7
 10
700.147900
 20
228.034561
 40
1.200000
 50
36.000760
 51
114.767490
  0
ARC
  8
CSLAYER1
  6
CONTINUOUS
 62
     7
 10
692.900002
 20
225.679577
 40
1.200000
 50
101.233350
 51
179.999850
  0
ARC
  8
CSLAYER1
  6
CONTINUOUS
 62
     7
 10
706.860988
 20
229.513184
 40
6.030000
 50
270.685583
 51
341.195706
  0
ARC
  8
CSLAYER1
  6
CONTINUOUS
 62
     7
 10
740.967820
 20
217.899408
 40
30.000000
 50
126.804210
 51
161.195800
  0
ARC
  8
CSLAYER1
  6
CONTINUOUS
 62
     7
 10
686.600002
 20
257.400000
 40
34.139996
 50
314.591283
 51
333.408580
  0
ARC
  8
CSLAYER1
  6
CONTINUOUS
 62
     7
 10
686.600002
 20
257.400000
 40
31.139996
 50
317.233347
 51
330.766499
  0
ARC
  8
CSLAYER1
  6
CONTINUOUS
 62
     7
 10
714.821092
 20
241.606119
 40
1.200000
 50
72.000780
 51
150.767500
  0
ARC
  8
CSLAYER1
  6
CONTINUOUS
 62
     7
 10
710.341600
 20
235.440683
 40
1.200000
 50
137.233360
 51
215.999860
  0
ARC
  8
CSLAYER1
  6
CONTINUOUS
 62
     7
 10
719.382910
 20
246.748196
 40
6.030000
 50
-53.314419
 51
17.195720
  0
ARC
  8
CSLAYER1
  6
CONTINUOUS
 62
     7
 10
753.802198
 20
257.399954
 40
30.000000
 50
162.804220
 51
197.195810
  0
ARC
  8
CSLAYER1
  6
CONTINUOUS
 62
     7
 10
686.600002
 20
257.400000
 40
34.139996
 50
-9.408740
 51
9.408595
  0
ARC
  8
CSLAYER1
  6
CONTINUOUS
 62
     7
 10
686.600002
 20
257.400000
 40
31.139996
 50
-6.766659
 51
6.766514
  0
ARC
  8
CSLAYER1
  6
CONTINUOUS
 62
     7
 10
718.714798
 20
261.210424
 40
1.200000
 50
108.000750
 51
186.767480
  0
ARC
  8
CSLAYER1
  6
CONTINUOUS
 62
     7
 10
718.714798
 20
253.589502
 40
1.200000
 50
173.233380
 51
251.999860
  0
ARC
  8
CSLAYER1
  6
CONTINUOUS
 62
     7
 10
719.382910
 20
268.051821
 40
6.030000
 50
-17.314438
 51
53.195740
  0
ARC
  8
CSLAYER1
  6
CONTINUOUS
 62
     7
 10
740.967820
 20
296.900510
 40
30.000000
 50
198.804240
 51
233.195810
  0
ARC
  8
CSLAYER1
  6
CONTINUOUS
 62
     7
 10
686.600002
 20
257.400000
 40
34.139996
 50
26.591270
 51
45.408610
  0
ARC
  8
CSLAYER1
  6
CONTINUOUS
 62
     7
 10
686.600002
 20
257.400000
 40
31.139996
 50
29.233360
 51
42.766530
  0
ARC
  8
CSLAYER1
  6
CONTINUOUS
 62
     7
 10
710.341750
 20
279.359298
 40
1.200000
 50
144.000770
 51
222.767480
  0
ARC
  8
CSLAYER1
  6
CONTINUOUS
 62
     7
 10
714.821242
 20
273.193844
 40
1.200000
 50
209.233390
 51
287.999857
  0
ARC
  8
CSLAYER1
  6
CONTINUOUS
 62
     7
 10
706.860988
 20
285.286816
 40
6.030000
 50
18.685580
 51
89.195750
  0
ARC
  8
CSLAYER1
  6
CONTINUOUS
 62
     7
 10
707.366650
 20
321.313182
 40
30.000000
 50
234.804240
 51
269.195810
  0
ARC
  8
CSLAYER1
  6
CONTINUOUS
 62
     7
 10
686.600002
 20
257.400000
 40
34.139996
 50
62.591290
 51
81.408620
  0
ARC
  8
CSLAYER1
  6
CONTINUOUS
 62
     7
 10
686.600002
 20
257.400000
 40
31.139996
 50
65.233370
 51
78.766540
  0
ARC
  8
CSLAYER1
  6
CONTINUOUS
 62
     7
 10
692.900146
 20
289.120496
 40
1.200000
 50
180.000780
 51
258.767480
  0
ARC
  8
CSLAYER1
  6
CONTINUOUS
 62
     7
 10
700.148050
 20
286.765521
 40
1.200000
 50
245.233390
 51
323.999858
  0
ARC
  8
CSLAYER1
  6
CONTINUOUS
 62
     7
 10
686.600002
 20
291.870016
 40
6.030000
 50
54.685590
 51
125.195760
  0
ARC
  8
CSLAYER1
  6
CONTINUOUS
 62
     7
 10
665.833348
 20
321.313182
 40
30.000000
 50
270.804240
 51
305.195811
  0
ARC
  8
CSLAYER1
  6
CONTINUOUS
 62
     7
 10
686.600002
 20
257.400000
 40
34.139996
 50
98.591270
 51
117.408600
  0
ARC
  8
CSLAYER1
  6
CONTINUOUS
 62
     7
 10
686.600002
 20
257.400000
 40
31.139996
 50
101.233350
 51
114.766520
  0
ARC
  8
CSLAYER1
  6
CONTINUOUS
 62
     7
 10
673.052098
 20
286.765548
 40
1.200000
 50
216.000780
 51
294.767482
  0
ARC
  8
CSLAYER1
  6
CONTINUOUS
 62
     7
 10
680.300002
 20
289.120550
 40
1.200000
 50
281.233394
 51
359.999873
  0
ARC
  8
CSLAYER1
  6
CONTINUOUS
 62
     7
 10
666.339016
 20
285.286826
 40
6.030000
 50
90.685570
 51
161.195740
  0
ARC
  8
CSLAYER1
  6
CONTINUOUS
 62
     7
 10
632.232130
 20
296.900519
 40
30.000000
 50
306.804239
 51
341.195816
  0
ARC
  8
CSLAYER1
  6
CONTINUOUS
 62
     7
 10
686.600002
 20
257.400000
 40
34.139996
 50
134.591280
 51
153.408620
  0
ARC
  8
CSLAYER1
  6
CONTINUOUS
 62
     7
 10
686.600002
 20
257.400000
 40
31.139996
 50
137.233360
 51
150.766540
  0
ARC
  8
CSLAYER1
  6
CONTINUOUS
 62
     7
 10
658.378906
 20
273.193973
 40
1.200000
 50
252.000780
 51
330.767483
  0
ARC
  8
CSLAYER1
  6
CONTINUOUS
 62
     7
 10
662.858254
 20
279.359418
 40
1.200000
 50
-42.766605
 51
35.999890
  0
ARC
  8
CSLAYER1
  6
CONTINUOUS
 62
     7
 10
653.817088
 20
268.051803
 40
6.030000
 50
126.685580
 51
197.195760
  0
ARC
  8
CSLAYER1
  6
CONTINUOUS
 62
     7
 10
619.397638
 20
257.399997
 40
30.000000
 50
-17.195757
 51
17.195830
  0
ARC
  8
CSLAYER1
  6
CONTINUOUS
 62
     7
 10
686.600002
 20
257.400000
 40
34.139996
 50
170.591300
 51
189.408630
  0
ARC
  8
CSLAYER1
  6
CONTINUOUS
 62
     7
 10
686.600002
 20
257.400000
 40
31.139996
 50
173.233380
 51
186.766550
  0
ARC
  8
CSLAYER1
  6
CONTINUOUS
 62
     7
 10
654.485206
 20
253.589649
 40
1.200000
 50
-71.999214
 51
6.767497
  0
ARC
  8
CSLAYER1
  6
CONTINUOUS
 62
     7
 10
654.485062
 20
261.210493
 40
1.200000
 50
-6.766604
 51
71.999900
  0
ARC
  8
CSLAYER1
  6
CONTINUOUS
 62
     7
 10
653.817088
 20
246.748178
 40
6.030000
 50
162.685600
 51
233.195760
  0
ARC
  8
CSLAYER1
  6
CONTINUOUS
 62
     7
 10
632.232130
 20
217.899481
 40
30.000000
 50
18.804260
 51
53.195840
  0
ARC
  8
CSLAYER1
  6
CONTINUOUS
 62
     7
 10
686.600002
 20
257.400000
 40
34.139996
 50
206.591310
 51
225.408630
  0
ARC
  8
CSLAYER1
  6
CONTINUOUS
 62
     7
 10
686.600002
 20
257.400000
 40
31.139996
 50
209.233390
 51
222.766550
  0
ARC
  8
CSLAYER1
  6
CONTINUOUS
 62
     7
 10
662.858254
 20
235.440756
 40
1.200000
 50
-35.999213
 51
42.767510
  0
ARC
  8
CSLAYER1
  6
CONTINUOUS
 62
     7
 10
658.378762
 20
241.606064
 40
1.200000
 50
29.233410
 51
107.999920
  0
ARC
  8
CSLAYER1
  6
CONTINUOUS
 62
     7
 10
666.339016
 20
229.513184
 40
6.030000
 50
198.685610
 51
269.195760
  0
ARC
  8
CSLAYER1
  6
CONTINUOUS
 62
     7
 10
665.833348
 20
193.486818
 40
30.000000
 50
54.804270
 51
89.195860
  0
ARC
  8
CSLAYER1
  6
CONTINUOUS
 62
     7
 10
686.600002
 20
257.400000
 40
34.139996
 50
242.591310
 51
261.408630
  0
ARC
  8
CSLAYER1
  6
CONTINUOUS
 62
     7
 10
686.600002
 20
257.400000
 40
31.139996
 50
245.233390
 51
258.766550
  0
ARC
  8
CSLAYER1
  6
CONTINUOUS
 62
     7
 10
680.299852
 20
225.679550
 40
1.200000
 50
0.000802
 51
78.767530
  0
ARC
  8
CSLAYER1
  6
CONTINUOUS
 62
     7
 10
673.051954
 20
228.034406
 40
1.200000
 50
65.233420
 51
143.999930
  0
ARC
  8
CSLAYER1
  6
CONTINUOUS
 62
     7
 10
686.600002
 20
257.400000
 40
27.300000
 50
280.129556
 51
349.870648
  0
CIRCLE
  8
CSLAYER1
  6
CONTINUOUS
 62
     7
 10
686.600002
 20
257.400000
 40
3.000000
  0
CIRCLE
  8
CSLAYER1
  6
CONTINUOUS
 62
     7
 10
686.600002
 20
257.400000
 40
2.400000
  0
ARC
  8
CSLAYER1
  6
CONTINUOUS
 62
     7
 10
686.600002
 20
257.400000
 40
27.300000
 50
10.129260
 51
79.870470
  0
ARC
  8
CSLAYER1
  6
CONTINUOUS
 62
     7
 10
686.600002
 20
257.400000
 40
27.300000
 50
100.128930
 51
169.870740
  0
ARC
  8
CSLAYER1
  6
CONTINUOUS
 62
     7
 10
686.600002
 20
257.400000
 40
27.300000
 50
190.129410
 51
259.871080
  0
ARC
  8
CSLAYER1
  6
CONTINUOUS
 62
     7
 10
691.295848
 20
231.116189
 40
0.600000
 50
176.427880
 51
280.124523
  0
ARC
  8
CSLAYER1
  6
CONTINUOUS
 62
     7
 10
712.883836
 20
252.704232
 40
0.600000
 50
-10.129298
 51
93.572150
  0
ARC
  8
CSLAYER1
  6
CONTINUOUS
 62
     7
 10
712.883836
 20
262.095712
 40
0.600000
 50
-93.573070
 51
10.129320
  0
ARC
  8
CSLAYER1
  6
CONTINUOUS
 62
     7
 10
691.295848
 20
283.683810
 40
0.600000
 50
79.875490
 51
183.572130
  0
ARC
  8
CSLAYER1
  6
CONTINUOUS
 62
     7
 10
681.904444
 20
283.683856
 40
0.600000
 50
-3.572753
 51
100.124000
  0
ARC
  8
CSLAYER1
  6
CONTINUOUS
 62
     7
 10
660.316162
 20
262.095728
 40
0.600000
 50
169.870740
 51
273.572800
  0
ARC
  8
CSLAYER1
  6
CONTINUOUS
 62
     7
 10
660.316162
 20
252.704215
 40
0.600000
 50
86.427280
 51
190.129390
  0
ARC
  8
CSLAYER1
  6
CONTINUOUS
 62
     7
 10
681.904444
 20
231.116144
 40
0.600000
 50
-100.123990
 51
3.572772
  0
ARC
  8
CSLAYER1
  6
CONTINUOUS
 62
     7
 10
686.600002
 20
257.400000
 40
20.700000
 50
282.481351
 51
347.518440
  0
ARC
  8
CSLAYER1
  6
CONTINUOUS
 62
     7
 10
686.600002
 20
257.400000
 40
20.700000
 50
192.481560
 51
257.518650
  0
ARC
  8
CSLAYER1
  6
CONTINUOUS
 62
     7
 10
686.600002
 20
257.400000
 40
20.700000
 50
12.481580
 51
77.518640
  0
ARC
  8
CSLAYER1
  6
CONTINUOUS
 62
     7
 10
686.600002
 20
257.400000
 40
20.700000
 50
102.481360
 51
167.518420
  0
ARC
  8
CSLAYER1
  6
CONTINUOUS
 62
     7
 10
748.100002
 20
257.400000
 40
87.300000
 50
182.712200
 51
186.982980
  0
ARC
  8
CSLAYER1
  6
CONTINUOUS
 62
     7
 10
748.100002
 20
257.400000
 40
87.300000
 50
193.667450
 51
195.071730
  0
ARC
  8
CSLAYER1
  6
CONTINUOUS
 62
     7
 10
625.100002
 20
257.400000
 40
87.300000
 50
353.017015
 51
357.287796
  0
ARC
  8
CSLAYER1
  6
CONTINUOUS
 62
     7
 10
625.100002
 20
257.400000
 40
87.300000
 50
344.928268
 51
346.332555
  0
ARC
  8
CSLAYER1
  6
CONTINUOUS
 62
     7
 10
748.100002
 20
257.400000
 40
87.300000
 50
173.017000
 51
177.287780
  0
ARC
  8
CSLAYER1
  6
CONTINUOUS
 62
     7
 10
748.100002
 20
257.400000
 40
87.300000
 50
164.928250
 51
166.332540
  0
ARC
  8
CSLAYER1
  6
CONTINUOUS
 62
     7
 10
625.100002
 20
257.400000
 40
87.300000
 50
2.712223
 51
6.983003
  0
ARC
  8
CSLAYER1
  6
CONTINUOUS
 62
     7
 10
625.100002
 20
257.400000
 40
87.300000
 50
13.667460
 51
15.071750
  0
CIRCLE
  8
CSLAYER1
  6
CONTINUOUS
 62
     7
 10
686.600002
 20
257.400000
 40
10.500000
  0
CIRCLE
  8
CSLAYER1
  6
CONTINUOUS
 62
     7
 10
686.600002
 20
257.400000
 40
6.300001
  0
ARC
  8
CSLAYER1
  6
CONTINUOUS
 62
     7
 10
686.600002
 20
257.400000
 40
8.574997
 50
165.615910
 51
194.384070
  0
ARC
  8
CSLAYER1
  6
CONTINUOUS
 62
     7
 10
686.600002
 20
257.400000
 40
9.274995
 50
165.615910
 51
194.384070
  0
ARC
  8
CSLAYER1
  6
CONTINUOUS
 62
     7
 10
682.361770
 20
266.236103
 40
1.750001
 50
269.910900
 51
314.093478
  0
ARC
  8
CSLAYER1
  6
CONTINUOUS
 62
     7
 10
683.118508
 20
264.658224
 40
1.750001
 50
85.428440
 51
138.357320
  0
ARC
  8
CSLAYER1
  6
CONTINUOUS
 62
     7
 10
683.118508
 20
264.658224
 40
1.540000
 50
85.428440
 51
138.357320
  0
ARC
  8
CSLAYER1
  6
CONTINUOUS
 62
     7
 10
682.361770
 20
266.236103
 40
1.540000
 50
269.910900
 51
314.093478
  0
ARC
  8
CSLAYER1
  6
CONTINUOUS
 62
     7
 10
683.289892
 20
265.278005
 40
0.415992
 50
-45.906556
 51
105.624980
  0
ARC
  8
CSLAYER1
  6
CONTINUOUS
 62
     7
 10
682.101172
 20
265.562888
 40
0.388551
 50
138.357340
 51
285.624976
  0
ARC
  8
CSLAYER1
  6
CONTINUOUS
 62
     7
 10
682.101172
 20
265.562888
 40
0.178551
 50
138.357340
 51
285.624976
  0
ARC
  8
CSLAYER1
  6
CONTINUOUS
 62
     7
 10
683.289892
 20
265.278005
 40
0.205992
 50
-45.906556
 51
105.624980
  0
ARC
  8
CSLAYER1
  6
CONTINUOUS
 62
     7
 10
682.359130
 20
264.591101
 40
0.105000
 50
89.910900
 51
270.000010
  0
ARC
  8
CSLAYER1
  6
CONTINUOUS
 62
     7
 10
683.249608
 20
266.297995
 40
0.105000
 50
-94.571570
 51
85.428440
  0
ARC
  8
CSLAYER1
  6
CONTINUOUS
 62
     7
 10
681.273094
 20
265.500449
 40
0.105000
 50
37.375050
 51
217.375010
  0
ARC
  8
CSLAYER1
  6
CONTINUOUS
 62
     7
 10
681.123538
 20
263.442543
 40
0.105000
 50
-142.625010
 51
37.375050
  0
ARC
  8
CSLAYER1
  6
CONTINUOUS
 62
     7
 10
680.185888
 20
264.669988
 40
0.105000
 50
37.375050
 51
217.375010
  0
ARC
  8
CSLAYER1
  6
CONTINUOUS
 62
     7
 10
682.210744
 20
264.273001
 40
0.105000
 50
-142.625010
 51
37.375050
  0
ARC
  8
CSLAYER1
  6
CONTINUOUS
 62
     7
 10
679.815724
 20
261.978642
 40
0.105000
 50
-29.124928
 51
150.875040
  0
ARC
  8
CSLAYER1
  6
CONTINUOUS
 62
     7
 10
679.136476
 20
260.759696
 40
0.105000
 50
150.875050
 51
330.875072
  0
ARC
  8
CSLAYER1
  6
CONTINUOUS
 62
     7
 10
678.130858
 20
262.118719
 40
0.105000
 50
60.875050
 51
240.875070
  0
ARC
  8
CSLAYER1
  6
CONTINUOUS
 62
     7
 10
679.786426
 20
263.296866
 40
0.789037
 50
49.125050
 51
229.125070
  0
ARC
  8
CSLAYER1
  6
CONTINUOUS
 62
     7
 10
679.786426
 20
263.296866
 40
0.579037
 50
49.125050
 51
229.125070
  0
ARC
  8
CSLAYER1
  6
CONTINUOUS
 62
     7
 10
680.903074
 20
263.235130
 40
0.105000
 50
-130.875000
 51
49.125050
  0
ARC
  8
CSLAYER1
  6
CONTINUOUS
 62
     7
 10
680.007766
 20
262.200674
 40
0.105000
 50
-130.875000
 51
49.125050
  0
ARC
  8
CSLAYER1
  6
CONTINUOUS
 62
     7
 10
680.300002
 20
251.549246
 40
0.542500
 50
-139.125000
 51
40.874950
  0
ARC
  8
CSLAYER1
  6
CONTINUOUS
 62
     7
 10
680.300002
 20
251.549246
 40
0.332500
 50
-139.125000
 51
40.874950
  0
ARC
  8
CSLAYER1
  6
CONTINUOUS
 62
     7
 10
678.839842
 20
251.588522
 40
0.105000
 50
130.874950
 51
310.874984
  0
ARC
  8
CSLAYER1
  6
CONTINUOUS
 62
     7
 10
682.193314
 20
250.504156
 40
0.105000
 50
-127.375000
 51
52.624950
  0
ARC
  8
CSLAYER1
  6
CONTINUOUS
 62
     7
 10
681.573244
 20
250.038473
 40
0.105000
 50
-127.375000
 51
52.624950
  0
ARC
  8
CSLAYER1
  6
CONTINUOUS
 62
     7
 10
681.287158
 20
249.317847
 40
0.105000
 50
-127.375000
 51
52.624950
  0
ARC
  8
CSLAYER1
  6
CONTINUOUS
 62
     7
 10
682.468846
 20
250.368825
 40
0.105000
 50
15.907270
 51
154.374990
  0
ARC
  8
CSLAYER1
  6
CONTINUOUS
 62
     7
 10
683.034280
 20
248.384510
 40
0.105000
 50
195.907260
 51
334.375025
  0
ARC
  8
CSLAYER1
  6
CONTINUOUS
 62
     7
 10
683.702392
 20
249.777165
 40
0.105000
 50
-25.624975
 51
154.374990
  0
ARC
  8
CSLAYER1
  6
CONTINUOUS
 62
     7
 10
681.800734
 20
248.976176
 40
0.105000
 50
154.375010
 51
334.375025
  0
ARC
  8
CSLAYER1
  6
CONTINUOUS
 62
     7
 10
693.777148
 20
261.090293
 40
0.247200
 50
89.999960
 51
270.000010
  0
ARC
  8
CSLAYER1
  6
CONTINUOUS
 62
     7
 10
695.382766
 20
261.090293
 40
0.247200
 50
-90.000000
 51
90.000020
  0
ARC
  8
CSLAYER1
  6
CONTINUOUS
 62
     7
 10
693.821386
 20
259.476936
 40
0.272962
 50
140.896200
 51
320.896220
  0
ARC
  8
CSLAYER1
  6
CONTINUOUS
 62
     7
 10
695.349952
 20
259.506476
 40
0.280000
 50
270.000000
 51
339.540724
  0
ARC
  8
CSLAYER1
  6
CONTINUOUS
 62
     7
 10
695.332666
 20
259.506476
 40
0.280000
 50
183.248890
 51
270.000000
  0
ARC
  8
CSLAYER1
  6
CONTINUOUS
 62
     7
 10
695.297656
 20
259.475775
 40
0.245000
 50
121.487860
 51
176.528700
  0
ARC
  8
CSLAYER1
  6
CONTINUOUS
 62
     7
 10
695.415574
 20
259.482015
 40
0.210000
 50
-20.459331
 51
39.103800
  0
ARC
  8
CSLAYER1
  6
CONTINUOUS
 62
     7
 10
693.777148
 20
258.627173
 40
0.247200
 50
89.999960
 51
270.000010
  0
ARC
  8
CSLAYER1
  6
CONTINUOUS
 62
     7
 10
695.382766
 20
258.627173
 40
0.247200
 50
-90.000000
 51
90.000020
  0
ARC
  8
CSLAYER1
  6
CONTINUOUS
 62
     7
 10
695.341162
 20
256.168370
 40
0.288733
 50
180.000020
 51
359.999982
  0
ARC
  8
CSLAYER1
  6
CONTINUOUS
 62
     7
 10
693.777148
 20
256.912405
 40
0.247217
 50
90.000040
 51
269.999980
  0
ARC
  8
CSLAYER1
  6
CONTINUOUS
 62
     7
 10
695.311426
 20
257.767096
 40
0.259000
 50
90.000040
 51
175.157140
  0
ARC
  8
CSLAYER1
  6
CONTINUOUS
 62
     7
 10
695.332372
 20
257.811697
 40
0.280000
 50
184.658040
 51
270.000000
  0
ARC
  8
CSLAYER1
  6
CONTINUOUS
 62
     7
 10
695.349952
 20
257.746100
 40
0.280000
 50
-0.000018
 51
90.000020
  0
ARC
  8
CSLAYER1
  6
CONTINUOUS
 62
     7
 10
693.818752
 20
253.751243
 40
0.288751
 50
180.000020
 51
359.999982
  0
ARC
  8
CSLAYER1
  6
CONTINUOUS
 62
     7
 10
693.828124
 20
255.320090
 40
0.298095
 50
42.504470
 51
180.000000
  0
ARC
  8
CSLAYER1
  6
CONTINUOUS
 62
     7
 10
694.118020
 20
254.628453
 40
0.010500
 50
42.505510
 51
179.998630
  0
ARC
  8
CSLAYER1
  6
CONTINUOUS
 62
     7
 10
695.331934
 20
253.760551
 40
0.298053
 50
222.504460
 51
359.999982
  0
ARC
  8
CSLAYER1
  6
CONTINUOUS
 62
     7
 10
695.383642
 20
254.079549
 40
0.010500
 50
222.505720
 51
359.998288
  0
ARC
  8
CSLAYER1
  6
CONTINUOUS
 62
     7
 10
695.311426
 20
255.270239
 40
0.259000
 50
90.000040
 51
175.157140
  0
ARC
  8
CSLAYER1
  6
CONTINUOUS
 62
     7
 10
695.332522
 20
255.314840
 40
0.280000
 50
184.658040
 51
270.000000
  0
ARC
  8
CSLAYER1
  6
CONTINUOUS
 62
     7
 10
695.349952
 20
255.249243
 40
0.280000
 50
-0.000018
 51
90.000020
  0
CIRCLE
  8
CSLAYER1
  6
CONTINUOUS
 62
     7
 10
678.803518
 20
253.056051
 40
0.665000
  0
CIRCLE
  8
CSLAYER1
  6
CONTINUOUS
 62
     7
 10
678.803518
 20
253.056051
 40
0.874999
  0
INSERT
  8
CSLAYER1
  2
BLKF0000
 10
0.0
 20
0.0
 30
0.0
  0
LINE
  8
CSLAYER1
  6
CENTER
 62
     2
 10
642.950002
 20
402.855844
 11
589.550004
 21
402.855844
  0
LINE
  8
CSLAYER1
  6
CONTINUOUS
 62
     7
 10
630.200002
 20
411.165844
 11
630.200002
 21
394.455844
  0
LINE
  8
CSLAYER1
  6
CONTINUOUS
 62
     7
 10
636.200002
 20
395.655844
 11
635.559143
 21
394.545844
  0
LINE
  8
CSLAYER1
  6
CONTINUOUS
 62
     7
 10
636.200002
 20
410.055844
 11
635.559143
 21
411.165844
  0
LINE
  8
CSLAYER1
  6
CONTINUOUS
 62
     7
 10
635.559143
 20
411.165844
 11
630.200002
 21
411.165844
  0
LINE
  8
CSLAYER1
  6
CONTINUOUS
 62
     7
 10
630.200002
 20
411.165844
 11
630.200002
 21
394.455844
  0
LINE
  8
CSLAYER1
  6
CONTINUOUS
 62
     7
 10
630.200002
 20
394.545844
 11
635.559143
 21
394.545844
  0
LINE
  8
CSLAYER1
  6
CONTINUOUS
 62
     7
 10
636.200002
 20
395.655844
 11
636.200002
 21
410.055844
  0
ARC
  8
CSLAYER1
  6
CONTINUOUS
 62
     7
 10
632.512211
 20
396.623344
 40
3.687791
 50
-34.287473
 51
34.287473
  0
ARC
  8
CSLAYER1
  6
CONTINUOUS
 62
     7
 10
622.410127
 20
402.855844
 40
13.789875
 50
-17.536184
 51
17.536184
  0
ARC
  8
CSLAYER1
  6
CONTINUOUS
 62
     7
 10
632.512211
 20
409.088344
 40
3.687791
 50
-34.287473
 51
34.287473
  0
LINE
  8
CSLAYER1
  6
CONTINUOUS
 62
     7
 10
635.559143
 20
398.700844
 11
630.200002
 21
398.700844
  0
LINE
  8
CSLAYER1
  6
CONTINUOUS
 62
     7
 10
635.559143
 20
407.010844
 11
630.200002
 21
407.010844
  0
LINE
  8
CSLAYER1
  6
CONTINUOUS
 62
     7
 10
591.920004
 20
407.655844
 11
597.200004
 21
407.655844
  0
LINE
  8
CSLAYER1
  6
CONTINUOUS
 62
     7
 10
591.200004
 20
398.775844
 11
591.200004
 21
406.935844
  0
LINE
  8
CSLAYER1
  6
CONTINUOUS
 62
     7
 10
591.920004
 20
407.655844
 11
591.200004
 21
406.935844
  0
LINE
  8
CSLAYER1
  6
CONTINUOUS
 62
     7
 10
591.920004
 20
398.055844
 11
591.200004
 21
398.775844
  0
LINE
  8
CSLAYER1
  6
CONTINUOUS
 62
     7
 10
591.920004
 20
407.655844
 11
591.920004
 21
398.055844
  0
LINE
  8
CSLAYER1
  6
CONTINUOUS
 62
     7
 10
605.000004
 20
394.541997
 11
605.000000
 21
411.165845
  0
LINE
  8
CSLAYER1
  6
CONTINUOUS
 62
     7
 10
605.000004
 20
394.541997
 11
597.843085
 21
394.541997
  0
LINE
  8
CSLAYER1
  6
CONTINUOUS
 62
     7
 10
597.200004
 20
395.655845
 11
597.200004
 21
410.055845
  0
LINE
  8
CSLAYER1
  6
CONTINUOUS
 62
     7
 10
605.000000
 20
411.165845
 11
597.840863
 21
411.165845
  0
LINE
  8
CSLAYER1
  6
CONTINUOUS
 62
     7
 10
597.200004
 20
410.055845
 11
597.840863
 21
411.165845
  0
LINE
  8
CSLAYER1
  6
CONTINUOUS
 62
     7
 10
597.200004
 20
395.655845
 11
597.840863
 21
394.545845
  0
ARC
  8
CSLAYER1
  6
CONTINUOUS
 62
     7
 10
599.923479
 20
409.410845
 40
2.723474
 50
139.879485
 51
220.120515
  0
ARC
  8
CSLAYER1
  6
CONTINUOUS
 62
     7
 10
615.496312
 20
402.855845
 40
18.296308
 50
164.790570
 51
195.209430
  0
ARC
  8
CSLAYER1
  6
CONTINUOUS
 62
     7
 10
599.923479
 20
396.300845
 40
2.723474
 50
139.879485
 51
220.120515
  0
LINE
  8
CSLAYER1
  6
CONTINUOUS
 62
     7
 10
597.840863
 20
407.655845
 11
605.000001
 21
407.655845
  0
LINE
  8
CSLAYER1
  6
CONTINUOUS
 62
     7
 10
597.840863
 20
398.055845
 11
605.000003
 21
398.055845
  0
LINE
  8
CSLAYER1
  6
CONTINUOUS
 62
     7
 10
597.200004
 20
407.004844
 11
591.200004
 21
407.004844
  0
LINE
  8
CSLAYER1
  6
CONTINUOUS
 62
     7
 10
597.200004
 20
398.706844
 11
591.269004
 21
398.706844
  0
LINE
  8
CSLAYER1
  6
CONTINUOUS
 62
     7
 10
597.200004
 20
398.055844
 11
591.920004
 21
398.055844
  0
LINE
  8
CSLAYER1
  6
CENTER
 62
     2
 10
642.950002
 20
351.944156
 11
589.550004
 21
351.944156
  0
LINE
  8
CSLAYER1
  6
CONTINUOUS
 62
     7
 10
630.200002
 20
343.634156
 11
630.200002
 21
360.344156
  0
LINE
  8
CSLAYER1
  6
CONTINUOUS
 62
     7
 10
636.200002
 20
359.144156
 11
635.559143
 21
360.254156
  0
LINE
  8
CSLAYER1
  6
CONTINUOUS
 62
     7
 10
636.200002
 20
344.744156
 11
635.559143
 21
343.634156
  0
LINE
  8
CSLAYER1
  6
CONTINUOUS
 62
     7
 10
635.559143
 20
343.634156
 11
630.200002
 21
343.634156
  0
LINE
  8
CSLAYER1
  6
CONTINUOUS
 62
     7
 10
630.200002
 20
343.634156
 11
630.200002
 21
360.344156
  0
LINE
  8
CSLAYER1
  6
CONTINUOUS
 62
     7
 10
630.200002
 20
360.254156
 11
635.559143
 21
360.254156
  0
LINE
  8
CSLAYER1
  6
CONTINUOUS
 62
     7
 10
636.200002
 20
359.144156
 11
636.200002
 21
344.744156
  0
ARC
  8
CSLAYER1
  6
CONTINUOUS
 62
     7
 10
632.512211
 20
358.176656
 40
3.687791
 50
-34.287473
 51
34.287473
  0
ARC
  8
CSLAYER1
  6
CONTINUOUS
 62
     7
 10
622.410127
 20
351.944156
 40
13.789875
 50
-17.536184
 51
17.536184
  0
ARC
  8
CSLAYER1
  6
CONTINUOUS
 62
     7
 10
632.512211
 20
345.711656
 40
3.687791
 50
-34.287473
 51
34.287473
  0
LINE
  8
CSLAYER1
  6
CONTINUOUS
 62
     7
 10
635.559143
 20
356.099156
 11
630.200002
 21
356.099156
  0
LINE
  8
CSLAYER1
  6
CONTINUOUS
 62
     7
 10
635.559143
 20
347.789156
 11
630.200002
 21
347.789156
  0
LINE
  8
CSLAYER1
  6
CONTINUOUS
 62
     7
 10
591.920004
 20
347.144156
 11
597.200004
 21
347.144156
  0
LINE
  8
CSLAYER1
  6
CONTINUOUS
 62
     7
 10
591.200004
 20
356.024156
 11
591.200004
 21
347.864156
  0
LINE
  8
CSLAYER1
  6
CONTINUOUS
 62
     7
 10
591.920004
 20
347.144156
 11
591.200004
 21
347.864156
  0
LINE
  8
CSLAYER1
  6
CONTINUOUS
 62
     7
 10
591.920004
 20
356.744156
 11
591.200004
 21
356.024156
  0
LINE
  8
CSLAYER1
  6
CONTINUOUS
 62
     7
 10
591.920004
 20
347.144156
 11
591.920004
 21
356.744156
  0
LINE
  8
CSLAYER1
  6
CONTINUOUS
 62
     7
 10
605.000004
 20
360.258003
 11
605.000000
 21
343.634154
  0
LINE
  8
CSLAYER1
  6
CONTINUOUS
 62
     7
 10
605.000004
 20
360.258003
 11
597.843085
 21
360.258003
  0
LINE
  8
CSLAYER1
  6
CONTINUOUS
 62
     7
 10
597.200004
 20
359.144154
 11
597.200004
 21
344.744154
  0
LINE
  8
CSLAYER1
  6
CONTINUOUS
 62
     7
 10
605.000000
 20
343.634154
 11
597.840863
 21
343.634154
  0
LINE
  8
CSLAYER1
  6
CONTINUOUS
 62
     7
 10
597.200004
 20
344.744154
 11
597.840863
 21
343.634154
  0
LINE
  8
CSLAYER1
  6
CONTINUOUS
 62
     7
 10
597.200004
 20
359.144154
 11
597.840863
 21
360.254154
  0
ARC
  8
CSLAYER1
  6
CONTINUOUS
 62
     7
 10
599.923479
 20
345.389154
 40
2.723474
 50
139.879485
 51
220.120515
  0
ARC
  8
CSLAYER1
  6
CONTINUOUS
 62
     7
 10
615.496312
 20
351.944154
 40
18.296308
 50
164.790570
 51
195.209430
  0
ARC
  8
CSLAYER1
  6
CONTINUOUS
 62
     7
 10
599.923479
 20
358.499154
 40
2.723474
 50
139.879485
 51
220.120515
  0
LINE
  8
CSLAYER1
  6
CONTINUOUS
 62
     7
 10
597.840863
 20
347.144154
 11
605.000001
 21
347.144154
  0
LINE
  8
CSLAYER1
  6
CONTINUOUS
 62
     7
 10
597.840863
 20
356.744154
 11
605.000003
 21
356.744154
  0
LINE
  8
CSLAYER1
  6
CONTINUOUS
 62
     7
 10
597.200004
 20
347.795156
 11
591.200004
 21
347.795156
  0
LINE
  8
CSLAYER1
  6
CONTINUOUS
 62
     7
 10
597.200004
 20
356.093156
 11
591.269004
 21
356.093156
  0
LINE
  8
CSLAYER1
  6
CONTINUOUS
 62
     7
 10
597.200004
 20
356.744156
 11
591.920004
 21
356.744156
  0
LINE
  8
CSLAYER1
  6
CONTINUOUS
 62
     7
 10
605.000002
 20
137.400000
 11
605.000002
 21
183.300000
  0
LINE
  8
CSLAYER1
  6
CONTINUOUS
 62
     7
 10
605.600002
 20
183.900000
 11
616.400002
 21
183.900000
  0
LINE
  8
CSLAYER1
  6
CONTINUOUS
 62
     7
 10
605.600002
 20
90.900000
 11
616.400002
 21
90.900000
  0
LINE
  8
CSLAYER1
  6
CONTINUOUS
 62
     7
 10
605.000002
 20
183.300000
 11
605.600002
 21
183.900000
  0
LINE
  8
CSLAYER1
  6
CONTINUOUS
 62
     7
 10
616.400002
 20
183.900000
 11
617.000002
 21
183.300000
  0
LINE
  8
CSLAYER1
  6
CONTINUOUS
 62
     7
 10
605.000002
 20
91.500000
 11
605.600002
 21
90.900000
  0
LINE
  8
CSLAYER1
  6
CONTINUOUS
 62
     7
 10
616.400002
 20
90.900000
 11
617.000002
 21
91.500000
  0
LINE
  8
CSLAYER1
  6
CONTINUOUS
 62
     7
 10
617.000002
 20
183.900000
 11
617.000002
 21
90.900000
  0
LINE
  8
CSLAYER1
  6
CONTINUOUS
 62
     7
 10
618.200002
 20
183.900000
 11
617.000002
 21
183.900000
  0
LINE
  8
CSLAYER1
  6
CONTINUOUS
 62
     7
 10
618.200002
 20
90.900000
 11
617.000002
 21
90.900000
  0
LINE
  8
CSLAYER1
  6
CONTINUOUS
 62
     7
 10
618.200002
 20
90.900000
 11
618.200002
 21
183.900000
  0
LINE
  8
CSLAYER1
  6
CONTINUOUS
 62
     7
 10
619.400002
 20
183.600000
 11
619.400002
 21
91.200000
  0
LINE
  8
CSLAYER1
  6
CONTINUOUS
 62
     7
 10
619.700002
 20
90.900000
 11
629.000002
 21
90.900000
  0
LINE
  8
CSLAYER1
  6
CONTINUOUS
 62
     7
 10
630.200002
 20
92.100000
 11
630.200002
 21
182.700000
  0
LINE
  8
CSLAYER1
  6
CONTINUOUS
 62
     7
 10
629.000002
 20
183.900000
 11
619.700002
 21
183.900000
  0
LINE
  8
CSLAYER1
  6
CONTINUOUS
 62
     7
 10
619.400002
 20
166.200000
 11
618.200002
 21
166.200000
  0
LINE
  8
CSLAYER1
  6
CONTINUOUS
 62
     7
 10
618.200002
 20
108.600000
 11
619.400002
 21
108.600000
  0
LINE
  8
CSLAYER1
  6
CONTINUOUS
 62
     7
 10
635.600002
 20
154.616613
 11
635.600002
 21
120.183386
  0
ARC
  8
CSLAYER1
  6
CONTINUOUS
 62
     7
 10
629.000002
 20
182.700000
 40
1.200000
 50
0.000000
 51
90.000000
  0
ARC
  8
CSLAYER1
  6
CONTINUOUS
 62
     7
 10
629.000002
 20
92.100000
 40
1.200000
 50
270.000000
 51
360.000000
  0
LINE
  8
CSLAYER1
  6
CONTINUOUS
 62
     7
 10
619.700002
 20
183.900000
 11
619.400002
 21
183.600000
  0
LINE
  8
CSLAYER1
  6
CONTINUOUS
 62
     7
 10
619.400002
 20
91.200000
 11
619.700002
 21
90.900000
  0
LINE
  8
CSLAYER1
  6
CONTINUOUS
 62
     7
 10
605.000002
 20
137.400000
 11
605.000002
 21
91.500000
  0
LINE
  8
CSLAYER1
  6
CONTINUOUS
 62
     7
 10
630.200002
 20
171.165844
 11
630.200002
 21
154.455844
  0
LINE
  8
CSLAYER1
  6
CONTINUOUS
 62
     7
 10
636.200002
 20
155.655844
 11
635.559143
 21
154.545844
  0
LINE
  8
CSLAYER1
  6
CONTINUOUS
 62
     7
 10
636.200002
 20
170.055844
 11
635.559143
 21
171.165844
  0
LINE
  8
CSLAYER1
  6
CONTINUOUS
 62
     7
 10
635.559143
 20
171.165844
 11
630.200002
 21
171.165844
  0
LINE
  8
CSLAYER1
  6
CONTINUOUS
 62
     7
 10
630.200002
 20
171.165844
 11
630.200002
 21
154.455844
  0
LINE
  8
CSLAYER1
  6
CONTINUOUS
 62
     7
 10
630.200002
 20
154.545844
 11
635.559143
 21
154.545844
  0
LINE
  8
CSLAYER1
  6
CONTINUOUS
 62
     7
 10
636.200002
 20
155.655844
 11
636.200002
 21
170.055844
  0
ARC
  8
CSLAYER1
  6
CONTINUOUS
 62
     7
 10
632.512211
 20
156.623344
 40
3.687791
 50
-34.287473
 51
34.287473
  0
ARC
  8
CSLAYER1
  6
CONTINUOUS
 62
     7
 10
622.410127
 20
162.855844
 40
13.789875
 50
-17.536184
 51
17.536184
  0
ARC
  8
CSLAYER1
  6
CONTINUOUS
 62
     7
 10
632.512211
 20
169.088344
 40
3.687791
 50
-34.287473
 51
34.287473
  0
LINE
  8
CSLAYER1
  6
CONTINUOUS
 62
     7
 10
635.559143
 20
158.700844
 11
630.200002
 21
158.700844
  0
LINE
  8
CSLAYER1
  6
CONTINUOUS
 62
     7
 10
635.559143
 20
167.010844
 11
630.200002
 21
167.010844
  0
LINE
  8
CSLAYER1
  6
CONTINUOUS
 62
     7
 10
591.920004
 20
167.655844
 11
597.200004
 21
167.655844
  0
LINE
  8
CSLAYER1
  6
CONTINUOUS
 62
     7
 10
591.200004
 20
158.775844
 11
591.200004
 21
166.935844
  0
LINE
  8
CSLAYER1
  6
CONTINUOUS
 62
     7
 10
591.920004
 20
167.655844
 11
591.200004
 21
166.935844
  0
LINE
  8
CSLAYER1
  6
CONTINUOUS
 62
     7
 10
591.920004
 20
158.055844
 11
591.200004
 21
158.775844
  0
LINE
  8
CSLAYER1
  6
CONTINUOUS
 62
     7
 10
591.920004
 20
167.655844
 11
591.920004
 21
158.055844
  0
LINE
  8
CSLAYER1
  6
CONTINUOUS
 62
     7
 10
605.000004
 20
154.541997
 11
605.000000
 21
171.165845
  0
LINE
  8
CSLAYER1
  6
CONTINUOUS
 62
     7
 10
605.000004
 20
154.541997
 11
597.843085
 21
154.541997
  0
LINE
  8
CSLAYER1
  6
CONTINUOUS
 62
     7
 10
597.200004
 20
155.655845
 11
597.200004
 21
170.055845
  0
LINE
  8
CSLAYER1
  6
CONTINUOUS
 62
     7
 10
605.000000
 20
171.165845
 11
597.840863
 21
171.165845
  0
LINE
  8
CSLAYER1
  6
CONTINUOUS
 62
     7
 10
597.200004
 20
170.055845
 11
597.840863
 21
171.165845
  0
LINE
  8
CSLAYER1
  6
CONTINUOUS
 62
     7
 10
597.200004
 20
155.655845
 11
597.840863
 21
154.545845
  0
ARC
  8
CSLAYER1
  6
CONTINUOUS
 62
     7
 10
599.923479
 20
169.410845
 40
2.723474
 50
139.879485
 51
220.120515
  0
ARC
  8
CSLAYER1
  6
CONTINUOUS
 62
     7
 10
615.496312
 20
162.855845
 40
18.296308
 50
164.790570
 51
195.209430
  0
ARC
  8
CSLAYER1
  6
CONTINUOUS
 62
     7
 10
599.923479
 20
156.300845
 40
2.723474
 50
139.879485
 51
220.120515
  0
LINE
  8
CSLAYER1
  6
CONTINUOUS
 62
     7
 10
597.840863
 20
167.655845
 11
605.000001
 21
167.655845
  0
LINE
  8
CSLAYER1
  6
CONTINUOUS
 62
     7
 10
597.840863
 20
158.055845
 11
605.000003
 21
158.055845
  0
LINE
  8
CSLAYER1
  6
CONTINUOUS
 62
     7
 10
597.200004
 20
167.004844
 11
591.200004
 21
167.004844
  0
LINE
  8
CSLAYER1
  6
CONTINUOUS
 62
     7
 10
597.200004
 20
158.706844
 11
591.269004
 21
158.706844
  0
LINE
  8
CSLAYER1
  6
CONTINUOUS
 62
     7
 10
597.200004
 20
158.055844
 11
591.920004
 21
158.055844
  0
LINE
  8
CSLAYER1
  6
CONTINUOUS
 62
     7
 10
630.200002
 20
103.634156
 11
630.200002
 21
120.344156
  0
LINE
  8
CSLAYER1
  6
CONTINUOUS
 62
     7
 10
636.200002
 20
119.144156
 11
635.559143
 21
120.254156
  0
LINE
  8
CSLAYER1
  6
CONTINUOUS
 62
     7
 10
636.200002
 20
104.744156
 11
635.559143
 21
103.634156
  0
LINE
  8
CSLAYER1
  6
CONTINUOUS
 62
     7
 10
635.559143
 20
103.634156
 11
630.200002
 21
103.634156
  0
LINE
  8
CSLAYER1
  6
CONTINUOUS
 62
     7
 10
630.200002
 20
103.634156
 11
630.200002
 21
120.344156
  0
LINE
  8
CSLAYER1
  6
CONTINUOUS
 62
     7
 10
630.200002
 20
120.254156
 11
635.559143
 21
120.254156
  0
LINE
  8
CSLAYER1
  6
CONTINUOUS
 62
     7
 10
636.200002
 20
119.144156
 11
636.200002
 21
104.744156
  0
ARC
  8
CSLAYER1
  6
CONTINUOUS
 62
     7
 10
632.512211
 20
118.176656
 40
3.687791
 50
-34.287473
 51
34.287473
  0
ARC
  8
CSLAYER1
  6
CONTINUOUS
 62
     7
 10
622.410127
 20
111.944156
 40
13.789875
 50
-17.536184
 51
17.536184
  0
ARC
  8
CSLAYER1
  6
CONTINUOUS
 62
     7
 10
632.512211
 20
105.711656
 40
3.687791
 50
-34.287473
 51
34.287473
  0
LINE
  8
CSLAYER1
  6
CONTINUOUS
 62
     7
 10
635.559143
 20
116.099156
 11
630.200002
 21
116.099156
  0
LINE
  8
CSLAYER1
  6
CONTINUOUS
 62
     7
 10
635.559143
 20
107.789156
 11
630.200002
 21
107.789156
  0
LINE
  8
CSLAYER1
  6
CONTINUOUS
 62
     7
 10
591.920004
 20
107.144156
 11
597.200004
 21
107.144156
  0
LINE
  8
CSLAYER1
  6
CONTINUOUS
 62
     7
 10
591.200004
 20
116.024156
 11
591.200004
 21
107.864156
  0
LINE
  8
CSLAYER1
  6
CONTINUOUS
 62
     7
 10
591.920004
 20
107.144156
 11
591.200004
 21
107.864156
  0
LINE
  8
CSLAYER1
  6
CONTINUOUS
 62
     7
 10
591.920004
 20
116.744156
 11
591.200004
 21
116.024156
  0
LINE
  8
CSLAYER1
  6
CONTINUOUS
 62
     7
 10
591.920004
 20
107.144156
 11
591.920004
 21
116.744156
  0
LINE
  8
CSLAYER1
  6
CONTINUOUS
 62
     7
 10
605.000004
 20
120.258003
 11
605.000000
 21
103.634154
  0
LINE
  8
CSLAYER1
  6
CONTINUOUS
 62
     7
 10
605.000004
 20
120.258003
 11
597.843085
 21
120.258003
  0
LINE
  8
CSLAYER1
  6
CONTINUOUS
 62
     7
 10
597.200004
 20
119.144154
 11
597.200004
 21
104.744154
  0
LINE
  8
CSLAYER1
  6
CONTINUOUS
 62
     7
 10
605.000000
 20
103.634154
 11
597.840863
 21
103.634154
  0
LINE
  8
CSLAYER1
  6
CONTINUOUS
 62
     7
 10
597.200004
 20
104.744154
 11
597.840863
 21
103.634154
  0
LINE
  8
CSLAYER1
  6
CONTINUOUS
 62
     7
 10
597.200004
 20
119.144154
 11
597.840863
 21
120.254154
  0
ARC
  8
CSLAYER1
  6
CONTINUOUS
 62
     7
 10
599.923479
 20
105.389154
 40
2.723474
 50
139.879485
 51
220.120515
  0
ARC
  8
CSLAYER1
  6
CONTINUOUS
 62
     7
 10
615.496312
 20
111.944154
 40
18.296308
 50
164.790570
 51
195.209430
  0
ARC
  8
CSLAYER1
  6
CONTINUOUS
 62
     7
 10
599.923479
 20
118.499154
 40
2.723474
 50
139.879485
 51
220.120515
  0
LINE
  8
CSLAYER1
  6
CONTINUOUS
 62
     7
 10
597.840863
 20
107.144154
 11
605.000001
 21
107.144154
  0
LINE
  8
CSLAYER1
  6
CONTINUOUS
 62
     7
 10
597.840863
 20
116.744154
 11
605.000003
 21
116.744154
  0
LINE
  8
CSLAYER1
  6
CONTINUOUS
 62
     7
 10
597.200004
 20
107.795156
 11
591.200004
 21
107.795156
  0
LINE
  8
CSLAYER1
  6
CONTINUOUS
 62
     7
 10
597.200004
 20
116.093156
 11
591.269004
 21
116.093156
  0
LINE
  8
CSLAYER1
  6
CONTINUOUS
 62
     7
 10
597.200004
 20
116.744156
 11
591.920004
 21
116.744156
  0
LINE
  8
CSLAYER1
  6
CENTER
 62
     2
 10
642.950002
 20
162.855844
 11
589.550004
 21
162.855844
  0
LINE
  8
CSLAYER1
  6
CENTER
 62
     2
 10
642.950002
 20
111.944156
 11
589.550004
 21
111.944156
  0
LINE
  8
CSLAYER1
  6
CENTER
 62
     2
 10
53.000002
 20
988.473540
 11
724.400002
 21
988.473540
  0
LINE
  8
CSLAYER1
  6
CENTER
 62
     2
 10
341.000002
 20
700.473540
 11
341.000002
 21
1276.473540
  0
CIRCLE
  8
CSLAYER1
  6
CENTER
 62
     2
 10
341.000002
 20
988.473540
 40
186.000000
  0
CIRCLE
  8
CSLAYER1
  6
CENTER
 62
     2
 10
341.000002
 20
988.473540
 40
259.500000
  0
CIRCLE
  8
CSLAYER1
  6
CONTINUOUS
 62
     7
 10
341.000002
 20
988.473540
 40
150.000000
  0
CIRCLE
  8
CSLAYER1
  6
CONTINUOUS
 62
     7
 10
341.000002
 20
988.473540
 40
202.500000
  0
ARC
  8
CSLAYER1
  6
CONTINUOUS
 62
     7
 10
341.000002
 20
988.473540
 40
276.000000
 50
9.699354
 51
350.300646
  0
CIRCLE
  8
CSLAYER1
  6
CONTINUOUS
 62
     7
 10
341.000002
 20
988.473540
 40
241.800000
  0
LINE
  8
CSLAYER1
  6
CENTER
 62
     2
 10
171.216376
 20
961.582455
 11
143.363565
 21
957.171004
  0
CIRCLE
  8
CSLAYER1
  6
CONTINUOUS
 62
     7
 10
157.289971
 20
959.376729
 40
8.100000
  0
LINE
  8
CSLAYER1
  6
CENTER
 62
     2
 10
187.835980
 20
910.432573
 11
162.709596
 21
897.630041
  0
CIRCLE
  8
CSLAYER1
  6
CONTINUOUS
 62
     7
 10
175.272788
 20
904.031307
 40
8.100000
  0
LINE
  8
CSLAYER1
  6
CENTER
 62
     2
 10
219.448346
 20
866.921884
 11
199.507935
 21
846.981473
  0
CIRCLE
  8
CSLAYER1
  6
CONTINUOUS
 62
     7
 10
209.478141
 20
856.951679
 40
8.100000
  0
LINE
  8
CSLAYER1
  6
CENTER
 62
     2
 10
262.959035
 20
835.309518
 11
250.156503
 21
810.183134
  0
CIRCLE
  8
CSLAYER1
  6
CONTINUOUS
 62
     7
 10
256.557769
 20
822.746326
 40
8.100000
  0
LINE
  8
CSLAYER1
  6
CENTER
 62
     2
 10
314.108917
 20
818.689914
 11
309.697465
 21
790.837103
  0
CIRCLE
  8
CSLAYER1
  6
CONTINUOUS
 62
     7
 10
311.903191
 20
804.763509
 40
8.100000
  0
LINE
  8
CSLAYER1
  6
CENTER
 62
     2
 10
97.699433
 20
956.442412
 11
69.740688
 21
952.761574
  0
CIRCLE
  8
CSLAYER1
  6
CONTINUOUS
 62
     7
 10
83.720060
 20
954.601993
 40
10.800000
  0
LINE
  8
CSLAYER1
  6
CONTINUOUS
 62
     7
 10
88.492416
 20
966.123478
 11
76.128339
 21
964.495717
  0
LINE
  8
CSLAYER1
  6
CONTINUOUS
 62
     7
 10
76.128339
 20
964.495717
 11
71.355984
 21
952.974232
  0
LINE
  8
CSLAYER1
  6
CONTINUOUS
 62
     7
 10
71.355984
 20
952.974232
 11
78.947705
 21
943.080508
  0
LINE
  8
CSLAYER1
  6
CONTINUOUS
 62
     7
 10
78.947705
 20
943.080508
 11
91.311782
 21
944.708269
  0
LINE
  8
CSLAYER1
  6
CONTINUOUS
 62
     7
 10
91.311782
 20
944.708269
 11
96.084137
 21
956.229755
  0
LINE
  8
CSLAYER1
  6
CONTINUOUS
 62
     7
 10
96.084137
 20
956.229755
 11
88.492416
 21
966.123478
  0
LINE
  8
CSLAYER1
  6
CENTER
 62
     2
 10
114.279965
 20
894.563026
 11
88.226562
 21
883.771353
  0
CIRCLE
  8
CSLAYER1
  6
CONTINUOUS
 62
     7
 10
101.253263
 20
889.167189
 40
10.800000
  0
LINE
  8
CSLAYER1
  6
CONTINUOUS
 62
     7
 10
111.146987
 20
881.575468
 11
99.625502
 21
876.803113
  0
LINE
  8
CSLAYER1
  6
CONTINUOUS
 62
     7
 10
99.625502
 20
876.803113
 11
89.731778
 21
884.394834
  0
LINE
  8
CSLAYER1
  6
CONTINUOUS
 62
     7
 10
89.731778
 20
884.394834
 11
91.359540
 21
896.758910
  0
LINE
  8
CSLAYER1
  6
CONTINUOUS
 62
     7
 10
91.359540
 20
896.758910
 11
102.881025
 21
901.531266
  0
LINE
  8
CSLAYER1
  6
CONTINUOUS
 62
     7
 10
102.881025
 20
901.531266
 11
112.774749
 21
893.939545
  0
LINE
  8
CSLAYER1
  6
CONTINUOUS
 62
     7
 10
112.774749
 20
893.939545
 11
111.146987
 21
881.575468
  0
LINE
  8
CSLAYER1
  6
CENTER
 62
     2
 10
146.311092
 20
839.083485
 11
123.938528
 21
821.916413
  0
CIRCLE
  8
CSLAYER1
  6
CONTINUOUS
 62
     7
 10
135.124810
 20
830.499949
 40
10.800000
  0
LINE
  8
CSLAYER1
  6
CONTINUOUS
 62
     7
 10
146.646295
 20
825.727594
 11
136.752572
 21
818.135872
  0
LINE
  8
CSLAYER1
  6
CONTINUOUS
 62
     7
 10
136.752572
 20
818.135872
 11
125.231086
 21
822.908228
  0
LINE
  8
CSLAYER1
  6
CONTINUOUS
 62
     7
 10
125.231086
 20
822.908228
 11
123.603325
 21
835.272305
  0
LINE
  8
CSLAYER1
  6
CONTINUOUS
 62
     7
 10
123.603325
 20
835.272305
 11
133.497049
 21
842.864026
  0
LINE
  8
CSLAYER1
  6
CONTINUOUS
 62
     7
 10
133.497049
 20
842.864026
 11
145.018534
 21
838.091670
  0
LINE
  8
CSLAYER1
  6
CONTINUOUS
 62
     7
 10
145.018534
 20
838.091670
 11
146.646295
 21
825.727594
  0
LINE
  8
CSLAYER1
  6
CENTER
 62
     2
 10
247.089488
 20
761.753503
 11
236.297815
 21
735.700100
  0
CIRCLE
  8
CSLAYER1
  6
CONTINUOUS
 62
     7
 10
241.693651
 20
748.726801
 40
10.800000
  0
LINE
  8
CSLAYER1
  6
CONTINUOUS
 62
     7
 10
254.057728
 20
750.354563
 11
249.285372
 21
738.833078
  0
LINE
  8
CSLAYER1
  6
CONTINUOUS
 62
     7
 10
249.285372
 20
738.833078
 11
236.921296
 21
737.205316
  0
LINE
  8
CSLAYER1
  6
CONTINUOUS
 62
     7
 10
236.921296
 20
737.205316
 11
229.329575
 21
747.099040
  0
LINE
  8
CSLAYER1
  6
CONTINUOUS
 62
     7
 10
229.329575
 20
747.099040
 11
234.101930
 21
758.620525
  0
LINE
  8
CSLAYER1
  6
CONTINUOUS
 62
     7
 10
234.101930
 20
758.620525
 11
246.466007
 21
760.248287
  0
LINE
  8
CSLAYER1
  6
CONTINUOUS
 62
     7
 10
246.466007
 20
760.248287
 11
254.057728
 21
750.354563
  0
LINE
  8
CSLAYER1
  6
CENTER
 62
     2
 10
191.609947
 20
793.784630
 11
174.442875
 21
771.412066
  0
CIRCLE
  8
CSLAYER1
  6
CONTINUOUS
 62
     7
 10
183.026411
 20
782.598348
 40
10.800000
  0
LINE
  8
CSLAYER1
  6
CONTINUOUS
 62
     7
 10
178.254056
 20
794.119833
 11
170.662334
 21
784.226110
  0
LINE
  8
CSLAYER1
  6
CONTINUOUS
 62
     7
 10
170.662334
 20
784.226110
 11
175.434690
 21
772.704624
  0
LINE
  8
CSLAYER1
  6
CONTINUOUS
 62
     7
 10
175.434690
 20
772.704624
 11
187.798767
 21
771.076863
  0
LINE
  8
CSLAYER1
  6
CONTINUOUS
 62
     7
 10
187.798767
 20
771.076863
 11
195.390488
 21
780.970587
  0
LINE
  8
CSLAYER1
  6
CONTINUOUS
 62
     7
 10
195.390488
 20
780.970587
 11
190.618132
 21
792.492072
  0
LINE
  8
CSLAYER1
  6
CONTINUOUS
 62
     7
 10
190.618132
 20
792.492072
 11
178.254056
 21
794.119833
  0
LINE
  8
CSLAYER1
  6
CENTER
 62
     2
 10
308.968874
 20
745.172971
 11
305.288036
 21
717.214226
  0
CIRCLE
  8
CSLAYER1
  6
CONTINUOUS
 62
     7
 10
307.128455
 20
731.193598
 40
10.800000
  0
LINE
  8
CSLAYER1
  6
CONTINUOUS
 62
     7
 10
318.649940
 20
735.965954
 11
317.022179
 21
723.601877
  0
LINE
  8
CSLAYER1
  6
CONTINUOUS
 62
     7
 10
317.022179
 20
723.601877
 11
305.500693
 21
718.829522
  0
LINE
  8
CSLAYER1
  6
CONTINUOUS
 62
     7
 10
305.500693
 20
718.829522
 11
295.606970
 21
726.421243
  0
LINE
  8
CSLAYER1
  6
CONTINUOUS
 62
     7
 10
295.606970
 20
726.421243
 11
297.234731
 21
738.785320
  0
LINE
  8
CSLAYER1
  6
CONTINUOUS
 62
     7
 10
297.234731
 20
738.785320
 11
308.756217
 21
743.557675
  0
LINE
  8
CSLAYER1
  6
CONTINUOUS
 62
     7
 10
308.756217
 20
743.557675
 11
318.649940
 21
735.965954
  0
LINE
  8
CSLAYER1
  6
CENTER
 62
     2
 10
510.783628
 20
961.582455
 11
538.636439
 21
957.171004
  0
CIRCLE
  8
CSLAYER1
  6
CONTINUOUS
 62
     7
 10
524.710033
 20
959.376729
 40
8.100000
  0
LINE
  8
CSLAYER1
  6
CENTER
 62
     2
 10
494.164023
 20
910.432573
 11
519.290407
 21
897.630041
  0
CIRCLE
  8
CSLAYER1
  6
CONTINUOUS
 62
     7
 10
506.727215
 20
904.031307
 40
8.100000
  0
LINE
  8
CSLAYER1
  6
CENTER
 62
     2
 10
462.551658
 20
866.921884
 11
482.492069
 21
846.981473
  0
CIRCLE
  8
CSLAYER1
  6
CONTINUOUS
 62
     7
 10
472.521863
 20
856.951679
 40
8.100000
  0
LINE
  8
CSLAYER1
  6
CENTER
 62
     2
 10
419.040969
 20
835.309518
 11
431.843501
 21
810.183134
  0
CIRCLE
  8
CSLAYER1
  6
CONTINUOUS
 62
     7
 10
425.442235
 20
822.746326
 40
8.100000
  0
LINE
  8
CSLAYER1
  6
CENTER
 62
     2
 10
367.891086
 20
818.689914
 11
372.302538
 21
790.837103
  0
CIRCLE
  8
CSLAYER1
  6
CONTINUOUS
 62
     7
 10
370.096812
 20
804.763509
 40
8.100000
  0
LINE
  8
CSLAYER1
  6
CENTER
 62
     2
 10
584.300571
 20
956.442412
 11
612.259316
 21
952.761574
  0
ARC
  8
CSLAYER1
  6
CONTINUOUS
 62
     7
 10
598.279943
 20
954.601993
 40
10.800000
 50
130.961362
 51
308.478991
  0
LINE
  8
CSLAYER1
  6
CONTINUOUS
 62
     7
 10
605.000002
 20
945.618804
 11
603.052299
 21
943.080508
  0
LINE
  8
CSLAYER1
  6
CONTINUOUS
 62
     7
 10
603.052299
 20
943.080508
 11
590.688222
 21
944.708269
  0
LINE
  8
CSLAYER1
  6
CONTINUOUS
 62
     7
 10
590.688222
 20
944.708269
 11
585.915867
 21
956.229755
  0
LINE
  8
CSLAYER1
  6
CONTINUOUS
 62
     7
 10
585.915867
 20
956.229755
 11
591.090555
 21
962.973540
  0
LINE
  8
CSLAYER1
  6
CENTER
 62
     2
 10
567.720039
 20
894.563026
 11
593.773442
 21
883.771353
  0
CIRCLE
  8
CSLAYER1
  6
CONTINUOUS
 62
     7
 10
580.746741
 20
889.167189
 40
10.800000
  0
LINE
  8
CSLAYER1
  6
CONTINUOUS
 62
     7
 10
570.853017
 20
881.575468
 11
582.374502
 21
876.803113
  0
LINE
  8
CSLAYER1
  6
CONTINUOUS
 62
     7
 10
582.374502
 20
876.803113
 11
592.268226
 21
884.394834
  0
LINE
  8
CSLAYER1
  6
CONTINUOUS
 62
     7
 10
592.268226
 20
884.394834
 11
590.640464
 21
896.758910
  0
LINE
  8
CSLAYER1
  6
CONTINUOUS
 62
     7
 10
590.640464
 20
896.758910
 11
579.118979
 21
901.531266
  0
LINE
  8
CSLAYER1
  6
CONTINUOUS
 62
     7
 10
579.118979
 20
901.531266
 11
569.225255
 21
893.939545
  0
LINE
  8
CSLAYER1
  6
CONTINUOUS
 62
     7
 10
569.225255
 20
893.939545
 11
570.853017
 21
881.575468
  0
LINE
  8
CSLAYER1
  6
CENTER
 62
     2
 10
535.688912
 20
839.083485
 11
558.061476
 21
821.916413
  0
CIRCLE
  8
CSLAYER1
  6
CONTINUOUS
 62
     7
 10
546.875194
 20
830.499949
 40
10.800000
  0
LINE
  8
CSLAYER1
  6
CONTINUOUS
 62
     7
 10
535.353708
 20
825.727594
 11
545.247432
 21
818.135872
  0
LINE
  8
CSLAYER1
  6
CONTINUOUS
 62
     7
 10
545.247432
 20
818.135872
 11
556.768917
 21
822.908228
  0
LINE
  8
CSLAYER1
  6
CONTINUOUS
 62
     7
 10
556.768917
 20
822.908228
 11
558.396679
 21
835.272305
  0
LINE
  8
CSLAYER1
  6
CONTINUOUS
 62
     7
 10
558.396679
 20
835.272305
 11
548.502955
 21
842.864026
  0
LINE
  8
CSLAYER1
  6
CONTINUOUS
 62
     7
 10
548.502955
 20
842.864026
 11
536.981470
 21
838.091670
  0
LINE
  8
CSLAYER1
  6
CONTINUOUS
 62
     7
 10
536.981470
 20
838.091670
 11
535.353708
 21
825.727594
  0
LINE
  8
CSLAYER1
  6
CENTER
 62
     2
 10
434.910516
 20
761.753503
 11
445.702189
 21
735.700100
  0
CIRCLE
  8
CSLAYER1
  6
CONTINUOUS
 62
     7
 10
440.306353
 20
748.726801
 40
10.800000
  0
LINE
  8
CSLAYER1
  6
CONTINUOUS
 62
     7
 10
427.942276
 20
750.354563
 11
432.714631
 21
738.833078
  0
LINE
  8
CSLAYER1
  6
CONTINUOUS
 62
     7
 10
432.714631
 20
738.833078
 11
445.078708
 21
737.205316
  0
LINE
  8
CSLAYER1
  6
CONTINUOUS
 62
     7
 10
445.078708
 20
737.205316
 11
452.670429
 21
747.099040
  0
LINE
  8
CSLAYER1
  6
CONTINUOUS
 62
     7
 10
452.670429
 20
747.099040
 11
447.898074
 21
758.620525
  0
LINE
  8
CSLAYER1
  6
CONTINUOUS
 62
     7
 10
447.898074
 20
758.620525
 11
435.533997
 21
760.248287
  0
LINE
  8
CSLAYER1
  6
CONTINUOUS
 62
     7
 10
435.533997
 20
760.248287
 11
427.942276
 21
750.354563
  0
LINE
  8
CSLAYER1
  6
CENTER
 62
     2
 10
490.390057
 20
793.784630
 11
507.557129
 21
771.412066
  0
CIRCLE
  8
CSLAYER1
  6
CONTINUOUS
 62
     7
 10
498.973593
 20
782.598348
 40
10.800000
  0
LINE
  8
CSLAYER1
  6
CONTINUOUS
 62
     7
 10
503.745948
 20
794.119833
 11
511.337669
 21
784.226110
  0
LINE
  8
CSLAYER1
  6
CONTINUOUS
 62
     7
 10
511.337669
 20
784.226110
 11
506.565314
 21
772.704624
  0
LINE
  8
CSLAYER1
  6
CONTINUOUS
 62
     7
 10
506.565314
 20
772.704624
 11
494.201237
 21
771.076863
  0
LINE
  8
CSLAYER1
  6
CONTINUOUS
 62
     7
 10
494.201237
 20
771.076863
 11
486.609516
 21
780.970587
  0
LINE
  8
CSLAYER1
  6
CONTINUOUS
 62
     7
 10
486.609516
 20
780.970587
 11
491.381872
 21
792.492072
  0
LINE
  8
CSLAYER1
  6
CONTINUOUS
 62
     7
 10
491.381872
 20
792.492072
 11
503.745948
 21
794.119833
  0
LINE
  8
CSLAYER1
  6
CENTER
 62
     2
 10
373.031129
 20
745.172971
 11
376.711968
 21
717.214226
  0
CIRCLE
  8
CSLAYER1
  6
CONTINUOUS
 62
     7
 10
374.871549
 20
731.193598
 40
10.800000
  0
LINE
  8
CSLAYER1
  6
CONTINUOUS
 62
     7
 10
363.350064
 20
735.965954
 11
364.977825
 21
723.601877
  0
LINE
  8
CSLAYER1
  6
CONTINUOUS
 62
     7
 10
364.977825
 20
723.601877
 11
376.499310
 21
718.829522
  0
LINE
  8
CSLAYER1
  6
CONTINUOUS
 62
     7
 10
376.499310
 20
718.829522
 11
386.393034
 21
726.421243
  0
LINE
  8
CSLAYER1
  6
CONTINUOUS
 62
     7
 10
386.393034
 20
726.421243
 11
384.765273
 21
738.785320
  0
LINE
  8
CSLAYER1
  6
CONTINUOUS
 62
     7
 10
384.765273
 20
738.785320
 11
373.243787
 21
743.557675
  0
LINE
  8
CSLAYER1
  6
CONTINUOUS
 62
     7
 10
373.243787
 20
743.557675
 11
363.350064
 21
735.965954
  0
LINE
  8
CSLAYER1
  6
CENTER
 62
     2
 10
171.216376
 20
1015.364625
 11
143.363565
 21
1019.776076
  0
CIRCLE
  8
CSLAYER1
  6
CONTINUOUS
 62
     7
 10
157.289971
 20
1017.570350
 40
8.100000
  0
LINE
  8
CSLAYER1
  6
CENTER
 62
     2
 10
187.835980
 20
1066.514507
 11
162.709596
 21
1079.317039
  0
CIRCLE
  8
CSLAYER1
  6
CONTINUOUS
 62
     7
 10
175.272788
 20
1072.915773
 40
8.100000
  0
LINE
  8
CSLAYER1
  6
CENTER
 62
     2
 10
219.448346
 20
1110.025196
 11
199.507935
 21
1129.965607
  0
CIRCLE
  8
CSLAYER1
  6
CONTINUOUS
 62
     7
 10
209.478141
 20
1119.995401
 40
8.100000
  0
LINE
  8
CSLAYER1
  6
CENTER
 62
     2
 10
262.959035
 20
1141.637561
 11
250.156503
 21
1166.763945
  0
CIRCLE
  8
CSLAYER1
  6
CONTINUOUS
 62
     7
 10
256.557769
 20
1154.200753
 40
8.100000
  0
LINE
  8
CSLAYER1
  6
CENTER
 62
     2
 10
314.108917
 20
1158.257166
 11
309.697465
 21
1186.109977
  0
CIRCLE
  8
CSLAYER1
  6
CONTINUOUS
 62
     7
 10
311.903191
 20
1172.183571
 40
8.100000
  0
LINE
  8
CSLAYER1
  6
CENTER
 62
     2
 10
97.699433
 20
1020.504668
 11
69.740688
 21
1024.185506
  0
CIRCLE
  8
CSLAYER1
  6
CONTINUOUS
 62
     7
 10
83.720060
 20
1022.345087
 40
10.800000
  0
LINE
  8
CSLAYER1
  6
CONTINUOUS
 62
     7
 10
88.492416
 20
1010.823602
 11
76.128339
 21
1012.451363
  0
LINE
  8
CSLAYER1
  6
CONTINUOUS
 62
     7
 10
76.128339
 20
1012.451363
 11
71.355984
 21
1023.972848
  0
LINE
  8
CSLAYER1
  6
CONTINUOUS
 62
     7
 10
71.355984
 20
1023.972848
 11
78.947705
 21
1033.866572
  0
LINE
  8
CSLAYER1
  6
CONTINUOUS
 62
     7
 10
78.947705
 20
1033.866572
 11
91.311782
 21
1032.238811
  0
LINE
  8
CSLAYER1
  6
CONTINUOUS
 62
     7
 10
91.311782
 20
1032.238811
 11
96.084137
 21
1020.717325
  0
LINE
  8
CSLAYER1
  6
CONTINUOUS
 62
     7
 10
96.084137
 20
1020.717325
 11
88.492416
 21
1010.823602
  0
LINE
  8
CSLAYER1
  6
CENTER
 62
     2
 10
114.279965
 20
1082.384054
 11
88.226562
 21
1093.175727
  0
CIRCLE
  8
CSLAYER1
  6
CONTINUOUS
 62
     7
 10
101.253263
 20
1087.779891
 40
10.800000
  0
LINE
  8
CSLAYER1
  6
CONTINUOUS
 62
     7
 10
111.146987
 20
1095.371612
 11
99.625502
 21
1100.143967
  0
LINE
  8
CSLAYER1
  6
CONTINUOUS
 62
     7
 10
99.625502
 20
1100.143967
 11
89.731778
 21
1092.552246
  0
LINE
  8
CSLAYER1
  6
CONTINUOUS
 62
     7
 10
89.731778
 20
1092.552246
 11
91.359540
 21
1080.188169
  0
LINE
  8
CSLAYER1
  6
CONTINUOUS
 62
     7
 10
91.359540
 20
1080.188169
 11
102.881025
 21
1075.415814
  0
LINE
  8
CSLAYER1
  6
CONTINUOUS
 62
     7
 10
102.881025
 20
1075.415814
 11
112.774749
 21
1083.007535
  0
LINE
  8
CSLAYER1
  6
CONTINUOUS
 62
     7
 10
112.774749
 20
1083.007535
 11
111.146987
 21
1095.371612
  0
LINE
  8
CSLAYER1
  6
CENTER
 62
     2
 10
146.311092
 20
1137.863595
 11
123.938528
 21
1155.030667
  0
CIRCLE
  8
CSLAYER1
  6
CONTINUOUS
 62
     7
 10
135.124810
 20
1146.447131
 40
10.800000
  0
LINE
  8
CSLAYER1
  6
CONTINUOUS
 62
     7
 10
146.646295
 20
1151.219486
 11
136.752572
 21
1158.811207
  0
LINE
  8
CSLAYER1
  6
CONTINUOUS
 62
     7
 10
136.752572
 20
1158.811207
 11
125.231086
 21
1154.038852
  0
LINE
  8
CSLAYER1
  6
CONTINUOUS
 62
     7
 10
125.231086
 20
1154.038852
 11
123.603325
 21
1141.674775
  0
LINE
  8
CSLAYER1
  6
CONTINUOUS
 62
     7
 10
123.603325
 20
1141.674775
 11
133.497049
 21
1134.083054
  0
LINE
  8
CSLAYER1
  6
CONTINUOUS
 62
     7
 10
133.497049
 20
1134.083054
 11
145.018534
 21
1138.855410
  0
LINE
  8
CSLAYER1
  6
CONTINUOUS
 62
     7
 10
145.018534
 20
1138.855410
 11
146.646295
 21
1151.219486
  0
LINE
  8
CSLAYER1
  6
CENTER
 62
     2
 10
247.089488
 20
1215.193577
 11
236.297815
 21
1241.246980
  0
CIRCLE
  8
CSLAYER1
  6
CONTINUOUS
 62
     7
 10
241.693651
 20
1228.220279
 40
10.800000
  0
LINE
  8
CSLAYER1
  6
CONTINUOUS
 62
     7
 10
254.057728
 20
1226.592517
 11
249.285372
 21
1238.114002
  0
LINE
  8
CSLAYER1
  6
CONTINUOUS
 62
     7
 10
249.285372
 20
1238.114002
 11
236.921296
 21
1239.741764
  0
LINE
  8
CSLAYER1
  6
CONTINUOUS
 62
     7
 10
236.921296
 20
1239.741764
 11
229.329575
 21
1229.848040
  0
LINE
  8
CSLAYER1
  6
CONTINUOUS
 62
     7
 10
229.329575
 20
1229.848040
 11
234.101930
 21
1218.326555
  0
LINE
  8
CSLAYER1
  6
CONTINUOUS
 62
     7
 10
234.101930
 20
1218.326555
 11
246.466007
 21
1216.698793
  0
LINE
  8
CSLAYER1
  6
CONTINUOUS
 62
     7
 10
246.466007
 20
1216.698793
 11
254.057728
 21
1226.592517
  0
LINE
  8
CSLAYER1
  6
CENTER
 62
     2
 10
191.609947
 20
1183.162450
 11
174.442875
 21
1205.535014
  0
CIRCLE
  8
CSLAYER1
  6
CONTINUOUS
 62
     7
 10
183.026411
 20
1194.348732
 40
10.800000
  0
LINE
  8
CSLAYER1
  6
CONTINUOUS
 62
     7
 10
178.254056
 20
1182.827246
 11
170.662334
 21
1192.720970
  0
LINE
  8
CSLAYER1
  6
CONTINUOUS
 62
     7
 10
170.662334
 20
1192.720970
 11
175.434690
 21
1204.242455
  0
LINE
  8
CSLAYER1
  6
CONTINUOUS
 62
     7
 10
175.434690
 20
1204.242455
 11
187.798767
 21
1205.870217
  0
LINE
  8
CSLAYER1
  6
CONTINUOUS
 62
     7
 10
187.798767
 20
1205.870217
 11
195.390488
 21
1195.976493
  0
LINE
  8
CSLAYER1
  6
CONTINUOUS
 62
     7
 10
195.390488
 20
1195.976493
 11
190.618132
 21
1184.455008
  0
LINE
  8
CSLAYER1
  6
CONTINUOUS
 62
     7
 10
190.618132
 20
1184.455008
 11
178.254056
 21
1182.827246
  0
LINE
  8
CSLAYER1
  6
CENTER
 62
     2
 10
308.968874
 20
1231.774109
 11
305.288036
 21
1259.732854
  0
CIRCLE
  8
CSLAYER1
  6
CONTINUOUS
 62
     7
 10
307.128455
 20
1245.753481
 40
10.800000
  0
LINE
  8
CSLAYER1
  6
CONTINUOUS
 62
     7
 10
318.649940
 20
1240.981126
 11
317.022179
 21
1253.345203
  0
LINE
  8
CSLAYER1
  6
CONTINUOUS
 62
     7
 10
317.022179
 20
1253.345203
 11
305.500693
 21
1258.117558
  0
LINE
  8
CSLAYER1
  6
CONTINUOUS
 62
     7
 10
305.500693
 20
1258.117558
 11
295.606970
 21
1250.525837
  0
LINE
  8
CSLAYER1
  6
CONTINUOUS
 62
     7
 10
295.606970
 20
1250.525837
 11
297.234731
 21
1238.161760
  0
LINE
  8
CSLAYER1
  6
CONTINUOUS
 62
     7
 10
297.234731
 20
1238.161760
 11
308.756217
 21
1233.389405
  0
LINE
  8
CSLAYER1
  6
CONTINUOUS
 62
     7
 10
308.756217
 20
1233.389405
 11
318.649940
 21
1240.981126
  0
LINE
  8
CSLAYER1
  6
CENTER
 62
     2
 10
510.783628
 20
1015.364625
 11
538.636439
 21
1019.776076
  0
CIRCLE
  8
CSLAYER1
  6
CONTINUOUS
 62
     7
 10
524.710033
 20
1017.570350
 40
8.100000
  0
LINE
  8
CSLAYER1
  6
CENTER
 62
     2
 10
494.164023
 20
1066.514507
 11
519.290407
 21
1079.317039
  0
CIRCLE
  8
CSLAYER1
  6
CONTINUOUS
 62
     7
 10
506.727215
 20
1072.915773
 40
8.100000
  0
LINE
  8
CSLAYER1
  6
CENTER
 62
     2
 10
462.551658
 20
1110.025196
 11
482.492069
 21
1129.965607
  0
CIRCLE
  8
CSLAYER1
  6
CONTINUOUS
 62
     7
 10
472.521863
 20
1119.995401
 40
8.100000
  0
LINE
  8
CSLAYER1
  6
CENTER
 62
     2
 10
419.040969
 20
1141.637561
 11
431.843501
 21
1166.763945
  0
CIRCLE
  8
CSLAYER1
  6
CONTINUOUS
 62
     7
 10
425.442235
 20
1154.200753
 40
8.100000
  0
LINE
  8
CSLAYER1
  6
CENTER
 62
     2
 10
367.891086
 20
1158.257166
 11
372.302538
 21
1186.109977
  0
CIRCLE
  8
CSLAYER1
  6
CONTINUOUS
 62
     7
 10
370.096812
 20
1172.183571
 40
8.100000
  0
LINE
  8
CSLAYER1
  6
CENTER
 62
     2
 10
584.300571
 20
1020.504668
 11
612.259316
 21
1024.185506
  0
ARC
  8
CSLAYER1
  6
CONTINUOUS
 62
     7
 10
598.279943
 20
1022.345087
 40
10.800000
 50
51.521009
 51
229.038638
  0
LINE
  8
CSLAYER1
  6
CONTINUOUS
 62
     7
 10
605.000002
 20
1031.328276
 11
603.052299
 21
1033.866572
  0
LINE
  8
CSLAYER1
  6
CONTINUOUS
 62
     7
 10
603.052299
 20
1033.866572
 11
590.688222
 21
1032.238811
  0
LINE
  8
CSLAYER1
  6
CONTINUOUS
 62
     7
 10
590.688222
 20
1032.238811
 11
585.915867
 21
1020.717325
  0
LINE
  8
CSLAYER1
  6
CONTINUOUS
 62
     7
 10
585.915867
 20
1020.717325
 11
591.200004
 21
1013.830903
  0
LINE
  8
CSLAYER1
  6
CENTER
 62
     2
 10
567.720039
 20
1082.384054
 11
593.773442
 21
1093.175727
  0
CIRCLE
  8
CSLAYER1
  6
CONTINUOUS
 62
     7
 10
580.746741
 20
1087.779891
 40
10.800000
  0
LINE
  8
CSLAYER1
  6
CONTINUOUS
 62
     7
 10
570.853017
 20
1095.371612
 11
582.374502
 21
1100.143967
  0
LINE
  8
CSLAYER1
  6
CONTINUOUS
 62
     7
 10
582.374502
 20
1100.143967
 11
592.268226
 21
1092.552246
  0
LINE
  8
CSLAYER1
  6
CONTINUOUS
 62
     7
 10
592.268226
 20
1092.552246
 11
590.640464
 21
1080.188169
  0
LINE
  8
CSLAYER1
  6
CONTINUOUS
 62
     7
 10
590.640464
 20
1080.188169
 11
579.118979
 21
1075.415814
  0
LINE
  8
CSLAYER1
  6
CONTINUOUS
 62
     7
 10
579.118979
 20
1075.415814
 11
569.225255
 21
1083.007535
  0
LINE
  8
CSLAYER1
  6
CONTINUOUS
 62
     7
 10
569.225255
 20
1083.007535
 11
570.853017
 21
1095.371612
  0
LINE
  8
CSLAYER1
  6
CENTER
 62
     2
 10
535.688912
 20
1137.863595
 11
558.061476
 21
1155.030667
  0
CIRCLE
  8
CSLAYER1
  6
CONTINUOUS
 62
     7
 10
546.875194
 20
1146.447131
 40
10.800000
  0
LINE
  8
CSLAYER1
  6
CONTINUOUS
 62
     7
 10
535.353708
 20
1151.219486
 11
545.247432
 21
1158.811207
  0
LINE
  8
CSLAYER1
  6
CONTINUOUS
 62
     7
 10
545.247432
 20
1158.811207
 11
556.768917
 21
1154.038852
  0
LINE
  8
CSLAYER1
  6
CONTINUOUS
 62
     7
 10
556.768917
 20
1154.038852
 11
558.396679
 21
1141.674775
  0
LINE
  8
CSLAYER1
  6
CONTINUOUS
 62
     7
 10
558.396679
 20
1141.674775
 11
548.502955
 21
1134.083054
  0
LINE
  8
CSLAYER1
  6
CONTINUOUS
 62
     7
 10
548.502955
 20
1134.083054
 11
536.981470
 21
1138.855410
  0
LINE
  8
CSLAYER1
  6
CONTINUOUS
 62
     7
 10
536.981470
 20
1138.855410
 11
535.353708
 21
1151.219486
  0
LINE
  8
CSLAYER1
  6
CENTER
 62
     2
 10
434.910516
 20
1215.193577
 11
445.702189
 21
1241.246980
  0
CIRCLE
  8
CSLAYER1
  6
CONTINUOUS
 62
     7
 10
440.306353
 20
1228.220279
 40
10.800000
  0
LINE
  8
CSLAYER1
  6
CONTINUOUS
 62
     7
 10
427.942276
 20
1226.592517
 11
432.714631
 21
1238.114002
  0
LINE
  8
CSLAYER1
  6
CONTINUOUS
 62
     7
 10
432.714631
 20
1238.114002
 11
445.078708
 21
1239.741764
  0
LINE
  8
CSLAYER1
  6
CONTINUOUS
 62
     7
 10
445.078708
 20
1239.741764
 11
452.670429
 21
1229.848040
  0
LINE
  8
CSLAYER1
  6
CONTINUOUS
 62
     7
 10
452.670429
 20
1229.848040
 11
447.898074
 21
1218.326555
  0
LINE
  8
CSLAYER1
  6
CONTINUOUS
 62
     7
 10
447.898074
 20
1218.326555
 11
435.533997
 21
1216.698793
  0
LINE
  8
CSLAYER1
  6
CONTINUOUS
 62
     7
 10
435.533997
 20
1216.698793
 11
427.942276
 21
1226.592517
  0
LINE
  8
CSLAYER1
  6
CENTER
 62
     2
 10
490.390057
 20
1183.162450
 11
507.557129
 21
1205.535014
  0
CIRCLE
  8
CSLAYER1
  6
CONTINUOUS
 62
     7
 10
498.973593
 20
1194.348732
 40
10.800000
  0
LINE
  8
CSLAYER1
  6
CONTINUOUS
 62
     7
 10
503.745948
 20
1182.827246
 11
511.337669
 21
1192.720970
  0
LINE
  8
CSLAYER1
  6
CONTINUOUS
 62
     7
 10
511.337669
 20
1192.720970
 11
506.565314
 21
1204.242455
  0
LINE
  8
CSLAYER1
  6
CONTINUOUS
 62
     7
 10
506.565314
 20
1204.242455
 11
494.201237
 21
1205.870217
  0
LINE
  8
CSLAYER1
  6
CONTINUOUS
 62
     7
 10
494.201237
 20
1205.870217
 11
486.609516
 21
1195.976493
  0
LINE
  8
CSLAYER1
  6
CONTINUOUS
 62
     7
 10
486.609516
 20
1195.976493
 11
491.381872
 21
1184.455008
  0
LINE
  8
CSLAYER1
  6
CONTINUOUS
 62
     7
 10
491.381872
 20
1184.455008
 11
503.745948
 21
1182.827246
  0
LINE
  8
CSLAYER1
  6
CENTER
 62
     2
 10
373.031129
 20
1231.774109
 11
376.711968
 21
1259.732854
  0
CIRCLE
  8
CSLAYER1
  6
CONTINUOUS
 62
     7
 10
374.871549
 20
1245.753481
 40
10.800000
  0
LINE
  8
CSLAYER1
  6
CONTINUOUS
 62
     7
 10
363.350064
 20
1240.981126
 11
364.977825
 21
1253.345203
  0
LINE
  8
CSLAYER1
  6
CONTINUOUS
 62
     7
 10
364.977825
 20
1253.345203
 11
376.499310
 21
1258.117558
  0
LINE
  8
CSLAYER1
  6
CONTINUOUS
 62
     7
 10
376.499310
 20
1258.117558
 11
386.393034
 21
1250.525837
  0
LINE
  8
CSLAYER1
  6
CONTINUOUS
 62
     7
 10
386.393034
 20
1250.525837
 11
384.765273
 21
1238.161760
  0
LINE
  8
CSLAYER1
  6
CONTINUOUS
 62
     7
 10
384.765273
 20
1238.161760
 11
373.243787
 21
1233.389405
  0
LINE
  8
CSLAYER1
  6
CONTINUOUS
 62
     7
 10
373.243787
 20
1233.389405
 11
363.350064
 21
1240.981126
  0
LINE
  8
CSLAYER1
  6
CONTINUOUS
 62
     7
 10
605.000002
 20
988.473540
 11
605.000002
 21
1034.373540
  0
LINE
  8
CSLAYER1
  6
CONTINUOUS
 62
     7
 10
605.600002
 20
1034.973540
 11
616.400002
 21
1034.973540
  0
LINE
  8
CSLAYER1
  6
CONTINUOUS
 62
     7
 10
583.600971
 20
1013.973540
 11
592.550004
 21
1013.973540
  0
LINE
  8
CSLAYER1
  6
CONTINUOUS
 62
     7
 10
605.600002
 20
941.973540
 11
616.400002
 21
941.973540
  0
LINE
  8
CSLAYER1
  6
CONTINUOUS
 62
     7
 10
583.600971
 20
962.973540
 11
591.200004
 21
962.973540
  0
LINE
  8
CSLAYER1
  6
CONTINUOUS
 62
     7
 10
605.000002
 20
1034.373540
 11
605.600002
 21
1034.973540
  0
LINE
  8
CSLAYER1
  6
CONTINUOUS
 62
     7
 10
616.400002
 20
1034.973540
 11
617.000002
 21
1034.373540
  0
LINE
  8
CSLAYER1
  6
CONTINUOUS
 62
     7
 10
605.000002
 20
942.573540
 11
605.600002
 21
941.973540
  0
LINE
  8
CSLAYER1
  6
CONTINUOUS
 62
     7
 10
616.400002
 20
941.973540
 11
617.000002
 21
942.573540
  0
LINE
  8
CSLAYER1
  6
CONTINUOUS
 62
     7
 10
617.000002
 20
1034.973540
 11
617.000002
 21
941.973540
  0
LINE
  8
CSLAYER1
  6
CONTINUOUS
 62
     7
 10
618.200002
 20
1034.973540
 11
617.000002
 21
1034.973540
  0
LINE
  8
CSLAYER1
  6
CONTINUOUS
 62
     7
 10
618.200002
 20
941.973540
 11
617.000002
 21
941.973540
  0
LINE
  8
CSLAYER1
  6
CONTINUOUS
 62
     7
 10
618.200002
 20
941.973540
 11
618.200002
 21
1034.973540
  0
LINE
  8
CSLAYER1
  6
CONTINUOUS
 62
     7
 10
619.400002
 20
1034.673540
 11
619.400002
 21
942.273540
  0
LINE
  8
CSLAYER1
  6
CONTINUOUS
 62
     7
 10
619.700002
 20
941.973540
 11
629.000002
 21
941.973540
  0
LINE
  8
CSLAYER1
  6
CONTINUOUS
 62
     7
 10
630.200002
 20
943.173540
 11
630.200002
 21
1033.773540
  0
LINE
  8
CSLAYER1
  6
CONTINUOUS
 62
     7
 10
629.000002
 20
1034.973540
 11
619.700002
 21
1034.973540
  0
LINE
  8
CSLAYER1
  6
CONTINUOUS
 62
     7
 10
619.400002
 20
1017.273540
 11
618.200002
 21
1017.273540
  0
LINE
  8
CSLAYER1
  6
CONTINUOUS
 62
     7
 10
618.200002
 20
959.673540
 11
619.400002
 21
959.673540
  0
LINE
  8
CSLAYER1
  6
CONTINUOUS
 62
     7
 10
635.600002
 20
1005.690154
 11
635.600002
 21
971.256926
  0
ARC
  8
CSLAYER1
  6
CONTINUOUS
 62
     7
 10
629.000002
 20
1033.773540
 40
1.200000
 50
0.000000
 51
90.000000
  0
ARC
  8
CSLAYER1
  6
CONTINUOUS
 62
     7
 10
629.000002
 20
943.173540
 40
1.200000
 50
270.000000
 51
360.000000
  0
LINE
  8
CSLAYER1
  6
CONTINUOUS
 62
     7
 10
619.700002
 20
1034.973540
 11
619.400002
 21
1034.673540
  0
LINE
  8
CSLAYER1
  6
CONTINUOUS
 62
     7
 10
619.400002
 20
942.273540
 11
619.700002
 21
941.973540
  0
LINE
  8
CSLAYER1
  6
CONTINUOUS
 62
     7
 10
647.972002
 20
970.589340
 11
652.400002
 21
971.462542
  0
LINE
  8
CSLAYER1
  6
CONTINUOUS
 62
     7
 10
635.985433
 20
970.589340
 11
652.400002
 21
970.589340
  0
LINE
  8
CSLAYER1
  6
CONTINUOUS
 62
     7
 10
640.028002
 20
970.589340
 11
635.600002
 21
971.462542
  0
LINE
  8
CSLAYER1
  6
CONTINUOUS
 62
     7
 10
647.972002
 20
1006.357740
 11
652.400002
 21
1005.484538
  0
LINE
  8
CSLAYER1
  6
CONTINUOUS
 62
     7
 10
635.985433
 20
1006.357740
 11
652.400002
 21
1006.357740
  0
LINE
  8
CSLAYER1
  6
CONTINUOUS
 62
     7
 10
640.028002
 20
1006.357740
 11
635.600002
 21
1005.484538
  0
LINE
  8
CSLAYER1
  6
CONTINUOUS
 62
     7
 10
605.000002
 20
988.473540
 11
605.000002
 21
942.573540
  0
LINE
  8
CSLAYER1
  6
CENTER
 62
     2
 10
642.950002
 20
1013.929384
 11
589.550004
 21
1013.929384
  0
LINE
  8
CSLAYER1
  6
CONTINUOUS
 62
     7
 10
630.200002
 20
1022.239384
 11
630.200002
 21
1005.529384
  0
LINE
  8
CSLAYER1
  6
CONTINUOUS
 62
     7
 10
636.200002
 20
1006.729384
 11
635.559143
 21
1005.619384
  0
LINE
  8
CSLAYER1
  6
CONTINUOUS
 62
     7
 10
636.200002
 20
1021.129384
 11
635.559143
 21
1022.239384
  0
LINE
  8
CSLAYER1
  6
CONTINUOUS
 62
     7
 10
635.559143
 20
1022.239384
 11
630.200002
 21
1022.239384
  0
LINE
  8
CSLAYER1
  6
CONTINUOUS
 62
     7
 10
630.200002
 20
1022.239384
 11
630.200002
 21
1005.529384
  0
LINE
  8
CSLAYER1
  6
CONTINUOUS
 62
     7
 10
630.200002
 20
1005.619384
 11
635.559143
 21
1005.619384
  0
LINE
  8
CSLAYER1
  6
CONTINUOUS
 62
     7
 10
636.200002
 20
1006.729384
 11
636.200002
 21
1021.129384
  0
ARC
  8
CSLAYER1
  6
CONTINUOUS
 62
     7
 10
632.512211
 20
1007.696884
 40
3.687791
 50
-34.287473
 51
34.287473
  0
ARC
  8
CSLAYER1
  6
CONTINUOUS
 62
     7
 10
622.410127
 20
1013.929384
 40
13.789875
 50
-17.536184
 51
17.536184
  0
ARC
  8
CSLAYER1
  6
CONTINUOUS
 62
     7
 10
632.512211
 20
1020.161884
 40
3.687791
 50
-34.287473
 51
34.287473
  0
LINE
  8
CSLAYER1
  6
CONTINUOUS
 62
     7
 10
635.559143
 20
1009.774384
 11
630.200002
 21
1009.774384
  0
LINE
  8
CSLAYER1
  6
CONTINUOUS
 62
     7
 10
635.559143
 20
1018.084384
 11
630.200002
 21
1018.084384
  0
LINE
  8
CSLAYER1
  6
CONTINUOUS
 62
     7
 10
591.920004
 20
1018.729384
 11
597.200004
 21
1018.729384
  0
LINE
  8
CSLAYER1
  6
CONTINUOUS
 62
     7
 10
591.200004
 20
1009.849384
 11
591.200004
 21
1018.009384
  0
LINE
  8
CSLAYER1
  6
CONTINUOUS
 62
     7
 10
591.920004
 20
1018.729384
 11
591.200004
 21
1018.009384
  0
LINE
  8
CSLAYER1
  6
CONTINUOUS
 62
     7
 10
591.920004
 20
1009.129384
 11
591.200004
 21
1009.849384
  0
LINE
  8
CSLAYER1
  6
CONTINUOUS
 62
     7
 10
591.920004
 20
1018.729384
 11
591.920004
 21
1009.129384
  0
LINE
  8
CSLAYER1
  6
CONTINUOUS
 62
     7
 10
605.000004
 20
1005.615537
 11
605.000000
 21
1022.239386
  0
LINE
  8
CSLAYER1
  6
CONTINUOUS
 62
     7
 10
605.000004
 20
1005.615537
 11
597.843085
 21
1005.615537
  0
LINE
  8
CSLAYER1
  6
CONTINUOUS
 62
     7
 10
597.200004
 20
1006.729386
 11
597.200004
 21
1021.129386
  0
LINE
  8
CSLAYER1
  6
CONTINUOUS
 62
     7
 10
605.000000
 20
1022.239386
 11
597.840863
 21
1022.239386
  0
LINE
  8
CSLAYER1
  6
CONTINUOUS
 62
     7
 10
597.200004
 20
1021.129386
 11
597.840863
 21
1022.239386
  0
LINE
  8
CSLAYER1
  6
CONTINUOUS
 62
     7
 10
597.200004
 20
1006.729386
 11
597.840863
 21
1005.619386
  0
ARC
  8
CSLAYER1
  6
CONTINUOUS
 62
     7
 10
599.923479
 20
1020.484386
 40
2.723474
 50
139.879485
 51
220.120515
  0
ARC
  8
CSLAYER1
  6
CONTINUOUS
 62
     7
 10
615.496312
 20
1013.929386
 40
18.296308
 50
164.790570
 51
195.209430
  0
ARC
  8
CSLAYER1
  6
CONTINUOUS
 62
     7
 10
599.923479
 20
1007.374386
 40
2.723474
 50
139.879485
 51
220.120515
  0
LINE
  8
CSLAYER1
  6
CONTINUOUS
 62
     7
 10
597.840863
 20
1018.729386
 11
605.000001
 21
1018.729386
  0
LINE
  8
CSLAYER1
  6
CONTINUOUS
 62
     7
 10
597.840863
 20
1009.129386
 11
605.000003
 21
1009.129386
  0
LINE
  8
CSLAYER1
  6
CONTINUOUS
 62
     7
 10
597.200004
 20
1018.078384
 11
591.200004
 21
1018.078384
  0
LINE
  8
CSLAYER1
  6
CONTINUOUS
 62
     7
 10
597.200004
 20
1009.780384
 11
591.269004
 21
1009.780384
  0
LINE
  8
CSLAYER1
  6
CONTINUOUS
 62
     7
 10
597.200004
 20
1009.129384
 11
591.920004
 21
1009.129384
  0
LINE
  8
CSLAYER1
  6
CENTER
 62
     2
 10
642.950002
 20
963.017696
 11
589.550004
 21
963.017696
  0
LINE
  8
CSLAYER1
  6
CONTINUOUS
 62
     7
 10
630.200002
 20
954.707696
 11
630.200002
 21
971.417696
  0
LINE
  8
CSLAYER1
  6
CONTINUOUS
 62
     7
 10
636.200002
 20
970.217696
 11
635.559143
 21
971.327696
  0
LINE
  8
CSLAYER1
  6
CONTINUOUS
 62
     7
 10
636.200002
 20
955.817696
 11
635.559143
 21
954.707696
  0
LINE
  8
CSLAYER1
  6
CONTINUOUS
 62
     7
 10
635.559143
 20
954.707696
 11
630.200002
 21
954.707696
  0
LINE
  8
CSLAYER1
  6
CONTINUOUS
 62
     7
 10
630.200002
 20
954.707696
 11
630.200002
 21
971.417696
  0
LINE
  8
CSLAYER1
  6
CONTINUOUS
 62
     7
 10
630.200002
 20
971.327696
 11
635.559143
 21
971.327696
  0
LINE
  8
CSLAYER1
  6
CONTINUOUS
 62
     7
 10
636.200002
 20
970.217696
 11
636.200002
 21
955.817696
  0
ARC
  8
CSLAYER1
  6
CONTINUOUS
 62
     7
 10
632.512211
 20
969.250196
 40
3.687791
 50
-34.287473
 51
34.287473
  0
ARC
  8
CSLAYER1
  6
CONTINUOUS
 62
     7
 10
622.410127
 20
963.017696
 40
13.789875
 50
-17.536184
 51
17.536184
  0
ARC
  8
CSLAYER1
  6
CONTINUOUS
 62
     7
 10
632.512211
 20
956.785196
 40
3.687791
 50
-34.287473
 51
34.287473
  0
LINE
  8
CSLAYER1
  6
CONTINUOUS
 62
     7
 10
635.559143
 20
967.172696
 11
630.200002
 21
967.172696
  0
LINE
  8
CSLAYER1
  6
CONTINUOUS
 62
     7
 10
635.559143
 20
958.862696
 11
630.200002
 21
958.862696
  0
LINE
  8
CSLAYER1
  6
CONTINUOUS
 62
     7
 10
591.920004
 20
958.217696
 11
597.200004
 21
958.217696
  0
LINE
  8
CSLAYER1
  6
CONTINUOUS
 62
     7
 10
591.200004
 20
967.097696
 11
591.200004
 21
958.937696
  0
LINE
  8
CSLAYER1
  6
CONTINUOUS
 62
     7
 10
591.920004
 20
958.217696
 11
591.200004
 21
958.937696
  0
LINE
  8
CSLAYER1
  6
CONTINUOUS
 62
     7
 10
591.920004
 20
967.817696
 11
591.200004
 21
967.097696
  0
LINE
  8
CSLAYER1
  6
CONTINUOUS
 62
     7
 10
591.920004
 20
958.217696
 11
591.920004
 21
967.817696
  0
LINE
  8
CSLAYER1
  6
CONTINUOUS
 62
     7
 10
605.000004
 20
971.331543
 11
605.000000
 21
954.707694
  0
LINE
  8
CSLAYER1
  6
CONTINUOUS
 62
     7
 10
605.000004
 20
971.331543
 11
597.843085
 21
971.331543
  0
LINE
  8
CSLAYER1
  6
CONTINUOUS
 62
     7
 10
597.200004
 20
970.217694
 11
597.200004
 21
955.817694
  0
LINE
  8
CSLAYER1
  6
CONTINUOUS
 62
     7
 10
605.000000
 20
954.707694
 11
597.840863
 21
954.707694
  0
LINE
  8
CSLAYER1
  6
CONTINUOUS
 62
     7
 10
597.200004
 20
955.817694
 11
597.840863
 21
954.707694
  0
LINE
  8
CSLAYER1
  6
CONTINUOUS
 62
     7
 10
597.200004
 20
970.217694
 11
597.840863
 21
971.327694
  0
ARC
  8
CSLAYER1
  6
CONTINUOUS
 62
     7
 10
599.923479
 20
956.462694
 40
2.723474
 50
139.879485
 51
220.120515
  0
ARC
  8
CSLAYER1
  6
CONTINUOUS
 62
     7
 10
615.496312
 20
963.017694
 40
18.296308
 50
164.790570
 51
195.209430
  0
ARC
  8
CSLAYER1
  6
CONTINUOUS
 62
     7
 10
599.923479
 20
969.572694
 40
2.723474
 50
139.879485
 51
220.120515
  0
LINE
  8
CSLAYER1
  6
CONTINUOUS
 62
     7
 10
597.840863
 20
958.217694
 11
605.000001
 21
958.217694
  0
LINE
  8
CSLAYER1
  6
CONTINUOUS
 62
     7
 10
597.840863
 20
967.817694
 11
605.000003
 21
967.817694
  0
LINE
  8
CSLAYER1
  6
CONTINUOUS
 62
     7
 10
597.200004
 20
958.868696
 11
591.200004
 21
958.868696
  0
LINE
  8
CSLAYER1
  6
CONTINUOUS
 62
     7
 10
597.200004
 20
967.166696
 11
591.269004
 21
967.166696
  0
LINE
  8
CSLAYER1
  6
CONTINUOUS
 62
     7
 10
597.200004
 20
967.817696
 11
591.920004
 21
967.817696
  0
ARC
  8
CSLAYER1
  6
CONTINUOUS
 62
     7
 10
583.600971
 20
960.573540
 40
2.400000
 50
90.000000
 51
173.439596
  0
ARC
  8
CSLAYER1
  6
CONTINUOUS
 62
     7
 10
583.600971
 20
1016.373540
 40
2.400000
 50
186.560404
 51
270.000000
  0
LINE
  8
CSLAYER1
  6
CONTINUOUS
 62
     7
 10
652.400002
 20
1009.173540
 11
652.400002
 21
967.773540
  0
LINE
  8
CSLAYER1
  6
CONTINUOUS
 62
     7
 10
652.400002
 20
967.773540
 11
686.600002
 21
967.773540
  0
LINE
  8
CSLAYER1
  6
CONTINUOUS
 62
     7
 10
652.400002
 20
1009.173540
 11
686.600002
 21
1009.173540
  0
ARC
  8
CSLAYER1
  6
CONTINUOUS
 62
     7
 10
686.600002
 20
988.473540
 40
20.700000
 50
-90.000000
 51
90.000000
  0
LINE
  8
CSLAYER1
  6
CONTINUOUS
 62
     7
 10
679.400002
 20
902.713734
 11
693.800002
 21
902.713734
  0
LINE
  8
CSLAYER1
  6
CONTINUOUS
 62
     7
 10
647.970791
 20
896.113734
 11
725.229250
 21
896.113734
  0
LINE
  8
CSLAYER1
  6
CONTINUOUS
 62
     7
 10
694.145890
 20
896.113686
 11
693.800002
 21
902.713674
  0
LINE
  8
CSLAYER1
  6
CONTINUOUS
 62
     7
 10
707.510050
 20
896.113704
 11
693.894394
 21
900.913704
  0
LINE
  8
CSLAYER1
  6
CONTINUOUS
 62
     7
 10
647.787063
 20
894.013734
 11
725.412940
 21
894.013734
  0
LINE
  8
CSLAYER1
  6
CONTINUOUS
 62
     7
 10
725.229202
 20
896.113722
 11
725.412934
 21
894.013716
  0
LINE
  8
CSLAYER1
  6
CONTINUOUS
 62
     7
 10
713.585782
 20
896.113716
 11
713.769514
 21
894.013716
  0
LINE
  8
CSLAYER1
  6
CONTINUOUS
 62
     7
 10
692.600002
 20
891.613734
 11
701.715754
 21
891.613734
  0
LINE
  8
CSLAYER1
  6
CONTINUOUS
 62
     7
 10
692.000002
 20
890.563734
 11
702.315754
 21
890.563734
  0
LINE
  8
CSLAYER1
  6
CONTINUOUS
 62
     7
 10
691.858060
 20
887.773734
 11
701.115754
 21
887.773734
  0
LINE
  8
CSLAYER1
  6
CONTINUOUS
 62
     7
 10
702.315754
 20
888.973734
 11
702.315754
 21
891.013734
  0
LINE
  8
CSLAYER1
  6
CONTINUOUS
 62
     7
 10
679.054096
 20
896.113788
 11
679.399984
 21
902.713788
  0
LINE
  8
CSLAYER1
  6
CONTINUOUS
 62
     7
 10
665.690050
 20
896.113752
 11
679.305712
 21
900.913752
  0
LINE
  8
CSLAYER1
  6
CONTINUOUS
 62
     7
 10
690.874342
 20
885.703728
 11
702.513580
 21
885.703728
  0
LINE
  8
CSLAYER1
  6
CONTINUOUS
 62
     7
 10
713.445046
 20
891.613734
 11
716.528746
 21
891.613734
  0
LINE
  8
CSLAYER1
  6
CONTINUOUS
 62
     7
 10
713.254192
 20
890.563734
 11
717.128746
 21
890.563734
  0
LINE
  8
CSLAYER1
  6
CONTINUOUS
 62
     7
 10
712.494088
 20
887.773734
 11
715.928746
 21
887.773734
  0
LINE
  8
CSLAYER1
  6
CONTINUOUS
 62
     7
 10
717.128746
 20
888.973734
 11
717.128746
 21
891.013734
  0
LINE
  8
CSLAYER1
  6
CONTINUOUS
 62
     7
 10
711.217426
 20
885.703728
 11
714.157006
 21
885.703728
  0
LINE
  8
CSLAYER1
  6
CONTINUOUS
 62
     7
 10
692.000002
 20
889.003728
 11
692.000002
 21
891.013734
  0
LINE
  8
CSLAYER1
  6
CONTINUOUS
 62
     7
 10
647.970809
 20
896.113740
 11
647.787081
 21
894.013734
  0
LINE
  8
CSLAYER1
  6
CONTINUOUS
 62
     7
 10
659.614234
 20
896.113722
 11
659.430508
 21
894.013740
  0
LINE
  8
CSLAYER1
  6
CONTINUOUS
 62
     7
 10
680.600002
 20
891.613734
 11
671.484250
 21
891.613734
  0
LINE
  8
CSLAYER1
  6
CONTINUOUS
 62
     7
 10
681.200002
 20
890.563734
 11
670.884250
 21
890.563734
  0
LINE
  8
CSLAYER1
  6
CONTINUOUS
 62
     7
 10
681.341944
 20
887.773734
 11
672.084250
 21
887.773734
  0
LINE
  8
CSLAYER1
  6
CONTINUOUS
 62
     7
 10
670.884250
 20
888.973734
 11
670.884250
 21
891.013734
  0
LINE
  8
CSLAYER1
  6
CONTINUOUS
 62
     7
 10
682.325662
 20
885.703728
 11
670.686424
 21
885.703728
  0
LINE
  8
CSLAYER1
  6
CONTINUOUS
 62
     7
 10
659.754958
 20
891.613734
 11
656.671258
 21
891.613734
  0
LINE
  8
CSLAYER1
  6
CONTINUOUS
 62
     7
 10
659.945812
 20
890.563734
 11
656.071258
 21
890.563734
  0
LINE
  8
CSLAYER1
  6
CONTINUOUS
 62
     7
 10
660.705916
 20
887.773734
 11
657.271258
 21
887.773734
  0
LINE
  8
CSLAYER1
  6
CONTINUOUS
 62
     7
 10
656.071258
 20
888.973734
 11
656.071258
 21
891.013734
  0
LINE
  8
CSLAYER1
  6
CONTINUOUS
 62
     7
 10
661.982578
 20
885.703728
 11
659.042998
 21
885.703728
  0
LINE
  8
CSLAYER1
  6
CONTINUOUS
 62
     7
 10
681.200002
 20
889.003728
 11
681.200002
 21
891.013734
  0
LINE
  8
CSLAYER1
  6
CONTINUOUS
 62
     7
 10
675.200002
 20
911.073540
 11
698.000002
 21
911.073540
  0
LINE
  8
CSLAYER1
  6
CONTINUOUS
 62
     7
 10
675.200002
 20
924.573540
 11
698.000002
 21
924.573540
  0
LINE
  8
CSLAYER1
  6
CONTINUOUS
 62
     7
 10
691.100002
 20
902.713734
 11
691.100002
 21
911.073540
  0
LINE
  8
CSLAYER1
  6
CONTINUOUS
 62
     7
 10
682.100002
 20
902.713734
 11
682.100002
 21
911.073540
  0
LINE
  8
CSLAYER1
  6
CONTINUOUS
 62
     7
 10
698.000002
 20
911.073540
 11
698.000002
 21
924.573540
  0
LINE
  8
CSLAYER1
  6
CONTINUOUS
 62
     7
 10
675.200002
 20
911.073540
 11
675.200002
 21
924.573540
  0
LINE
  8
CSLAYER1
  6
CONTINUOUS
 62
     7
 10
686.600002
 20
911.073540
 11
686.600002
 21
924.573540
  0
LINE
  8
CSLAYER1
  6
CENTER
 62
     7
 10
686.600002
 20
880.603728
 11
686.600002
 21
1017.273540
  0
LINE
  8
CSLAYER1
  6
CONTINUOUS
 62
     7
 10
665.900002
 20
957.873540
 11
707.300002
 21
957.873540
  0
LINE
  8
CSLAYER1
  6
CONTINUOUS
 62
     7
 10
665.900002
 20
960.573540
 11
707.300002
 21
960.573540
  0
LINE
  8
CSLAYER1
  6
CONTINUOUS
 62
     7
 10
707.300002
 20
955.593025
 11
707.300002
 21
960.573540
  0
LINE
  8
CSLAYER1
  6
CONTINUOUS
 62
     7
 10
706.700002
 20
960.573540
 11
706.700002
 21
961.898555
  0
LINE
  8
CSLAYER1
  6
CONTINUOUS
 62
     7
 10
666.500002
 20
960.573540
 11
666.500002
 21
961.898555
  0
LINE
  8
CSLAYER1
  6
CONTINUOUS
 62
     7
 10
700.400002
 20
954.297568
 11
707.300002
 21
955.593023
  0
LINE
  8
CSLAYER1
  6
CONTINUOUS
 62
     7
 10
665.900002
 20
955.592989
 11
665.900002
 21
960.573540
  0
LINE
  8
CSLAYER1
  6
CONTINUOUS
 62
     7
 10
672.800002
 20
954.297536
 11
665.900002
 21
955.592991
  0
LINE
  8
CSLAYER1
  6
CONTINUOUS
 62
     7
 10
708.800002
 20
975.656368
 11
708.800002
 21
1001.290712
  0
LINE
  8
CSLAYER1
  6
CONTINUOUS
 62
     7
 10
678.053451
 20
1009.173540
 11
686.600002
 21
1014.107894
  0
LINE
  8
CSLAYER1
  6
CONTINUOUS
 62
     7
 10
686.600014
 20
962.839193
 11
708.800002
 21
975.656365
  0
LINE
  8
CSLAYER1
  6
CONTINUOUS
 62
     7
 10
686.600014
 20
1014.107887
 11
708.800002
 21
1001.290715
  0
LINE
  8
CSLAYER1
  6
CONTINUOUS
 62
     7
 10
678.053451
 20
967.773540
 11
686.600002
 21
962.839186
  0
LINE
  8
CSLAYER1
  6
CONTINUOUS
 62
     7
 10
700.400002
 20
947.395742
 11
700.400002
 21
954.297554
  0
LINE
  8
CSLAYER1
  6
CONTINUOUS
 62
     7
 10
672.800002
 20
947.395742
 11
672.800002
 21
954.297545
  0
LINE
  8
CSLAYER1
  6
CONTINUOUS
 62
     7
 10
672.800002
 20
947.395742
 11
700.400002
 21
947.395742
  0
LINE
  8
CSLAYER1
  6
CONTINUOUS
 62
     7
 10
672.800002
 20
954.297545
 11
700.400002
 21
954.297554
  0
LINE
  8
CSLAYER1
  6
CONTINUOUS
 62
     7
 10
686.600002
 20
947.395742
 11
686.600002
 21
954.297554
  0
LINE
  8
CSLAYER1
  6
CONTINUOUS
 62
     7
 10
665.900002
 20
955.592991
 11
707.300002
 21
955.593028
  0
LINE
  8
CSLAYER1
  6
CONTINUOUS
 62
     7
 10
695.900002
 20
927.573540
 11
695.900002
 21
941.586263
  0
LINE
  8
CSLAYER1
  6
CONTINUOUS
 62
     7
 10
677.300002
 20
927.573540
 11
677.300002
 21
941.586263
  0
LINE
  8
CSLAYER1
  6
CONTINUOUS
 62
     7
 10
677.000002
 20
927.573540
 11
696.200002
 21
927.573540
  0
LINE
  8
CSLAYER1
  6
CONTINUOUS
 62
     7
 10
696.200002
 20
924.573540
 11
696.200002
 21
927.573540
  0
LINE
  8
CSLAYER1
  6
CONTINUOUS
 62
     7
 10
677.000002
 20
924.573540
 11
677.000002
 21
927.573540
  0
LINE
  8
CSLAYER1
  6
CONTINUOUS
 62
     7
 10
695.900002
 20
924.573540
 11
695.900002
 21
927.573540
  0
LINE
  8
CSLAYER1
  6
CONTINUOUS
 62
     7
 10
677.300002
 20
924.573540
 11
677.300002
 21
927.573540
  0
ARC
  8
CSLAYER1
  6
CONTINUOUS
 62
     7
 10
687.215812
 20
897.955746
 40
38.400000
 50
346.741927
 51
354.107831
  0
ARC
  8
CSLAYER1
  6
CONTINUOUS
 62
     7
 10
716.476522
 20
891.069906
 40
8.340000
 50
316.103283
 51
346.685099
  0
ARC
  8
CSLAYER1
  6
CONTINUOUS
 62
     7
 10
718.504420
 20
889.153728
 40
5.550000
 50
218.434660
 51
315.849702
  0
ARC
  8
CSLAYER1
  6
CONTINUOUS
 62
     7
 10
675.572386
 20
897.955746
 40
38.400000
 50
346.741927
 51
354.107831
  0
ARC
  8
CSLAYER1
  6
CONTINUOUS
 62
     7
 10
704.833096
 20
891.069906
 40
8.340000
 50
316.103283
 51
346.685099
  0
ARC
  8
CSLAYER1
  6
CONTINUOUS
 62
     7
 10
706.860988
 20
889.153728
 40
5.550000
 50
218.434660
 51
315.849702
  0
ARC
  8
CSLAYER1
  6
CONTINUOUS
 62
     7
 10
701.115754
 20
888.973734
 40
1.200000
 50
270.000018
 51
360.000000
  0
ARC
  8
CSLAYER1
  6
CONTINUOUS
 62
     7
 10
701.715754
 20
891.013734
 40
0.600000
 50
0.000000
 51
89.999980
  0
ARC
  8
CSLAYER1
  6
CONTINUOUS
 62
     7
 10
715.928746
 20
888.973734
 40
1.200000
 50
270.000018
 51
360.000000
  0
ARC
  8
CSLAYER1
  6
CONTINUOUS
 62
     7
 10
716.528746
 20
891.013734
 40
0.600000
 50
0.000000
 51
89.999980
  0
ARC
  8
CSLAYER1
  6
CONTINUOUS
 62
     7
 10
686.600002
 20
889.003728
 40
5.400000
 50
179.999980
 51
360.000000
  0
ARC
  8
CSLAYER1
  6
CONTINUOUS
 62
     7
 10
692.600002
 20
891.013734
 40
0.600000
 50
90.000000
 51
179.999980
  0
ARC
  8
CSLAYER1
  6
CONTINUOUS
 62
     7
 10
685.984192
 20
897.955746
 40
38.400000
 50
185.892190
 51
193.258090
  0
ARC
  8
CSLAYER1
  6
CONTINUOUS
 62
     7
 10
656.723482
 20
891.069906
 40
8.340000
 50
193.314920
 51
223.896730
  0
ARC
  8
CSLAYER1
  6
CONTINUOUS
 62
     7
 10
654.695584
 20
889.153728
 40
5.550000
 50
224.150320
 51
321.565341
  0
ARC
  8
CSLAYER1
  6
CONTINUOUS
 62
     7
 10
697.627618
 20
897.955746
 40
38.400000
 50
185.892190
 51
193.258090
  0
ARC
  8
CSLAYER1
  6
CONTINUOUS
 62
     7
 10
668.366908
 20
891.069906
 40
8.340000
 50
193.314920
 51
223.896730
  0
ARC
  8
CSLAYER1
  6
CONTINUOUS
 62
     7
 10
666.339016
 20
889.153728
 40
5.550000
 50
224.150320
 51
321.565341
  0
ARC
  8
CSLAYER1
  6
CONTINUOUS
 62
     7
 10
672.084250
 20
888.973734
 40
1.200000
 50
179.999980
 51
269.999963
  0
ARC
  8
CSLAYER1
  6
CONTINUOUS
 62
     7
 10
671.484250
 20
891.013734
 40
0.600000
 50
90.000000
 51
179.999980
  0
ARC
  8
CSLAYER1
  6
CONTINUOUS
 62
     7
 10
657.271258
 20
888.973734
 40
1.200000
 50
179.999980
 51
269.999963
  0
ARC
  8
CSLAYER1
  6
CONTINUOUS
 62
     7
 10
656.671258
 20
891.013734
 40
0.600000
 50
90.000000
 51
179.999980
  0
ARC
  8
CSLAYER1
  6
CONTINUOUS
 62
     7
 10
680.600002
 20
891.013734
 40
0.600000
 50
0.000020
 51
89.999980
  0
ARC
  8
CSLAYER1
  6
CONTINUOUS
 62
     7
 10
701.900002
 20
941.586263
 40
6.000000
 50
104.477490
 51
180.000040
  0
ARC
  8
CSLAYER1
  6
CONTINUOUS
 62
     7
 10
686.600002
 20
988.473540
 40
25.800000
 50
-24.211583
 51
126.647244
  0
ARC
  8
CSLAYER1
  6
CONTINUOUS
 62
     7
 10
745.700002
 20
961.898555
 40
39.000000
 50
155.788370
 51
180.000020
  0
ARC
  8
CSLAYER1
  6
CONTINUOUS
 62
     7
 10
627.500002
 20
961.898555
 40
39.000000
 50
0.000010
 51
8.664054
  0
ARC
  8
CSLAYER1
  6
CONTINUOUS
 62
     7
 10
671.300002
 20
941.586263
 40
6.000000
 50
-0.000036
 51
75.522490
  0
LINE
  8
CSLAYER1
  6
CENTER
 62
     2
 10
307.128455
 20
438.600000
 11
307.128455
 21
525.600000
  0
LINE
  8
CSLAYER1
  6
CONTINUOUS
 62
     7
 10
296.328455
 20
519.600000
 11
294.648455
 21
518.630051
  0
LINE
  8
CSLAYER1
  6
CONTINUOUS
 62
     7
 10
294.648455
 20
518.630051
 11
294.648455
 21
510.600000
  0
LINE
  8
CSLAYER1
  6
CONTINUOUS
 62
     7
 10
317.928455
 20
519.600000
 11
319.608455
 21
518.630051
  0
LINE
  8
CSLAYER1
  6
CONTINUOUS
 62
     7
 10
319.608455
 20
518.630051
 11
319.608455
 21
510.600000
  0
LINE
  8
CSLAYER1
  6
CONTINUOUS
 62
     7
 10
296.328455
 20
519.600000
 11
317.928455
 21
519.600000
  0
LINE
  8
CSLAYER1
  6
CONTINUOUS
 62
     7
 10
294.648455
 20
510.600000
 11
319.608455
 21
510.600000
  0
ARC
  8
CSLAYER1
  6
CONTINUOUS
 62
     7
 10
297.288455
 20
515.522257
 40
4.077742
 50
49.652860
 51
130.347140
  0
ARC
  8
CSLAYER1
  6
CONTINUOUS
 62
     7
 10
307.128455
 20
492.391956
 40
27.208044
 50
74.655173
 51
105.344827
  0
ARC
  8
CSLAYER1
  6
CONTINUOUS
 62
     7
 10
316.968455
 20
515.522257
 40
4.077742
 50
49.652860
 51
130.347140
  0
LINE
  8
CSLAYER1
  6
CONTINUOUS
 62
     7
 10
299.928455
 20
518.630051
 11
299.928455
 21
510.600000
  0
LINE
  8
CSLAYER1
  6
CONTINUOUS
 62
     7
 10
314.328455
 20
518.630051
 11
314.328455
 21
510.600000
  0
LINE
  8
CSLAYER1
  6
CONTINUOUS
 62
     7
 10
314.328455
 20
461.400000
 11
314.328455
 21
450.969948
  0
LINE
  8
CSLAYER1
  6
CONTINUOUS
 62
     7
 10
319.608455
 20
461.400000
 11
319.608455
 21
450.969948
  0
ARC
  8
CSLAYER1
  6
CONTINUOUS
 62
     7
 10
316.968455
 20
454.077742
 40
4.077742
 50
229.652860
 51
310.347140
  0
LINE
  8
CSLAYER1
  6
CONTINUOUS
 62
     7
 10
317.928455
 20
450.000000
 11
319.608455
 21
450.969948
  0
LINE
  8
CSLAYER1
  6
CONTINUOUS
 62
     7
 10
296.328455
 20
450.000000
 11
317.928455
 21
450.000000
  0
ARC
  8
CSLAYER1
  6
CONTINUOUS
 62
     7
 10
297.288455
 20
454.077742
 40
4.077742
 50
229.652860
 51
310.347140
  0
ARC
  8
CSLAYER1
  6
CONTINUOUS
 62
     7
 10
307.128455
 20
477.208044
 40
27.208044
 50
254.655173
 51
285.344827
  0
LINE
  8
CSLAYER1
  6
CONTINUOUS
 62
     7
 10
299.928455
 20
461.400000
 11
299.928455
 21
450.969948
  0
LINE
  8
CSLAYER1
  6
CONTINUOUS
 62
     7
 10
294.648455
 20
461.400000
 11
294.648455
 21
450.969948
  0
LINE
  8
CSLAYER1
  6
CONTINUOUS
 62
     7
 10
296.328455
 20
450.000000
 11
294.648455
 21
450.969948
  0
LINE
  8
CSLAYER1
  6
CONTINUOUS
 62
     7
 10
299.928455
 20
450.000000
 11
299.928455
 21
445.800000
  0
LINE
  8
CSLAYER1
  6
CONTINUOUS
 62
     7
 10
299.928455
 20
445.800000
 11
301.128455
 21
444.600000
  0
LINE
  8
CSLAYER1
  6
CONTINUOUS
 62
     7
 10
300.828455
 20
450.000000
 11
300.828455
 21
444.900000
  0
LINE
  8
CSLAYER1
  6
CONTINUOUS
 62
     7
 10
299.928455
 20
445.800000
 11
314.328455
 21
445.800000
  0
LINE
  8
CSLAYER1
  6
CONTINUOUS
 62
     7
 10
301.128455
 20
444.600000
 11
313.128455
 21
444.600000
  0
LINE
  8
CSLAYER1
  6
CONTINUOUS
 62
     7
 10
313.128455
 20
444.600000
 11
314.328455
 21
445.800000
  0
LINE
  8
CSLAYER1
  6
CONTINUOUS
 62
     7
 10
314.328455
 20
445.800000
 11
314.328455
 21
450.000000
  0
LINE
  8
CSLAYER1
  6
CONTINUOUS
 62
     7
 10
313.428455
 20
444.900000
 11
313.428455
 21
450.000000
  0
LINE
  8
CSLAYER1
  6
CENTER
 62
     2
 10
241.693651
 20
438.600000
 11
241.693651
 21
525.600000
  0
LINE
  8
CSLAYER1
  6
CONTINUOUS
 62
     7
 10
230.893651
 20
519.600000
 11
229.213651
 21
518.630051
  0
LINE
  8
CSLAYER1
  6
CONTINUOUS
 62
     7
 10
229.213651
 20
518.630051
 11
229.213651
 21
510.600000
  0
LINE
  8
CSLAYER1
  6
CONTINUOUS
 62
     7
 10
252.493651
 20
519.600000
 11
254.173651
 21
518.630051
  0
LINE
  8
CSLAYER1
  6
CONTINUOUS
 62
     7
 10
254.173651
 20
518.630051
 11
254.173651
 21
510.600000
  0
LINE
  8
CSLAYER1
  6
CONTINUOUS
 62
     7
 10
230.893651
 20
519.600000
 11
252.493651
 21
519.600000
  0
LINE
  8
CSLAYER1
  6
CONTINUOUS
 62
     7
 10
229.213651
 20
510.600000
 11
254.173651
 21
510.600000
  0
ARC
  8
CSLAYER1
  6
CONTINUOUS
 62
     7
 10
231.853651
 20
515.522257
 40
4.077742
 50
49.652860
 51
130.347140
  0
ARC
  8
CSLAYER1
  6
CONTINUOUS
 62
     7
 10
241.693651
 20
492.391956
 40
27.208044
 50
74.655173
 51
105.344827
  0
ARC
  8
CSLAYER1
  6
CONTINUOUS
 62
     7
 10
251.533651
 20
515.522257
 40
4.077742
 50
49.652860
 51
130.347140
  0
LINE
  8
CSLAYER1
  6
CONTINUOUS
 62
     7
 10
234.493651
 20
518.630051
 11
234.493651
 21
510.600000
  0
LINE
  8
CSLAYER1
  6
CONTINUOUS
 62
     7
 10
248.893651
 20
518.630051
 11
248.893651
 21
510.600000
  0
LINE
  8
CSLAYER1
  6
CONTINUOUS
 62
     7
 10
248.893651
 20
461.400000
 11
248.893651
 21
450.969948
  0
LINE
  8
CSLAYER1
  6
CONTINUOUS
 62
     7
 10
254.173651
 20
461.400000
 11
254.173651
 21
450.969948
  0
ARC
  8
CSLAYER1
  6
CONTINUOUS
 62
     7
 10
251.533651
 20
454.077742
 40
4.077742
 50
229.652860
 51
310.347140
  0
LINE
  8
CSLAYER1
  6
CONTINUOUS
 62
     7
 10
252.493651
 20
450.000000
 11
254.173651
 21
450.969948
  0
LINE
  8
CSLAYER1
  6
CONTINUOUS
 62
     7
 10
230.893651
 20
450.000000
 11
252.493651
 21
450.000000
  0
ARC
  8
CSLAYER1
  6
CONTINUOUS
 62
     7
 10
231.853651
 20
454.077742
 40
4.077742
 50
229.652860
 51
310.347140
  0
ARC
  8
CSLAYER1
  6
CONTINUOUS
 62
     7
 10
241.693651
 20
477.208044
 40
27.208044
 50
254.655173
 51
285.344827
  0
LINE
  8
CSLAYER1
  6
CONTINUOUS
 62
     7
 10
234.493651
 20
461.400000
 11
234.493651
 21
450.969948
  0
LINE
  8
CSLAYER1
  6
CONTINUOUS
 62
     7
 10
229.213651
 20
461.400000
 11
229.213651
 21
450.969948
  0
LINE
  8
CSLAYER1
  6
CONTINUOUS
 62
     7
 10
230.893651
 20
450.000000
 11
229.213651
 21
450.969948
  0
LINE
  8
CSLAYER1
  6
CONTINUOUS
 62
     7
 10
234.493651
 20
450.000000
 11
234.493651
 21
445.800000
  0
LINE
  8
CSLAYER1
  6
CONTINUOUS
 62
     7
 10
234.493651
 20
445.800000
 11
235.693651
 21
444.600000
  0
LINE
  8
CSLAYER1
  6
CONTINUOUS
 62
     7
 10
235.393651
 20
450.000000
 11
235.393651
 21
444.900000
  0
LINE
  8
CSLAYER1
  6
CONTINUOUS
 62
     7
 10
234.493651
 20
445.800000
 11
248.893651
 21
445.800000
  0
LINE
  8
CSLAYER1
  6
CONTINUOUS
 62
     7
 10
235.693651
 20
444.600000
 11
247.693651
 21
444.600000
  0
LINE
  8
CSLAYER1
  6
CONTINUOUS
 62
     7
 10
247.693651
 20
444.600000
 11
248.893651
 21
445.800000
  0
LINE
  8
CSLAYER1
  6
CONTINUOUS
 62
     7
 10
248.893651
 20
445.800000
 11
248.893651
 21
450.000000
  0
LINE
  8
CSLAYER1
  6
CONTINUOUS
 62
     7
 10
247.993651
 20
444.900000
 11
247.993651
 21
450.000000
  0
LINE
  8
CSLAYER1
  6
CENTER
 62
     2
 10
183.026411
 20
438.600000
 11
183.026411
 21
525.600000
  0
LINE
  8
CSLAYER1
  6
CONTINUOUS
 62
     7
 10
172.226411
 20
519.600000
 11
170.546411
 21
518.630051
  0
LINE
  8
CSLAYER1
  6
CONTINUOUS
 62
     7
 10
170.546411
 20
518.630051
 11
170.546411
 21
510.600000
  0
LINE
  8
CSLAYER1
  6
CONTINUOUS
 62
     7
 10
193.826411
 20
519.600000
 11
195.506411
 21
518.630051
  0
LINE
  8
CSLAYER1
  6
CONTINUOUS
 62
     7
 10
195.506411
 20
518.630051
 11
195.506411
 21
510.600000
  0
LINE
  8
CSLAYER1
  6
CONTINUOUS
 62
     7
 10
172.226411
 20
519.600000
 11
193.826411
 21
519.600000
  0
LINE
  8
CSLAYER1
  6
CONTINUOUS
 62
     7
 10
170.546411
 20
510.600000
 11
195.506411
 21
510.600000
  0
ARC
  8
CSLAYER1
  6
CONTINUOUS
 62
     7
 10
173.186411
 20
515.522257
 40
4.077742
 50
49.652860
 51
130.347140
  0
ARC
  8
CSLAYER1
  6
CONTINUOUS
 62
     7
 10
183.026411
 20
492.391956
 40
27.208044
 50
74.655173
 51
105.344827
  0
ARC
  8
CSLAYER1
  6
CONTINUOUS
 62
     7
 10
192.866411
 20
515.522257
 40
4.077742
 50
49.652860
 51
130.347140
  0
LINE
  8
CSLAYER1
  6
CONTINUOUS
 62
     7
 10
175.826411
 20
518.630051
 11
175.826411
 21
510.600000
  0
LINE
  8
CSLAYER1
  6
CONTINUOUS
 62
     7
 10
190.226411
 20
518.630051
 11
190.226411
 21
510.600000
  0
LINE
  8
CSLAYER1
  6
CONTINUOUS
 62
     7
 10
190.226411
 20
461.400000
 11
190.226411
 21
450.969948
  0
LINE
  8
CSLAYER1
  6
CONTINUOUS
 62
     7
 10
195.506411
 20
461.400000
 11
195.506411
 21
450.969948
  0
ARC
  8
CSLAYER1
  6
CONTINUOUS
 62
     7
 10
192.866411
 20
454.077742
 40
4.077742
 50
229.652860
 51
310.347140
  0
LINE
  8
CSLAYER1
  6
CONTINUOUS
 62
     7
 10
193.826411
 20
450.000000
 11
195.506411
 21
450.969948
  0
LINE
  8
CSLAYER1
  6
CONTINUOUS
 62
     7
 10
172.226411
 20
450.000000
 11
193.826411
 21
450.000000
  0
ARC
  8
CSLAYER1
  6
CONTINUOUS
 62
     7
 10
173.186411
 20
454.077742
 40
4.077742
 50
229.652860
 51
310.347140
  0
ARC
  8
CSLAYER1
  6
CONTINUOUS
 62
     7
 10
183.026411
 20
477.208044
 40
27.208044
 50
254.655173
 51
285.344827
  0
LINE
  8
CSLAYER1
  6
CONTINUOUS
 62
     7
 10
175.826411
 20
461.400000
 11
175.826411
 21
450.969948
  0
LINE
  8
CSLAYER1
  6
CONTINUOUS
 62
     7
 10
170.546411
 20
461.400000
 11
170.546411
 21
450.969948
  0
LINE
  8
CSLAYER1
  6
CONTINUOUS
 62
     7
 10
172.226411
 20
450.000000
 11
170.546411
 21
450.969948
  0
LINE
  8
CSLAYER1
  6
CONTINUOUS
 62
     7
 10
175.826411
 20
450.000000
 11
175.826411
 21
445.800000
  0
LINE
  8
CSLAYER1
  6
CONTINUOUS
 62
     7
 10
175.826411
 20
445.800000
 11
177.026411
 21
444.600000
  0
LINE
  8
CSLAYER1
  6
CONTINUOUS
 62
     7
 10
176.726411
 20
450.000000
 11
176.726411
 21
444.900000
  0
LINE
  8
CSLAYER1
  6
CONTINUOUS
 62
     7
 10
175.826411
 20
445.800000
 11
190.226411
 21
445.800000
  0
LINE
  8
CSLAYER1
  6
CONTINUOUS
 62
     7
 10
177.026411
 20
444.600000
 11
189.026411
 21
444.600000
  0
LINE
  8
CSLAYER1
  6
CONTINUOUS
 62
     7
 10
189.026411
 20
444.600000
 11
190.226411
 21
445.800000
  0
LINE
  8
CSLAYER1
  6
CONTINUOUS
 62
     7
 10
190.226411
 20
445.800000
 11
190.226411
 21
450.000000
  0
LINE
  8
CSLAYER1
  6
CONTINUOUS
 62
     7
 10
189.326411
 20
444.900000
 11
189.326411
 21
450.000000
  0
LINE
  8
CSLAYER1
  6
CENTER
 62
     2
 10
135.124810
 20
438.600000
 11
135.124810
 21
525.600000
  0
LINE
  8
CSLAYER1
  6
CONTINUOUS
 62
     7
 10
124.324810
 20
519.600000
 11
122.644810
 21
518.630051
  0
LINE
  8
CSLAYER1
  6
CONTINUOUS
 62
     7
 10
122.644810
 20
518.630051
 11
122.644810
 21
510.600000
  0
LINE
  8
CSLAYER1
  6
CONTINUOUS
 62
     7
 10
145.924810
 20
519.600000
 11
147.604810
 21
518.630051
  0
LINE
  8
CSLAYER1
  6
CONTINUOUS
 62
     7
 10
147.604810
 20
518.630051
 11
147.604810
 21
510.600000
  0
LINE
  8
CSLAYER1
  6
CONTINUOUS
 62
     7
 10
124.324810
 20
519.600000
 11
145.924810
 21
519.600000
  0
LINE
  8
CSLAYER1
  6
CONTINUOUS
 62
     7
 10
122.644810
 20
510.600000
 11
147.604810
 21
510.600000
  0
ARC
  8
CSLAYER1
  6
CONTINUOUS
 62
     7
 10
125.284810
 20
515.522257
 40
4.077742
 50
49.652860
 51
130.347140
  0
ARC
  8
CSLAYER1
  6
CONTINUOUS
 62
     7
 10
135.124810
 20
492.391956
 40
27.208044
 50
74.655173
 51
105.344827
  0
ARC
  8
CSLAYER1
  6
CONTINUOUS
 62
     7
 10
144.964810
 20
515.522257
 40
4.077742
 50
49.652860
 51
130.347140
  0
LINE
  8
CSLAYER1
  6
CONTINUOUS
 62
     7
 10
127.924810
 20
518.630051
 11
127.924810
 21
510.600000
  0
LINE
  8
CSLAYER1
  6
CONTINUOUS
 62
     7
 10
142.324810
 20
518.630051
 11
142.324810
 21
510.600000
  0
LINE
  8
CSLAYER1
  6
CONTINUOUS
 62
     7
 10
142.324810
 20
461.400000
 11
142.324810
 21
450.969948
  0
LINE
  8
CSLAYER1
  6
CONTINUOUS
 62
     7
 10
147.604810
 20
461.400000
 11
147.604810
 21
450.969948
  0
ARC
  8
CSLAYER1
  6
CONTINUOUS
 62
     7
 10
144.964810
 20
454.077742
 40
4.077742
 50
229.652860
 51
310.347140
  0
LINE
  8
CSLAYER1
  6
CONTINUOUS
 62
     7
 10
145.924810
 20
450.000000
 11
147.604810
 21
450.969948
  0
LINE
  8
CSLAYER1
  6
CONTINUOUS
 62
     7
 10
124.324810
 20
450.000000
 11
145.924810
 21
450.000000
  0
ARC
  8
CSLAYER1
  6
CONTINUOUS
 62
     7
 10
125.284810
 20
454.077742
 40
4.077742
 50
229.652860
 51
310.347140
  0
ARC
  8
CSLAYER1
  6
CONTINUOUS
 62
     7
 10
135.124810
 20
477.208044
 40
27.208044
 50
254.655173
 51
285.344827
  0
LINE
  8
CSLAYER1
  6
CONTINUOUS
 62
     7
 10
127.924810
 20
461.400000
 11
127.924810
 21
450.969948
  0
LINE
  8
CSLAYER1
  6
CONTINUOUS
 62
     7
 10
122.644810
 20
461.400000
 11
122.644810
 21
450.969948
  0
LINE
  8
CSLAYER1
  6
CONTINUOUS
 62
     7
 10
124.324810
 20
450.000000
 11
122.644810
 21
450.969948
  0
LINE
  8
CSLAYER1
  6
CONTINUOUS
 62
     7
 10
127.924810
 20
450.000000
 11
127.924810
 21
445.800000
  0
LINE
  8
CSLAYER1
  6
CONTINUOUS
 62
     7
 10
127.924810
 20
445.800000
 11
129.124810
 21
444.600000
  0
LINE
  8
CSLAYER1
  6
CONTINUOUS
 62
     7
 10
128.824810
 20
450.000000
 11
128.824810
 21
444.900000
  0
LINE
  8
CSLAYER1
  6
CONTINUOUS
 62
     7
 10
127.924810
 20
445.800000
 11
142.324810
 21
445.800000
  0
LINE
  8
CSLAYER1
  6
CONTINUOUS
 62
     7
 10
129.124810
 20
444.600000
 11
141.124810
 21
444.600000
  0
LINE
  8
CSLAYER1
  6
CONTINUOUS
 62
     7
 10
141.124810
 20
444.600000
 11
142.324810
 21
445.800000
  0
LINE
  8
CSLAYER1
  6
CONTINUOUS
 62
     7
 10
142.324810
 20
445.800000
 11
142.324810
 21
450.000000
  0
LINE
  8
CSLAYER1
  6
CONTINUOUS
 62
     7
 10
141.424810
 20
444.900000
 11
141.424810
 21
450.000000
  0
LINE
  8
CSLAYER1
  6
CENTER
 62
     2
 10
101.253263
 20
438.600000
 11
101.253263
 21
525.600000
  0
LINE
  8
CSLAYER1
  6
CONTINUOUS
 62
     7
 10
90.453263
 20
519.600000
 11
88.773263
 21
518.630051
  0
LINE
  8
CSLAYER1
  6
CONTINUOUS
 62
     7
 10
88.773263
 20
518.630051
 11
88.773263
 21
510.600000
  0
LINE
  8
CSLAYER1
  6
CONTINUOUS
 62
     7
 10
112.053263
 20
519.600000
 11
113.733263
 21
518.630051
  0
LINE
  8
CSLAYER1
  6
CONTINUOUS
 62
     7
 10
113.733263
 20
518.630051
 11
113.733263
 21
510.600000
  0
LINE
  8
CSLAYER1
  6
CONTINUOUS
 62
     7
 10
90.453263
 20
519.600000
 11
112.053263
 21
519.600000
  0
LINE
  8
CSLAYER1
  6
CONTINUOUS
 62
     7
 10
88.773263
 20
510.600000
 11
113.733263
 21
510.600000
  0
ARC
  8
CSLAYER1
  6
CONTINUOUS
 62
     7
 10
91.413263
 20
515.522257
 40
4.077742
 50
49.652860
 51
130.347140
  0
ARC
  8
CSLAYER1
  6
CONTINUOUS
 62
     7
 10
101.253263
 20
492.391956
 40
27.208044
 50
74.655173
 51
105.344827
  0
ARC
  8
CSLAYER1
  6
CONTINUOUS
 62
     7
 10
111.093263
 20
515.522257
 40
4.077742
 50
49.652860
 51
130.347140
  0
LINE
  8
CSLAYER1
  6
CONTINUOUS
 62
     7
 10
94.053263
 20
518.630051
 11
94.053263
 21
510.600000
  0
LINE
  8
CSLAYER1
  6
CONTINUOUS
 62
     7
 10
108.453263
 20
518.630051
 11
108.453263
 21
510.600000
  0
LINE
  8
CSLAYER1
  6
CONTINUOUS
 62
     7
 10
108.453263
 20
461.400000
 11
108.453263
 21
450.969948
  0
LINE
  8
CSLAYER1
  6
CONTINUOUS
 62
     7
 10
113.733263
 20
461.400000
 11
113.733263
 21
450.969948
  0
ARC
  8
CSLAYER1
  6
CONTINUOUS
 62
     7
 10
111.093263
 20
454.077742
 40
4.077742
 50
229.652860
 51
310.347140
  0
LINE
  8
CSLAYER1
  6
CONTINUOUS
 62
     7
 10
112.053263
 20
450.000000
 11
113.733263
 21
450.969948
  0
LINE
  8
CSLAYER1
  6
CONTINUOUS
 62
     7
 10
90.453263
 20
450.000000
 11
112.053263
 21
450.000000
  0
ARC
  8
CSLAYER1
  6
CONTINUOUS
 62
     7
 10
91.413263
 20
454.077742
 40
4.077742
 50
229.652860
 51
310.347140
  0
ARC
  8
CSLAYER1
  6
CONTINUOUS
 62
     7
 10
101.253263
 20
477.208044
 40
27.208044
 50
254.655173
 51
285.344827
  0
LINE
  8
CSLAYER1
  6
CONTINUOUS
 62
     7
 10
94.053263
 20
461.400000
 11
94.053263
 21
450.969948
  0
LINE
  8
CSLAYER1
  6
CONTINUOUS
 62
     7
 10
88.773263
 20
461.400000
 11
88.773263
 21
450.969948
  0
LINE
  8
CSLAYER1
  6
CONTINUOUS
 62
     7
 10
90.453263
 20
450.000000
 11
88.773263
 21
450.969948
  0
LINE
  8
CSLAYER1
  6
CONTINUOUS
 62
     7
 10
94.053263
 20
450.000000
 11
94.053263
 21
445.800000
  0
LINE
  8
CSLAYER1
  6
CONTINUOUS
 62
     7
 10
94.053263
 20
445.800000
 11
95.253263
 21
444.600000
  0
LINE
  8
CSLAYER1
  6
CONTINUOUS
 62
     7
 10
94.953263
 20
450.000000
 11
94.953263
 21
444.900000
  0
LINE
  8
CSLAYER1
  6
CONTINUOUS
 62
     7
 10
94.053263
 20
445.800000
 11
108.453263
 21
445.800000
  0
LINE
  8
CSLAYER1
  6
CONTINUOUS
 62
     7
 10
95.253263
 20
444.600000
 11
107.253263
 21
444.600000
  0
LINE
  8
CSLAYER1
  6
CONTINUOUS
 62
     7
 10
107.253263
 20
444.600000
 11
108.453263
 21
445.800000
  0
LINE
  8
CSLAYER1
  6
CONTINUOUS
 62
     7
 10
108.453263
 20
445.800000
 11
108.453263
 21
450.000000
  0
LINE
  8
CSLAYER1
  6
CONTINUOUS
 62
     7
 10
107.553263
 20
444.900000
 11
107.553263
 21
450.000000
  0
LINE
  8
CSLAYER1
  6
CENTER
 62
     2
 10
83.720060
 20
438.600000
 11
83.720060
 21
525.600000
  0
LINE
  8
CSLAYER1
  6
CONTINUOUS
 62
     7
 10
72.920060
 20
519.600000
 11
71.240060
 21
518.630051
  0
LINE
  8
CSLAYER1
  6
CONTINUOUS
 62
     7
 10
71.240060
 20
518.630051
 11
71.240060
 21
510.600000
  0
LINE
  8
CSLAYER1
  6
CONTINUOUS
 62
     7
 10
72.920060
 20
519.600000
 11
94.520060
 21
519.600000
  0
LINE
  8
CSLAYER1
  6
CONTINUOUS
 62
     7
 10
71.240060
 20
510.600000
 11
96.200060
 21
510.600000
  0
ARC
  8
CSLAYER1
  6
CONTINUOUS
 62
     7
 10
73.880060
 20
515.522257
 40
4.077742
 50
49.652860
 51
130.347140
  0
ARC
  8
CSLAYER1
  6
CONTINUOUS
 62
     7
 10
83.720060
 20
492.391956
 40
27.208044
 50
77.926846
 51
105.344827
  0
LINE
  8
CSLAYER1
  6
CONTINUOUS
 62
     7
 10
76.520060
 20
518.630051
 11
76.520060
 21
510.600000
  0
LINE
  8
CSLAYER1
  6
CONTINUOUS
 62
     7
 10
72.920060
 20
450.000000
 11
94.520060
 21
450.000000
  0
ARC
  8
CSLAYER1
  6
CONTINUOUS
 62
     7
 10
73.880060
 20
454.077742
 40
4.077742
 50
229.652860
 51
310.347140
  0
ARC
  8
CSLAYER1
  6
CONTINUOUS
 62
     7
 10
83.720060
 20
477.208044
 40
27.208044
 50
254.655173
 51
281.866182
  0
LINE
  8
CSLAYER1
  6
CONTINUOUS
 62
     7
 10
76.520060
 20
461.400000
 11
76.520060
 21
450.969948
  0
LINE
  8
CSLAYER1
  6
CONTINUOUS
 62
     7
 10
71.240060
 20
461.400000
 11
71.240060
 21
450.969948
  0
LINE
  8
CSLAYER1
  6
CONTINUOUS
 62
     7
 10
72.920060
 20
450.000000
 11
71.240060
 21
450.969948
  0
LINE
  8
CSLAYER1
  6
CONTINUOUS
 62
     7
 10
76.520060
 20
450.000000
 11
76.520060
 21
445.800000
  0
LINE
  8
CSLAYER1
  6
CONTINUOUS
 62
     7
 10
76.520060
 20
445.800000
 11
77.720060
 21
444.600000
  0
LINE
  8
CSLAYER1
  6
CONTINUOUS
 62
     7
 10
77.420060
 20
450.000000
 11
77.420060
 21
444.900000
  0
LINE
  8
CSLAYER1
  6
CONTINUOUS
 62
     7
 10
76.520060
 20
445.800000
 11
90.920060
 21
445.800000
  0
LINE
  8
CSLAYER1
  6
CONTINUOUS
 62
     7
 10
77.720060
 20
444.600000
 11
89.720060
 21
444.600000
  0
LINE
  8
CSLAYER1
  6
CONTINUOUS
 62
     7
 10
89.720060
 20
444.600000
 11
90.920060
 21
445.800000
  0
LINE
  8
CSLAYER1
  6
CONTINUOUS
 62
     7
 10
90.920060
 20
445.800000
 11
90.920060
 21
450.000000
  0
LINE
  8
CSLAYER1
  6
CONTINUOUS
 62
     7
 10
90.020060
 20
444.900000
 11
90.020060
 21
450.000000
  0
LINE
  8
CSLAYER1
  6
CONTINUOUS
 62
     7
 10
341.000002
 20
485.400000
 11
616.100002
 21
485.400000
  0
LINE
  8
CSLAYER1
  6
CONTINUOUS
 62
     7
 10
617.000002
 20
484.500000
 11
617.000002
 21
463.200000
  0
LINE
  8
CSLAYER1
  6
CONTINUOUS
 62
     7
 10
615.200002
 20
461.400000
 11
341.000002
 21
461.400000
  0
LINE
  8
CSLAYER1
  6
CONTINUOUS
 62
     7
 10
617.000002
 20
463.200000
 11
615.200002
 21
461.400000
  0
LINE
  8
CSLAYER1
  6
CONTINUOUS
 62
     7
 10
616.100002
 20
485.400000
 11
617.000002
 21
484.500000
  0
LINE
  8
CSLAYER1
  6
CONTINUOUS
 62
     7
 10
341.000002
 20
651.000000
 11
542.600002
 21
651.000000
  0
LINE
  8
CSLAYER1
  6
CONTINUOUS
 62
     7
 10
543.500002
 20
650.100000
 11
543.500002
 21
628.800000
  0
LINE
  8
CSLAYER1
  6
CONTINUOUS
 62
     7
 10
341.000002
 20
627.000000
 11
541.700002
 21
627.000000
  0
LINE
  8
CSLAYER1
  6
CONTINUOUS
 62
     7
 10
590.000002
 20
485.400000
 11
590.000002
 21
486.600000
  0
LINE
  8
CSLAYER1
  6
CONTINUOUS
 62
     7
 10
341.000002
 20
486.600000
 11
616.100002
 21
486.600000
  0
LINE
  8
CSLAYER1
  6
CONTINUOUS
 62
     7
 10
617.000002
 20
487.500000
 11
617.000002
 21
508.800000
  0
LINE
  8
CSLAYER1
  6
CONTINUOUS
 62
     7
 10
615.200002
 20
510.600000
 11
341.000002
 21
510.600000
  0
LINE
  8
CSLAYER1
  6
CONTINUOUS
 62
     7
 10
508.400002
 20
624.600000
 11
508.400002
 21
602.916879
  0
LINE
  8
CSLAYER1
  6
CONTINUOUS
 62
     7
 10
582.800002
 20
525.000000
 11
582.800002
 21
519.600000
  0
ARC
  8
CSLAYER1
  6
CONTINUOUS
 62
     7
 10
510.800002
 20
624.600000
 40
2.400000
 50
90.000000
 51
180.000000
  0
ARC
  8
CSLAYER1
  6
CONTINUOUS
 62
     7
 10
522.800002
 20
525.000000
 40
60.000000
 50
0.000000
 51
87.354640
  0
ARC
  8
CSLAYER1
  6
CONTINUOUS
 62
     7
 10
526.400002
 20
602.916879
 40
18.000000
 50
180.000000
 51
267.354640
  0
LINE
  8
CSLAYER1
  6
CENTER
 62
     2
 10
527.000002
 20
663.000000
 11
527.000002
 21
615.000000
  0
LINE
  8
CSLAYER1
  6
CONTINUOUS
 62
     7
 10
543.500002
 20
628.800000
 11
541.700002
 21
627.000000
  0
LINE
  8
CSLAYER1
  6
CONTINUOUS
 62
     7
 10
617.000002
 20
487.500000
 11
616.100002
 21
486.600000
  0
LINE
  8
CSLAYER1
  6
CONTINUOUS
 62
     7
 10
615.200002
 20
510.600000
 11
617.000002
 21
508.800000
  0
LINE
  8
CSLAYER1
  6
CONTINUOUS
 62
     7
 10
542.600002
 20
651.000000
 11
543.500002
 21
650.100000
  0
LINE
  8
CSLAYER1
  6
CONTINUOUS
 62
     7
 10
525.569233
 20
584.936060
 11
341.000002
 21
584.936060
  0
LINE
  8
CSLAYER1
  6
CENTER
 62
     2
 10
374.871549
 20
438.600000
 11
374.871549
 21
525.600000
  0
LINE
  8
CSLAYER1
  6
CONTINUOUS
 62
     7
 10
385.671549
 20
519.600000
 11
387.351549
 21
518.630051
  0
LINE
  8
CSLAYER1
  6
CONTINUOUS
 62
     7
 10
387.351549
 20
518.630051
 11
387.351549
 21
510.600000
  0
LINE
  8
CSLAYER1
  6
CONTINUOUS
 62
     7
 10
364.071549
 20
519.600000
 11
362.391549
 21
518.630051
  0
LINE
  8
CSLAYER1
  6
CONTINUOUS
 62
     7
 10
362.391549
 20
518.630051
 11
362.391549
 21
510.600000
  0
LINE
  8
CSLAYER1
  6
CONTINUOUS
 62
     7
 10
385.671549
 20
519.600000
 11
364.071549
 21
519.600000
  0
LINE
  8
CSLAYER1
  6
CONTINUOUS
 62
     7
 10
387.351549
 20
510.600000
 11
362.391549
 21
510.600000
  0
ARC
  8
CSLAYER1
  6
CONTINUOUS
 62
     7
 10
384.711549
 20
515.522257
 40
4.077742
 50
49.652860
 51
130.347140
  0
ARC
  8
CSLAYER1
  6
CONTINUOUS
 62
     7
 10
374.871549
 20
492.391956
 40
27.208044
 50
74.655173
 51
105.344827
  0
ARC
  8
CSLAYER1
  6
CONTINUOUS
 62
     7
 10
365.031549
 20
515.522257
 40
4.077742
 50
49.652860
 51
130.347140
  0
LINE
  8
CSLAYER1
  6
CONTINUOUS
 62
     7
 10
382.071549
 20
518.630051
 11
382.071549
 21
510.600000
  0
LINE
  8
CSLAYER1
  6
CONTINUOUS
 62
     7
 10
367.671549
 20
518.630051
 11
367.671549
 21
510.600000
  0
LINE
  8
CSLAYER1
  6
CONTINUOUS
 62
     7
 10
367.671549
 20
461.400000
 11
367.671549
 21
450.969948
  0
LINE
  8
CSLAYER1
  6
CONTINUOUS
 62
     7
 10
362.391549
 20
461.400000
 11
362.391549
 21
450.969948
  0
ARC
  8
CSLAYER1
  6
CONTINUOUS
 62
     7
 10
365.031549
 20
454.077742
 40
4.077742
 50
229.652860
 51
310.347140
  0
LINE
  8
CSLAYER1
  6
CONTINUOUS
 62
     7
 10
364.071549
 20
450.000000
 11
362.391549
 21
450.969948
  0
LINE
  8
CSLAYER1
  6
CONTINUOUS
 62
     7
 10
385.671549
 20
450.000000
 11
364.071549
 21
450.000000
  0
ARC
  8
CSLAYER1
  6
CONTINUOUS
 62
     7
 10
384.711549
 20
454.077742
 40
4.077742
 50
229.652860
 51
310.347140
  0
ARC
  8
CSLAYER1
  6
CONTINUOUS
 62
     7
 10
374.871549
 20
477.208044
 40
27.208044
 50
254.655173
 51
285.344827
  0
LINE
  8
CSLAYER1
  6
CONTINUOUS
 62
     7
 10
382.071549
 20
461.400000
 11
382.071549
 21
450.969948
  0
LINE
  8
CSLAYER1
  6
CONTINUOUS
 62
     7
 10
387.351549
 20
461.400000
 11
387.351549
 21
450.969948
  0
LINE
  8
CSLAYER1
  6
CONTINUOUS
 62
     7
 10
385.671549
 20
450.000000
 11
387.351549
 21
450.969948
  0
LINE
  8
CSLAYER1
  6
CONTINUOUS
 62
     7
 10
382.071549
 20
450.000000
 11
382.071549
 21
445.800000
  0
LINE
  8
CSLAYER1
  6
CONTINUOUS
 62
     7
 10
382.071549
 20
445.800000
 11
380.871549
 21
444.600000
  0
LINE
  8
CSLAYER1
  6
CONTINUOUS
 62
     7
 10
381.171549
 20
450.000000
 11
381.171549
 21
444.900000
  0
LINE
  8
CSLAYER1
  6
CONTINUOUS
 62
     7
 10
382.071549
 20
445.800000
 11
367.671549
 21
445.800000
  0
LINE
  8
CSLAYER1
  6
CONTINUOUS
 62
     7
 10
380.871549
 20
444.600000
 11
368.871549
 21
444.600000
  0
LINE
  8
CSLAYER1
  6
CONTINUOUS
 62
     7
 10
368.871549
 20
444.600000
 11
367.671549
 21
445.800000
  0
LINE
  8
CSLAYER1
  6
CONTINUOUS
 62
     7
 10
367.671549
 20
445.800000
 11
367.671549
 21
450.000000
  0
LINE
  8
CSLAYER1
  6
CONTINUOUS
 62
     7
 10
368.571549
 20
444.900000
 11
368.571549
 21
450.000000
  0
LINE
  8
CSLAYER1
  6
CENTER
 62
     2
 10
440.306353
 20
438.600000
 11
440.306353
 21
525.600000
  0
LINE
  8
CSLAYER1
  6
CONTINUOUS
 62
     7
 10
451.106353
 20
519.600000
 11
452.786353
 21
518.630051
  0
LINE
  8
CSLAYER1
  6
CONTINUOUS
 62
     7
 10
452.786353
 20
518.630051
 11
452.786353
 21
510.600000
  0
LINE
  8
CSLAYER1
  6
CONTINUOUS
 62
     7
 10
429.506353
 20
519.600000
 11
427.826353
 21
518.630051
  0
LINE
  8
CSLAYER1
  6
CONTINUOUS
 62
     7
 10
427.826353
 20
518.630051
 11
427.826353
 21
510.600000
  0
LINE
  8
CSLAYER1
  6
CONTINUOUS
 62
     7
 10
451.106353
 20
519.600000
 11
429.506353
 21
519.600000
  0
LINE
  8
CSLAYER1
  6
CONTINUOUS
 62
     7
 10
452.786353
 20
510.600000
 11
427.826353
 21
510.600000
  0
ARC
  8
CSLAYER1
  6
CONTINUOUS
 62
     7
 10
450.146353
 20
515.522257
 40
4.077742
 50
49.652860
 51
130.347140
  0
ARC
  8
CSLAYER1
  6
CONTINUOUS
 62
     7
 10
440.306353
 20
492.391956
 40
27.208044
 50
74.655173
 51
105.344827
  0
ARC
  8
CSLAYER1
  6
CONTINUOUS
 62
     7
 10
430.466353
 20
515.522257
 40
4.077742
 50
49.652860
 51
130.347140
  0
LINE
  8
CSLAYER1
  6
CONTINUOUS
 62
     7
 10
447.506353
 20
518.630051
 11
447.506353
 21
510.600000
  0
LINE
  8
CSLAYER1
  6
CONTINUOUS
 62
     7
 10
433.106353
 20
518.630051
 11
433.106353
 21
510.600000
  0
LINE
  8
CSLAYER1
  6
CONTINUOUS
 62
     7
 10
433.106353
 20
461.400000
 11
433.106353
 21
450.969948
  0
LINE
  8
CSLAYER1
  6
CONTINUOUS
 62
     7
 10
427.826353
 20
461.400000
 11
427.826353
 21
450.969948
  0
ARC
  8
CSLAYER1
  6
CONTINUOUS
 62
     7
 10
430.466353
 20
454.077742
 40
4.077742
 50
229.652860
 51
310.347140
  0
LINE
  8
CSLAYER1
  6
CONTINUOUS
 62
     7
 10
429.506353
 20
450.000000
 11
427.826353
 21
450.969948
  0
LINE
  8
CSLAYER1
  6
CONTINUOUS
 62
     7
 10
451.106353
 20
450.000000
 11
429.506353
 21
450.000000
  0
ARC
  8
CSLAYER1
  6
CONTINUOUS
 62
     7
 10
450.146353
 20
454.077742
 40
4.077742
 50
229.652860
 51
310.347140
  0
ARC
  8
CSLAYER1
  6
CONTINUOUS
 62
     7
 10
440.306353
 20
477.208044
 40
27.208044
 50
254.655173
 51
285.344827
  0
LINE
  8
CSLAYER1
  6
CONTINUOUS
 62
     7
 10
447.506353
 20
461.400000
 11
447.506353
 21
450.969948
  0
LINE
  8
CSLAYER1
  6
CONTINUOUS
 62
     7
 10
452.786353
 20
461.400000
 11
452.786353
 21
450.969948
  0
LINE
  8
CSLAYER1
  6
CONTINUOUS
 62
     7
 10
451.106353
 20
450.000000
 11
452.786353
 21
450.969948
  0
LINE
  8
CSLAYER1
  6
CONTINUOUS
 62
     7
 10
447.506353
 20
450.000000
 11
447.506353
 21
445.800000
  0
LINE
  8
CSLAYER1
  6
CONTINUOUS
 62
     7
 10
447.506353
 20
445.800000
 11
446.306353
 21
444.600000
  0
LINE
  8
CSLAYER1
  6
CONTINUOUS
 62
     7
 10
446.606353
 20
450.000000
 11
446.606353
 21
444.900000
  0
LINE
  8
CSLAYER1
  6
CONTINUOUS
 62
     7
 10
447.506353
 20
445.800000
 11
433.106353
 21
445.800000
  0
LINE
  8
CSLAYER1
  6
CONTINUOUS
 62
     7
 10
446.306353
 20
444.600000
 11
434.306353
 21
444.600000
  0
LINE
  8
CSLAYER1
  6
CONTINUOUS
 62
     7
 10
434.306353
 20
444.600000
 11
433.106353
 21
445.800000
  0
LINE
  8
CSLAYER1
  6
CONTINUOUS
 62
     7
 10
433.106353
 20
445.800000
 11
433.106353
 21
450.000000
  0
LINE
  8
CSLAYER1
  6
CONTINUOUS
 62
     7
 10
434.006353
 20
444.900000
 11
434.006353
 21
450.000000
  0
LINE
  8
CSLAYER1
  6
CENTER
 62
     2
 10
498.973593
 20
438.600000
 11
498.973593
 21
525.600000
  0
LINE
  8
CSLAYER1
  6
CONTINUOUS
 62
     7
 10
509.773593
 20
519.600000
 11
511.453593
 21
518.630051
  0
LINE
  8
CSLAYER1
  6
CONTINUOUS
 62
     7
 10
511.453593
 20
518.630051
 11
511.453593
 21
510.600000
  0
LINE
  8
CSLAYER1
  6
CONTINUOUS
 62
     7
 10
488.173593
 20
519.600000
 11
486.493593
 21
518.630051
  0
LINE
  8
CSLAYER1
  6
CONTINUOUS
 62
     7
 10
486.493593
 20
518.630051
 11
486.493593
 21
510.600000
  0
LINE
  8
CSLAYER1
  6
CONTINUOUS
 62
     7
 10
509.773593
 20
519.600000
 11
488.173593
 21
519.600000
  0
LINE
  8
CSLAYER1
  6
CONTINUOUS
 62
     7
 10
511.453593
 20
510.600000
 11
486.493593
 21
510.600000
  0
ARC
  8
CSLAYER1
  6
CONTINUOUS
 62
     7
 10
508.813593
 20
515.522257
 40
4.077742
 50
49.652860
 51
130.347140
  0
ARC
  8
CSLAYER1
  6
CONTINUOUS
 62
     7
 10
498.973593
 20
492.391956
 40
27.208044
 50
74.655173
 51
105.344827
  0
ARC
  8
CSLAYER1
  6
CONTINUOUS
 62
     7
 10
489.133593
 20
515.522257
 40
4.077742
 50
49.652860
 51
130.347140
  0
LINE
  8
CSLAYER1
  6
CONTINUOUS
 62
     7
 10
506.173593
 20
518.630051
 11
506.173593
 21
510.600000
  0
LINE
  8
CSLAYER1
  6
CONTINUOUS
 62
     7
 10
491.773593
 20
518.630051
 11
491.773593
 21
510.600000
  0
LINE
  8
CSLAYER1
  6
CONTINUOUS
 62
     7
 10
491.773593
 20
461.400000
 11
491.773593
 21
450.969948
  0
LINE
  8
CSLAYER1
  6
CONTINUOUS
 62
     7
 10
486.493593
 20
461.400000
 11
486.493593
 21
450.969948
  0
ARC
  8
CSLAYER1
  6
CONTINUOUS
 62
     7
 10
489.133593
 20
454.077742
 40
4.077742
 50
229.652860
 51
310.347140
  0
LINE
  8
CSLAYER1
  6
CONTINUOUS
 62
     7
 10
488.173593
 20
450.000000
 11
486.493593
 21
450.969948
  0
LINE
  8
CSLAYER1
  6
CONTINUOUS
 62
     7
 10
509.773593
 20
450.000000
 11
488.173593
 21
450.000000
  0
ARC
  8
CSLAYER1
  6
CONTINUOUS
 62
     7
 10
508.813593
 20
454.077742
 40
4.077742
 50
229.652860
 51
310.347140
  0
ARC
  8
CSLAYER1
  6
CONTINUOUS
 62
     7
 10
498.973593
 20
477.208044
 40
27.208044
 50
254.655173
 51
285.344827
  0
LINE
  8
CSLAYER1
  6
CONTINUOUS
 62
     7
 10
506.173593
 20
461.400000
 11
506.173593
 21
450.969948
  0
LINE
  8
CSLAYER1
  6
CONTINUOUS
 62
     7
 10
511.453593
 20
461.400000
 11
511.453593
 21
450.969948
  0
LINE
  8
CSLAYER1
  6
CONTINUOUS
 62
     7
 10
509.773593
 20
450.000000
 11
511.453593
 21
450.969948
  0
LINE
  8
CSLAYER1
  6
CONTINUOUS
 62
     7
 10
506.173593
 20
450.000000
 11
506.173593
 21
445.800000
  0
LINE
  8
CSLAYER1
  6
CONTINUOUS
 62
     7
 10
506.173593
 20
445.800000
 11
504.973593
 21
444.600000
  0
LINE
  8
CSLAYER1
  6
CONTINUOUS
 62
     7
 10
505.273593
 20
450.000000
 11
505.273593
 21
444.900000
  0
LINE
  8
CSLAYER1
  6
CONTINUOUS
 62
     7
 10
506.173593
 20
445.800000
 11
491.773593
 21
445.800000
  0
LINE
  8
CSLAYER1
  6
CONTINUOUS
 62
     7
 10
504.973593
 20
444.600000
 11
492.973593
 21
444.600000
  0
LINE
  8
CSLAYER1
  6
CONTINUOUS
 62
     7
 10
492.973593
 20
444.600000
 11
491.773593
 21
445.800000
  0
LINE
  8
CSLAYER1
  6
CONTINUOUS
 62
     7
 10
491.773593
 20
445.800000
 11
491.773593
 21
450.000000
  0
LINE
  8
CSLAYER1
  6
CONTINUOUS
 62
     7
 10
492.673593
 20
444.900000
 11
492.673593
 21
450.000000
  0
LINE
  8
CSLAYER1
  6
CENTER
 62
     2
 10
546.875194
 20
438.600000
 11
546.875194
 21
525.600000
  0
LINE
  8
CSLAYER1
  6
CONTINUOUS
 62
     7
 10
557.675194
 20
519.600000
 11
559.355194
 21
518.630051
  0
LINE
  8
CSLAYER1
  6
CONTINUOUS
 62
     7
 10
559.355194
 20
518.630051
 11
559.355194
 21
510.600000
  0
LINE
  8
CSLAYER1
  6
CONTINUOUS
 62
     7
 10
536.075194
 20
519.600000
 11
534.395194
 21
518.630051
  0
LINE
  8
CSLAYER1
  6
CONTINUOUS
 62
     7
 10
534.395194
 20
518.630051
 11
534.395194
 21
510.600000
  0
LINE
  8
CSLAYER1
  6
CONTINUOUS
 62
     7
 10
557.675194
 20
519.600000
 11
536.075194
 21
519.600000
  0
LINE
  8
CSLAYER1
  6
CONTINUOUS
 62
     7
 10
559.355194
 20
510.600000
 11
534.395194
 21
510.600000
  0
ARC
  8
CSLAYER1
  6
CONTINUOUS
 62
     7
 10
556.715194
 20
515.522257
 40
4.077742
 50
49.652860
 51
130.347140
  0
ARC
  8
CSLAYER1
  6
CONTINUOUS
 62
     7
 10
546.875194
 20
492.391956
 40
27.208044
 50
74.655173
 51
105.344827
  0
ARC
  8
CSLAYER1
  6
CONTINUOUS
 62
     7
 10
537.035194
 20
515.522257
 40
4.077742
 50
49.652860
 51
130.347140
  0
LINE
  8
CSLAYER1
  6
CONTINUOUS
 62
     7
 10
554.075194
 20
518.630051
 11
554.075194
 21
510.600000
  0
LINE
  8
CSLAYER1
  6
CONTINUOUS
 62
     7
 10
539.675194
 20
518.630051
 11
539.675194
 21
510.600000
  0
LINE
  8
CSLAYER1
  6
CONTINUOUS
 62
     7
 10
539.675194
 20
461.400000
 11
539.675194
 21
450.969948
  0
LINE
  8
CSLAYER1
  6
CONTINUOUS
 62
     7
 10
534.395194
 20
461.400000
 11
534.395194
 21
450.969948
  0
ARC
  8
CSLAYER1
  6
CONTINUOUS
 62
     7
 10
537.035194
 20
454.077742
 40
4.077742
 50
229.652860
 51
310.347140
  0
LINE
  8
CSLAYER1
  6
CONTINUOUS
 62
     7
 10
536.075194
 20
450.000000
 11
534.395194
 21
450.969948
  0
LINE
  8
CSLAYER1
  6
CONTINUOUS
 62
     7
 10
557.675194
 20
450.000000
 11
536.075194
 21
450.000000
  0
ARC
  8
CSLAYER1
  6
CONTINUOUS
 62
     7
 10
556.715194
 20
454.077742
 40
4.077742
 50
229.652860
 51
310.347140
  0
ARC
  8
CSLAYER1
  6
CONTINUOUS
 62
     7
 10
546.875194
 20
477.208044
 40
27.208044
 50
254.655173
 51
285.344827
  0
LINE
  8
CSLAYER1
  6
CONTINUOUS
 62
     7
 10
554.075194
 20
461.400000
 11
554.075194
 21
450.969948
  0
LINE
  8
CSLAYER1
  6
CONTINUOUS
 62
     7
 10
559.355194
 20
461.400000
 11
559.355194
 21
450.969948
  0
LINE
  8
CSLAYER1
  6
CONTINUOUS
 62
     7
 10
557.675194
 20
450.000000
 11
559.355194
 21
450.969948
  0
LINE
  8
CSLAYER1
  6
CONTINUOUS
 62
     7
 10
554.075194
 20
450.000000
 11
554.075194
 21
445.800000
  0
LINE
  8
CSLAYER1
  6
CONTINUOUS
 62
     7
 10
554.075194
 20
445.800000
 11
552.875194
 21
444.600000
  0
LINE
  8
CSLAYER1
  6
CONTINUOUS
 62
     7
 10
553.175194
 20
450.000000
 11
553.175194
 21
444.900000
  0
LINE
  8
CSLAYER1
  6
CONTINUOUS
 62
     7
 10
554.075194
 20
445.800000
 11
539.675194
 21
445.800000
  0
LINE
  8
CSLAYER1
  6
CONTINUOUS
 62
     7
 10
552.875194
 20
444.600000
 11
540.875194
 21
444.600000
  0
LINE
  8
CSLAYER1
  6
CONTINUOUS
 62
     7
 10
540.875194
 20
444.600000
 11
539.675194
 21
445.800000
  0
LINE
  8
CSLAYER1
  6
CONTINUOUS
 62
     7
 10
539.675194
 20
445.800000
 11
539.675194
 21
450.000000
  0
LINE
  8
CSLAYER1
  6
CONTINUOUS
 62
     7
 10
540.575194
 20
444.900000
 11
540.575194
 21
450.000000
  0
LINE
  8
CSLAYER1
  6
CENTER
 62
     2
 10
580.746741
 20
438.600000
 11
580.746741
 21
525.600000
  0
LINE
  8
CSLAYER1
  6
CONTINUOUS
 62
     7
 10
591.546741
 20
519.600000
 11
593.226741
 21
518.630051
  0
LINE
  8
CSLAYER1
  6
CONTINUOUS
 62
     7
 10
593.226741
 20
518.630051
 11
593.226741
 21
510.600000
  0
LINE
  8
CSLAYER1
  6
CONTINUOUS
 62
     7
 10
569.946741
 20
519.600000
 11
568.266741
 21
518.630051
  0
LINE
  8
CSLAYER1
  6
CONTINUOUS
 62
     7
 10
568.266741
 20
518.630051
 11
568.266741
 21
510.600000
  0
LINE
  8
CSLAYER1
  6
CONTINUOUS
 62
     7
 10
591.546741
 20
519.600000
 11
569.946741
 21
519.600000
  0
LINE
  8
CSLAYER1
  6
CONTINUOUS
 62
     7
 10
593.226741
 20
510.600000
 11
568.266741
 21
510.600000
  0
ARC
  8
CSLAYER1
  6
CONTINUOUS
 62
     7
 10
590.586741
 20
515.522257
 40
4.077742
 50
49.652860
 51
130.347140
  0
ARC
  8
CSLAYER1
  6
CONTINUOUS
 62
     7
 10
580.746741
 20
492.391956
 40
27.208044
 50
74.655173
 51
105.344827
  0
ARC
  8
CSLAYER1
  6
CONTINUOUS
 62
     7
 10
570.906741
 20
515.522257
 40
4.077742
 50
49.652860
 51
130.347140
  0
LINE
  8
CSLAYER1
  6
CONTINUOUS
 62
     7
 10
587.946741
 20
518.630051
 11
587.946741
 21
510.600000
  0
LINE
  8
CSLAYER1
  6
CONTINUOUS
 62
     7
 10
573.546741
 20
518.630051
 11
573.546741
 21
510.600000
  0
LINE
  8
CSLAYER1
  6
CONTINUOUS
 62
     7
 10
573.546741
 20
461.400000
 11
573.546741
 21
450.969948
  0
LINE
  8
CSLAYER1
  6
CONTINUOUS
 62
     7
 10
568.266741
 20
461.400000
 11
568.266741
 21
450.969948
  0
ARC
  8
CSLAYER1
  6
CONTINUOUS
 62
     7
 10
570.906741
 20
454.077742
 40
4.077742
 50
229.652860
 51
310.347140
  0
LINE
  8
CSLAYER1
  6
CONTINUOUS
 62
     7
 10
569.946741
 20
450.000000
 11
568.266741
 21
450.969948
  0
LINE
  8
CSLAYER1
  6
CONTINUOUS
 62
     7
 10
591.546741
 20
450.000000
 11
569.946741
 21
450.000000
  0
ARC
  8
CSLAYER1
  6
CONTINUOUS
 62
     7
 10
590.586741
 20
454.077742
 40
4.077742
 50
229.652860
 51
310.347140
  0
ARC
  8
CSLAYER1
  6
CONTINUOUS
 62
     7
 10
580.746741
 20
477.208044
 40
27.208044
 50
254.655173
 51
285.344827
  0
LINE
  8
CSLAYER1
  6
CONTINUOUS
 62
     7
 10
587.946741
 20
461.400000
 11
587.946741
 21
450.969948
  0
LINE
  8
CSLAYER1
  6
CONTINUOUS
 62
     7
 10
593.226741
 20
461.400000
 11
593.226741
 21
450.969948
  0
LINE
  8
CSLAYER1
  6
CONTINUOUS
 62
     7
 10
591.546741
 20
450.000000
 11
593.226741
 21
450.969948
  0
LINE
  8
CSLAYER1
  6
CONTINUOUS
 62
     7
 10
587.946741
 20
450.000000
 11
587.946741
 21
445.800000
  0
LINE
  8
CSLAYER1
  6
CONTINUOUS
 62
     7
 10
587.946741
 20
445.800000
 11
586.746741
 21
444.600000
  0
LINE
  8
CSLAYER1
  6
CONTINUOUS
 62
     7
 10
587.046741
 20
450.000000
 11
587.046741
 21
444.900000
  0
LINE
  8
CSLAYER1
  6
CONTINUOUS
 62
     7
 10
587.946741
 20
445.800000
 11
573.546741
 21
445.800000
  0
LINE
  8
CSLAYER1
  6
CONTINUOUS
 62
     7
 10
586.746741
 20
444.600000
 11
574.746741
 21
444.600000
  0
LINE
  8
CSLAYER1
  6
CONTINUOUS
 62
     7
 10
574.746741
 20
444.600000
 11
573.546741
 21
445.800000
  0
LINE
  8
CSLAYER1
  6
CONTINUOUS
 62
     7
 10
573.546741
 20
445.800000
 11
573.546741
 21
450.000000
  0
LINE
  8
CSLAYER1
  6
CONTINUOUS
 62
     7
 10
574.446741
 20
444.900000
 11
574.446741
 21
450.000000
  0
LINE
  8
CSLAYER1
  6
CENTER
 62
     2
 10
598.279943
 20
438.600000
 11
598.279943
 21
525.600000
  0
LINE
  8
CSLAYER1
  6
CONTINUOUS
 62
     7
 10
609.079943
 20
519.600000
 11
610.759943
 21
518.630051
  0
LINE
  8
CSLAYER1
  6
CONTINUOUS
 62
     7
 10
610.759943
 20
518.630051
 11
610.759943
 21
510.600000
  0
LINE
  8
CSLAYER1
  6
CONTINUOUS
 62
     7
 10
609.079943
 20
519.600000
 11
587.479943
 21
519.600000
  0
LINE
  8
CSLAYER1
  6
CONTINUOUS
 62
     7
 10
610.759943
 20
510.600000
 11
585.799943
 21
510.600000
  0
ARC
  8
CSLAYER1
  6
CONTINUOUS
 62
     7
 10
608.119943
 20
515.522257
 40
4.077742
 50
49.652860
 51
130.347140
  0
ARC
  8
CSLAYER1
  6
CONTINUOUS
 62
     7
 10
598.279943
 20
492.391956
 40
27.208044
 50
74.655173
 51
102.073154
  0
LINE
  8
CSLAYER1
  6
CONTINUOUS
 62
     7
 10
605.479943
 20
518.630051
 11
605.479943
 21
510.600000
  0
LINE
  8
CSLAYER1
  6
CONTINUOUS
 62
     7
 10
609.079943
 20
450.000000
 11
587.479943
 21
450.000000
  0
ARC
  8
CSLAYER1
  6
CONTINUOUS
 62
     7
 10
608.119943
 20
454.077742
 40
4.077742
 50
229.652860
 51
310.347140
  0
ARC
  8
CSLAYER1
  6
CONTINUOUS
 62
     7
 10
598.279943
 20
477.208044
 40
27.208044
 50
258.133818
 51
285.344827
  0
LINE
  8
CSLAYER1
  6
CONTINUOUS
 62
     7
 10
605.479943
 20
461.400000
 11
605.479943
 21
450.969948
  0
LINE
  8
CSLAYER1
  6
CONTINUOUS
 62
     7
 10
610.759943
 20
461.400000
 11
610.759943
 21
450.969948
  0
LINE
  8
CSLAYER1
  6
CONTINUOUS
 62
     7
 10
609.079943
 20
450.000000
 11
610.759943
 21
450.969948
  0
LINE
  8
CSLAYER1
  6
CONTINUOUS
 62
     7
 10
605.479943
 20
450.000000
 11
605.479943
 21
445.800000
  0
LINE
  8
CSLAYER1
  6
CONTINUOUS
 62
     7
 10
605.479943
 20
445.800000
 11
604.279943
 21
444.600000
  0
LINE
  8
CSLAYER1
  6
CONTINUOUS
 62
     7
 10
604.579943
 20
450.000000
 11
604.579943
 21
444.900000
  0
LINE
  8
CSLAYER1
  6
CONTINUOUS
 62
     7
 10
605.479943
 20
445.800000
 11
591.079943
 21
445.800000
  0
LINE
  8
CSLAYER1
  6
CONTINUOUS
 62
     7
 10
604.279943
 20
444.600000
 11
592.279943
 21
444.600000
  0
LINE
  8
CSLAYER1
  6
CONTINUOUS
 62
     7
 10
592.279943
 20
444.600000
 11
591.079943
 21
445.800000
  0
LINE
  8
CSLAYER1
  6
CONTINUOUS
 62
     7
 10
591.079943
 20
445.800000
 11
591.079943
 21
450.000000
  0
LINE
  8
CSLAYER1
  6
CONTINUOUS
 62
     7
 10
591.979943
 20
444.900000
 11
591.979943
 21
450.000000
  0
LINE
  8
CSLAYER1
  6
CONTINUOUS
 62
     7
 10
92.000002
 20
268.200000
 11
92.000002
 21
269.400000
  0
LINE
  8
CSLAYER1
  6
CENTER
 62
     2
 10
307.128455
 20
221.400000
 11
307.128455
 21
308.400000
  0
LINE
  8
CSLAYER1
  6
CONTINUOUS
 62
     7
 10
296.328455
 20
302.400000
 11
294.648455
 21
301.430051
  0
LINE
  8
CSLAYER1
  6
CONTINUOUS
 62
     7
 10
294.648455
 20
301.430051
 11
294.648455
 21
293.400000
  0
LINE
  8
CSLAYER1
  6
CONTINUOUS
 62
     7
 10
317.928455
 20
302.400000
 11
319.608455
 21
301.430051
  0
LINE
  8
CSLAYER1
  6
CONTINUOUS
 62
     7
 10
319.608455
 20
301.430051
 11
319.608455
 21
293.400000
  0
LINE
  8
CSLAYER1
  6
CONTINUOUS
 62
     7
 10
296.328455
 20
302.400000
 11
317.928455
 21
302.400000
  0
LINE
  8
CSLAYER1
  6
CONTINUOUS
 62
     7
 10
294.648455
 20
293.400000
 11
319.608455
 21
293.400000
  0
ARC
  8
CSLAYER1
  6
CONTINUOUS
 62
     7
 10
297.288455
 20
298.322257
 40
4.077742
 50
49.652860
 51
130.347140
  0
ARC
  8
CSLAYER1
  6
CONTINUOUS
 62
     7
 10
307.128455
 20
275.191956
 40
27.208044
 50
74.655173
 51
105.344827
  0
ARC
  8
CSLAYER1
  6
CONTINUOUS
 62
     7
 10
316.968455
 20
298.322257
 40
4.077742
 50
49.652860
 51
130.347140
  0
LINE
  8
CSLAYER1
  6
CONTINUOUS
 62
     7
 10
299.928455
 20
301.430051
 11
299.928455
 21
293.400000
  0
LINE
  8
CSLAYER1
  6
CONTINUOUS
 62
     7
 10
314.328455
 20
301.430051
 11
314.328455
 21
293.400000
  0
LINE
  8
CSLAYER1
  6
CONTINUOUS
 62
     7
 10
314.328455
 20
244.200000
 11
314.328455
 21
233.769948
  0
LINE
  8
CSLAYER1
  6
CONTINUOUS
 62
     7
 10
319.608455
 20
244.200000
 11
319.608455
 21
233.769948
  0
ARC
  8
CSLAYER1
  6
CONTINUOUS
 62
     7
 10
316.968455
 20
236.877742
 40
4.077742
 50
229.652860
 51
310.347140
  0
LINE
  8
CSLAYER1
  6
CONTINUOUS
 62
     7
 10
317.928455
 20
232.800000
 11
319.608455
 21
233.769948
  0
LINE
  8
CSLAYER1
  6
CONTINUOUS
 62
     7
 10
296.328455
 20
232.800000
 11
317.928455
 21
232.800000
  0
ARC
  8
CSLAYER1
  6
CONTINUOUS
 62
     7
 10
297.288455
 20
236.877742
 40
4.077742
 50
229.652860
 51
310.347140
  0
ARC
  8
CSLAYER1
  6
CONTINUOUS
 62
     7
 10
307.128455
 20
260.008044
 40
27.208044
 50
254.655173
 51
285.344827
  0
LINE
  8
CSLAYER1
  6
CONTINUOUS
 62
     7
 10
299.928455
 20
244.200000
 11
299.928455
 21
233.769948
  0
LINE
  8
CSLAYER1
  6
CONTINUOUS
 62
     7
 10
294.648455
 20
244.200000
 11
294.648455
 21
233.769948
  0
LINE
  8
CSLAYER1
  6
CONTINUOUS
 62
     7
 10
296.328455
 20
232.800000
 11
294.648455
 21
233.769948
  0
LINE
  8
CSLAYER1
  6
CONTINUOUS
 62
     7
 10
299.928455
 20
232.800000
 11
299.928455
 21
228.600000
  0
LINE
  8
CSLAYER1
  6
CONTINUOUS
 62
     7
 10
299.928455
 20
228.600000
 11
301.128455
 21
227.400000
  0
LINE
  8
CSLAYER1
  6
CONTINUOUS
 62
     7
 10
300.828455
 20
232.800000
 11
300.828455
 21
227.700000
  0
LINE
  8
CSLAYER1
  6
CONTINUOUS
 62
     7
 10
299.928455
 20
228.600000
 11
314.328455
 21
228.600000
  0
LINE
  8
CSLAYER1
  6
CONTINUOUS
 62
     7
 10
301.128455
 20
227.400000
 11
313.128455
 21
227.400000
  0
LINE
  8
CSLAYER1
  6
CONTINUOUS
 62
     7
 10
313.128455
 20
227.400000
 11
314.328455
 21
228.600000
  0
LINE
  8
CSLAYER1
  6
CONTINUOUS
 62
     7
 10
314.328455
 20
228.600000
 11
314.328455
 21
232.800000
  0
LINE
  8
CSLAYER1
  6
CONTINUOUS
 62
     7
 10
313.428455
 20
227.700000
 11
313.428455
 21
232.800000
  0
LINE
  8
CSLAYER1
  6
CENTER
 62
     2
 10
241.693651
 20
221.400000
 11
241.693651
 21
308.400000
  0
LINE
  8
CSLAYER1
  6
CONTINUOUS
 62
     7
 10
230.893651
 20
302.400000
 11
229.213651
 21
301.430051
  0
LINE
  8
CSLAYER1
  6
CONTINUOUS
 62
     7
 10
229.213651
 20
301.430051
 11
229.213651
 21
293.400000
  0
LINE
  8
CSLAYER1
  6
CONTINUOUS
 62
     7
 10
252.493651
 20
302.400000
 11
254.173651
 21
301.430051
  0
LINE
  8
CSLAYER1
  6
CONTINUOUS
 62
     7
 10
254.173651
 20
301.430051
 11
254.173651
 21
293.400000
  0
LINE
  8
CSLAYER1
  6
CONTINUOUS
 62
     7
 10
230.893651
 20
302.400000
 11
252.493651
 21
302.400000
  0
LINE
  8
CSLAYER1
  6
CONTINUOUS
 62
     7
 10
229.213651
 20
293.400000
 11
254.173651
 21
293.400000
  0
ARC
  8
CSLAYER1
  6
CONTINUOUS
 62
     7
 10
231.853651
 20
298.322257
 40
4.077742
 50
49.652860
 51
130.347140
  0
ARC
  8
CSLAYER1
  6
CONTINUOUS
 62
     7
 10
241.693651
 20
275.191956
 40
27.208044
 50
74.655173
 51
105.344827
  0
ARC
  8
CSLAYER1
  6
CONTINUOUS
 62
     7
 10
251.533651
 20
298.322257
 40
4.077742
 50
49.652860
 51
130.347140
  0
LINE
  8
CSLAYER1
  6
CONTINUOUS
 62
     7
 10
234.493651
 20
301.430051
 11
234.493651
 21
293.400000
  0
LINE
  8
CSLAYER1
  6
CONTINUOUS
 62
     7
 10
248.893651
 20
301.430051
 11
248.893651
 21
293.400000
  0
LINE
  8
CSLAYER1
  6
CONTINUOUS
 62
     7
 10
248.893651
 20
244.200000
 11
248.893651
 21
233.769948
  0
LINE
  8
CSLAYER1
  6
CONTINUOUS
 62
     7
 10
254.173651
 20
244.200000
 11
254.173651
 21
233.769948
  0
ARC
  8
CSLAYER1
  6
CONTINUOUS
 62
     7
 10
251.533651
 20
236.877742
 40
4.077742
 50
229.652860
 51
310.347140
  0
LINE
  8
CSLAYER1
  6
CONTINUOUS
 62
     7
 10
252.493651
 20
232.800000
 11
254.173651
 21
233.769948
  0
LINE
  8
CSLAYER1
  6
CONTINUOUS
 62
     7
 10
230.893651
 20
232.800000
 11
252.493651
 21
232.800000
  0
ARC
  8
CSLAYER1
  6
CONTINUOUS
 62
     7
 10
231.853651
 20
236.877742
 40
4.077742
 50
229.652860
 51
310.347140
  0
ARC
  8
CSLAYER1
  6
CONTINUOUS
 62
     7
 10
241.693651
 20
260.008044
 40
27.208044
 50
254.655173
 51
285.344827
  0
LINE
  8
CSLAYER1
  6
CONTINUOUS
 62
     7
 10
234.493651
 20
244.200000
 11
234.493651
 21
233.769948
  0
LINE
  8
CSLAYER1
  6
CONTINUOUS
 62
     7
 10
229.213651
 20
244.200000
 11
229.213651
 21
233.769948
  0
LINE
  8
CSLAYER1
  6
CONTINUOUS
 62
     7
 10
230.893651
 20
232.800000
 11
229.213651
 21
233.769948
  0
LINE
  8
CSLAYER1
  6
CONTINUOUS
 62
     7
 10
234.493651
 20
232.800000
 11
234.493651
 21
228.600000
  0
LINE
  8
CSLAYER1
  6
CONTINUOUS
 62
     7
 10
234.493651
 20
228.600000
 11
235.693651
 21
227.400000
  0
LINE
  8
CSLAYER1
  6
CONTINUOUS
 62
     7
 10
235.393651
 20
232.800000
 11
235.393651
 21
227.700000
  0
LINE
  8
CSLAYER1
  6
CONTINUOUS
 62
     7
 10
234.493651
 20
228.600000
 11
248.893651
 21
228.600000
  0
LINE
  8
CSLAYER1
  6
CONTINUOUS
 62
     7
 10
235.693651
 20
227.400000
 11
247.693651
 21
227.400000
  0
LINE
  8
CSLAYER1
  6
CONTINUOUS
 62
     7
 10
247.693651
 20
227.400000
 11
248.893651
 21
228.600000
  0
LINE
  8
CSLAYER1
  6
CONTINUOUS
 62
     7
 10
248.893651
 20
228.600000
 11
248.893651
 21
232.800000
  0
LINE
  8
CSLAYER1
  6
CONTINUOUS
 62
     7
 10
247.993651
 20
227.700000
 11
247.993651
 21
232.800000
  0
LINE
  8
CSLAYER1
  6
CENTER
 62
     2
 10
183.026411
 20
221.400000
 11
183.026411
 21
308.400000
  0
LINE
  8
CSLAYER1
  6
CONTINUOUS
 62
     7
 10
172.226411
 20
302.400000
 11
170.546411
 21
301.430051
  0
LINE
  8
CSLAYER1
  6
CONTINUOUS
 62
     7
 10
170.546411
 20
301.430051
 11
170.546411
 21
293.400000
  0
LINE
  8
CSLAYER1
  6
CONTINUOUS
 62
     7
 10
193.826411
 20
302.400000
 11
195.506411
 21
301.430051
  0
LINE
  8
CSLAYER1
  6
CONTINUOUS
 62
     7
 10
195.506411
 20
301.430051
 11
195.506411
 21
293.400000
  0
LINE
  8
CSLAYER1
  6
CONTINUOUS
 62
     7
 10
172.226411
 20
302.400000
 11
193.826411
 21
302.400000
  0
LINE
  8
CSLAYER1
  6
CONTINUOUS
 62
     7
 10
170.546411
 20
293.400000
 11
195.506411
 21
293.400000
  0
ARC
  8
CSLAYER1
  6
CONTINUOUS
 62
     7
 10
173.186411
 20
298.322257
 40
4.077742
 50
49.652860
 51
130.347140
  0
ARC
  8
CSLAYER1
  6
CONTINUOUS
 62
     7
 10
183.026411
 20
275.191956
 40
27.208044
 50
74.655173
 51
105.344827
  0
ARC
  8
CSLAYER1
  6
CONTINUOUS
 62
     7
 10
192.866411
 20
298.322257
 40
4.077742
 50
49.652860
 51
130.347140
  0
LINE
  8
CSLAYER1
  6
CONTINUOUS
 62
     7
 10
175.826411
 20
301.430051
 11
175.826411
 21
293.400000
  0
LINE
  8
CSLAYER1
  6
CONTINUOUS
 62
     7
 10
190.226411
 20
301.430051
 11
190.226411
 21
293.400000
  0
LINE
  8
CSLAYER1
  6
CONTINUOUS
 62
     7
 10
190.226411
 20
244.200000
 11
190.226411
 21
233.769948
  0
LINE
  8
CSLAYER1
  6
CONTINUOUS
 62
     7
 10
195.506411
 20
244.200000
 11
195.506411
 21
233.769948
  0
ARC
  8
CSLAYER1
  6
CONTINUOUS
 62
     7
 10
192.866411
 20
236.877742
 40
4.077742
 50
229.652860
 51
310.347140
  0
LINE
  8
CSLAYER1
  6
CONTINUOUS
 62
     7
 10
193.826411
 20
232.800000
 11
195.506411
 21
233.769948
  0
LINE
  8
CSLAYER1
  6
CONTINUOUS
 62
     7
 10
172.226411
 20
232.800000
 11
193.826411
 21
232.800000
  0
ARC
  8
CSLAYER1
  6
CONTINUOUS
 62
     7
 10
173.186411
 20
236.877742
 40
4.077742
 50
229.652860
 51
310.347140
  0
ARC
  8
CSLAYER1
  6
CONTINUOUS
 62
     7
 10
183.026411
 20
260.008044
 40
27.208044
 50
254.655173
 51
285.344827
  0
LINE
  8
CSLAYER1
  6
CONTINUOUS
 62
     7
 10
175.826411
 20
244.200000
 11
175.826411
 21
233.769948
  0
LINE
  8
CSLAYER1
  6
CONTINUOUS
 62
     7
 10
170.546411
 20
244.200000
 11
170.546411
 21
233.769948
  0
LINE
  8
CSLAYER1
  6
CONTINUOUS
 62
     7
 10
172.226411
 20
232.800000
 11
170.546411
 21
233.769948
  0
LINE
  8
CSLAYER1
  6
CONTINUOUS
 62
     7
 10
175.826411
 20
232.800000
 11
175.826411
 21
228.600000
  0
LINE
  8
CSLAYER1
  6
CONTINUOUS
 62
     7
 10
175.826411
 20
228.600000
 11
177.026411
 21
227.400000
  0
LINE
  8
CSLAYER1
  6
CONTINUOUS
 62
     7
 10
176.726411
 20
232.800000
 11
176.726411
 21
227.700000
  0
LINE
  8
CSLAYER1
  6
CONTINUOUS
 62
     7
 10
175.826411
 20
228.600000
 11
190.226411
 21
228.600000
  0
LINE
  8
CSLAYER1
  6
CONTINUOUS
 62
     7
 10
177.026411
 20
227.400000
 11
189.026411
 21
227.400000
  0
LINE
  8
CSLAYER1
  6
CONTINUOUS
 62
     7
 10
189.026411
 20
227.400000
 11
190.226411
 21
228.600000
  0
LINE
  8
CSLAYER1
  6
CONTINUOUS
 62
     7
 10
190.226411
 20
228.600000
 11
190.226411
 21
232.800000
  0
LINE
  8
CSLAYER1
  6
CONTINUOUS
 62
     7
 10
189.326411
 20
227.700000
 11
189.326411
 21
232.800000
  0
LINE
  8
CSLAYER1
  6
CENTER
 62
     2
 10
135.124810
 20
221.400000
 11
135.124810
 21
308.400000
  0
LINE
  8
CSLAYER1
  6
CONTINUOUS
 62
     7
 10
124.324810
 20
302.400000
 11
122.644810
 21
301.430051
  0
LINE
  8
CSLAYER1
  6
CONTINUOUS
 62
     7
 10
122.644810
 20
301.430051
 11
122.644810
 21
293.400000
  0
LINE
  8
CSLAYER1
  6
CONTINUOUS
 62
     7
 10
145.924810
 20
302.400000
 11
147.604810
 21
301.430051
  0
LINE
  8
CSLAYER1
  6
CONTINUOUS
 62
     7
 10
147.604810
 20
301.430051
 11
147.604810
 21
293.400000
  0
LINE
  8
CSLAYER1
  6
CONTINUOUS
 62
     7
 10
124.324810
 20
302.400000
 11
145.924810
 21
302.400000
  0
LINE
  8
CSLAYER1
  6
CONTINUOUS
 62
     7
 10
122.644810
 20
293.400000
 11
147.604810
 21
293.400000
  0
ARC
  8
CSLAYER1
  6
CONTINUOUS
 62
     7
 10
125.284810
 20
298.322257
 40
4.077742
 50
49.652860
 51
130.347140
  0
ARC
  8
CSLAYER1
  6
CONTINUOUS
 62
     7
 10
135.124810
 20
275.191956
 40
27.208044
 50
74.655173
 51
105.344827
  0
ARC
  8
CSLAYER1
  6
CONTINUOUS
 62
     7
 10
144.964810
 20
298.322257
 40
4.077742
 50
49.652860
 51
130.347140
  0
LINE
  8
CSLAYER1
  6
CONTINUOUS
 62
     7
 10
127.924810
 20
301.430051
 11
127.924810
 21
293.400000
  0
LINE
  8
CSLAYER1
  6
CONTINUOUS
 62
     7
 10
142.324810
 20
301.430051
 11
142.324810
 21
293.400000
  0
LINE
  8
CSLAYER1
  6
CONTINUOUS
 62
     7
 10
142.324810
 20
244.200000
 11
142.324810
 21
233.769948
  0
LINE
  8
CSLAYER1
  6
CONTINUOUS
 62
     7
 10
147.604810
 20
244.200000
 11
147.604810
 21
233.769948
  0
ARC
  8
CSLAYER1
  6
CONTINUOUS
 62
     7
 10
144.964810
 20
236.877742
 40
4.077742
 50
229.652860
 51
310.347140
  0
LINE
  8
CSLAYER1
  6
CONTINUOUS
 62
     7
 10
145.924810
 20
232.800000
 11
147.604810
 21
233.769948
  0
LINE
  8
CSLAYER1
  6
CONTINUOUS
 62
     7
 10
124.324810
 20
232.800000
 11
145.924810
 21
232.800000
  0
ARC
  8
CSLAYER1
  6
CONTINUOUS
 62
     7
 10
125.284810
 20
236.877742
 40
4.077742
 50
229.652860
 51
310.347140
  0
ARC
  8
CSLAYER1
  6
CONTINUOUS
 62
     7
 10
135.124810
 20
260.008044
 40
27.208044
 50
254.655173
 51
285.344827
  0
LINE
  8
CSLAYER1
  6
CONTINUOUS
 62
     7
 10
127.924810
 20
244.200000
 11
127.924810
 21
233.769948
  0
LINE
  8
CSLAYER1
  6
CONTINUOUS
 62
     7
 10
122.644810
 20
244.200000
 11
122.644810
 21
233.769948
  0
LINE
  8
CSLAYER1
  6
CONTINUOUS
 62
     7
 10
124.324810
 20
232.800000
 11
122.644810
 21
233.769948
  0
LINE
  8
CSLAYER1
  6
CONTINUOUS
 62
     7
 10
127.924810
 20
232.800000
 11
127.924810
 21
228.600000
  0
LINE
  8
CSLAYER1
  6
CONTINUOUS
 62
     7
 10
127.924810
 20
228.600000
 11
129.124810
 21
227.400000
  0
LINE
  8
CSLAYER1
  6
CONTINUOUS
 62
     7
 10
128.824810
 20
232.800000
 11
128.824810
 21
227.700000
  0
LINE
  8
CSLAYER1
  6
CONTINUOUS
 62
     7
 10
127.924810
 20
228.600000
 11
142.324810
 21
228.600000
  0
LINE
  8
CSLAYER1
  6
CONTINUOUS
 62
     7
 10
129.124810
 20
227.400000
 11
141.124810
 21
227.400000
  0
LINE
  8
CSLAYER1
  6
CONTINUOUS
 62
     7
 10
141.124810
 20
227.400000
 11
142.324810
 21
228.600000
  0
LINE
  8
CSLAYER1
  6
CONTINUOUS
 62
     7
 10
142.324810
 20
228.600000
 11
142.324810
 21
232.800000
  0
LINE
  8
CSLAYER1
  6
CONTINUOUS
 62
     7
 10
141.424810
 20
227.700000
 11
141.424810
 21
232.800000
  0
LINE
  8
CSLAYER1
  6
CENTER
 62
     2
 10
101.253263
 20
221.400000
 11
101.253263
 21
308.400000
  0
LINE
  8
CSLAYER1
  6
CONTINUOUS
 62
     7
 10
90.453263
 20
302.400000
 11
88.773263
 21
301.430051
  0
LINE
  8
CSLAYER1
  6
CONTINUOUS
 62
     7
 10
88.773263
 20
301.430051
 11
88.773263
 21
293.400000
  0
LINE
  8
CSLAYER1
  6
CONTINUOUS
 62
     7
 10
112.053263
 20
302.400000
 11
113.733263
 21
301.430051
  0
LINE
  8
CSLAYER1
  6
CONTINUOUS
 62
     7
 10
113.733263
 20
301.430051
 11
113.733263
 21
293.400000
  0
LINE
  8
CSLAYER1
  6
CONTINUOUS
 62
     7
 10
90.453263
 20
302.400000
 11
112.053263
 21
302.400000
  0
LINE
  8
CSLAYER1
  6
CONTINUOUS
 62
     7
 10
88.773263
 20
293.400000
 11
113.733263
 21
293.400000
  0
ARC
  8
CSLAYER1
  6
CONTINUOUS
 62
     7
 10
91.413263
 20
298.322257
 40
4.077742
 50
49.652860
 51
130.347140
  0
ARC
  8
CSLAYER1
  6
CONTINUOUS
 62
     7
 10
101.253263
 20
275.191956
 40
27.208044
 50
74.655173
 51
105.344827
  0
ARC
  8
CSLAYER1
  6
CONTINUOUS
 62
     7
 10
111.093263
 20
298.322257
 40
4.077742
 50
49.652860
 51
130.347140
  0
LINE
  8
CSLAYER1
  6
CONTINUOUS
 62
     7
 10
94.053263
 20
301.430051
 11
94.053263
 21
293.400000
  0
LINE
  8
CSLAYER1
  6
CONTINUOUS
 62
     7
 10
108.453263
 20
301.430051
 11
108.453263
 21
293.400000
  0
LINE
  8
CSLAYER1
  6
CONTINUOUS
 62
     7
 10
108.453263
 20
244.200000
 11
108.453263
 21
233.769948
  0
LINE
  8
CSLAYER1
  6
CONTINUOUS
 62
     7
 10
113.733263
 20
244.200000
 11
113.733263
 21
233.769948
  0
ARC
  8
CSLAYER1
  6
CONTINUOUS
 62
     7
 10
111.093263
 20
236.877742
 40
4.077742
 50
229.652860
 51
310.347140
  0
LINE
  8
CSLAYER1
  6
CONTINUOUS
 62
     7
 10
112.053263
 20
232.800000
 11
113.733263
 21
233.769948
  0
LINE
  8
CSLAYER1
  6
CONTINUOUS
 62
     7
 10
90.453263
 20
232.800000
 11
112.053263
 21
232.800000
  0
ARC
  8
CSLAYER1
  6
CONTINUOUS
 62
     7
 10
91.413263
 20
236.877742
 40
4.077742
 50
229.652860
 51
310.347140
  0
ARC
  8
CSLAYER1
  6
CONTINUOUS
 62
     7
 10
101.253263
 20
260.008044
 40
27.208044
 50
254.655173
 51
285.344827
  0
LINE
  8
CSLAYER1
  6
CONTINUOUS
 62
     7
 10
94.053263
 20
244.200000
 11
94.053263
 21
233.769948
  0
LINE
  8
CSLAYER1
  6
CONTINUOUS
 62
     7
 10
88.773263
 20
244.200000
 11
88.773263
 21
233.769948
  0
LINE
  8
CSLAYER1
  6
CONTINUOUS
 62
     7
 10
90.453263
 20
232.800000
 11
88.773263
 21
233.769948
  0
LINE
  8
CSLAYER1
  6
CONTINUOUS
 62
     7
 10
94.053263
 20
232.800000
 11
94.053263
 21
228.600000
  0
LINE
  8
CSLAYER1
  6
CONTINUOUS
 62
     7
 10
94.053263
 20
228.600000
 11
95.253263
 21
227.400000
  0
LINE
  8
CSLAYER1
  6
CONTINUOUS
 62
     7
 10
94.953263
 20
232.800000
 11
94.953263
 21
227.700000
  0
LINE
  8
CSLAYER1
  6
CONTINUOUS
 62
     7
 10
94.053263
 20
228.600000
 11
108.453263
 21
228.600000
  0
LINE
  8
CSLAYER1
  6
CONTINUOUS
 62
     7
 10
95.253263
 20
227.400000
 11
107.253263
 21
227.400000
  0
LINE
  8
CSLAYER1
  6
CONTINUOUS
 62
     7
 10
107.253263
 20
227.400000
 11
108.453263
 21
228.600000
  0
LINE
  8
CSLAYER1
  6
CONTINUOUS
 62
     7
 10
108.453263
 20
228.600000
 11
108.453263
 21
232.800000
  0
LINE
  8
CSLAYER1
  6
CONTINUOUS
 62
     7
 10
107.553263
 20
227.700000
 11
107.553263
 21
232.800000
  0
LINE
  8
CSLAYER1
  6
CENTER
 62
     2
 10
83.720060
 20
221.400000
 11
83.720060
 21
308.400000
  0
LINE
  8
CSLAYER1
  6
CONTINUOUS
 62
     7
 10
72.920060
 20
302.400000
 11
71.240060
 21
301.430051
  0
LINE
  8
CSLAYER1
  6
CONTINUOUS
 62
     7
 10
71.240060
 20
301.430051
 11
71.240060
 21
293.400000
  0
LINE
  8
CSLAYER1
  6
CONTINUOUS
 62
     7
 10
72.920060
 20
302.400000
 11
94.520060
 21
302.400000
  0
LINE
  8
CSLAYER1
  6
CONTINUOUS
 62
     7
 10
71.240060
 20
293.400000
 11
96.200060
 21
293.400000
  0
ARC
  8
CSLAYER1
  6
CONTINUOUS
 62
     7
 10
73.880060
 20
298.322257
 40
4.077742
 50
49.652860
 51
130.347140
  0
ARC
  8
CSLAYER1
  6
CONTINUOUS
 62
     7
 10
83.720060
 20
275.191956
 40
27.208044
 50
77.926846
 51
105.344827
  0
LINE
  8
CSLAYER1
  6
CONTINUOUS
 62
     7
 10
76.520060
 20
301.430051
 11
76.520060
 21
293.400000
  0
LINE
  8
CSLAYER1
  6
CONTINUOUS
 62
     7
 10
72.920060
 20
232.800000
 11
94.520060
 21
232.800000
  0
ARC
  8
CSLAYER1
  6
CONTINUOUS
 62
     7
 10
73.880060
 20
236.877742
 40
4.077742
 50
229.652860
 51
310.347140
  0
ARC
  8
CSLAYER1
  6
CONTINUOUS
 62
     7
 10
83.720060
 20
260.008044
 40
27.208044
 50
254.655173
 51
281.866182
  0
LINE
  8
CSLAYER1
  6
CONTINUOUS
 62
     7
 10
76.520060
 20
244.200000
 11
76.520060
 21
233.769948
  0
LINE
  8
CSLAYER1
  6
CONTINUOUS
 62
     7
 10
71.240060
 20
244.200000
 11
71.240060
 21
233.769948
  0
LINE
  8
CSLAYER1
  6
CONTINUOUS
 62
     7
 10
72.920060
 20
232.800000
 11
71.240060
 21
233.769948
  0
LINE
  8
CSLAYER1
  6
CONTINUOUS
 62
     7
 10
76.520060
 20
232.800000
 11
76.520060
 21
228.600000
  0
LINE
  8
CSLAYER1
  6
CONTINUOUS
 62
     7
 10
76.520060
 20
228.600000
 11
77.720060
 21
227.400000
  0
LINE
  8
CSLAYER1
  6
CONTINUOUS
 62
     7
 10
77.420060
 20
232.800000
 11
77.420060
 21
227.700000
  0
LINE
  8
CSLAYER1
  6
CONTINUOUS
 62
     7
 10
76.520060
 20
228.600000
 11
90.920060
 21
228.600000
  0
LINE
  8
CSLAYER1
  6
CONTINUOUS
 62
     7
 10
77.720060
 20
227.400000
 11
89.720060
 21
227.400000
  0
LINE
  8
CSLAYER1
  6
CONTINUOUS
 62
     7
 10
89.720060
 20
227.400000
 11
90.920060
 21
228.600000
  0
LINE
  8
CSLAYER1
  6
CONTINUOUS
 62
     7
 10
90.920060
 20
228.600000
 11
90.920060
 21
232.800000
  0
LINE
  8
CSLAYER1
  6
CONTINUOUS
 62
     7
 10
90.020060
 20
227.700000
 11
90.020060
 21
232.800000
  0
LINE
  8
CSLAYER1
  6
CONTINUOUS
 62
     7
 10
615.200002
 20
244.200000
 11
341.000002
 21
244.200000
  0
LINE
  8
CSLAYER1
  6
CONTINUOUS
 62
     7
 10
590.000002
 20
268.200000
 11
590.000002
 21
269.400000
  0
LINE
  8
CSLAYER1
  6
CENTER
 62
     2
 10
374.871549
 20
221.400000
 11
374.871549
 21
308.400000
  0
LINE
  8
CSLAYER1
  6
CONTINUOUS
 62
     7
 10
385.671549
 20
302.400000
 11
387.351549
 21
301.430051
  0
LINE
  8
CSLAYER1
  6
CONTINUOUS
 62
     7
 10
387.351549
 20
301.430051
 11
387.351549
 21
293.400000
  0
LINE
  8
CSLAYER1
  6
CONTINUOUS
 62
     7
 10
364.071549
 20
302.400000
 11
362.391549
 21
301.430051
  0
LINE
  8
CSLAYER1
  6
CONTINUOUS
 62
     7
 10
362.391549
 20
301.430051
 11
362.391549
 21
293.400000
  0
LINE
  8
CSLAYER1
  6
CONTINUOUS
 62
     7
 10
385.671549
 20
302.400000
 11
364.071549
 21
302.400000
  0
LINE
  8
CSLAYER1
  6
CONTINUOUS
 62
     7
 10
387.351549
 20
293.400000
 11
362.391549
 21
293.400000
  0
ARC
  8
CSLAYER1
  6
CONTINUOUS
 62
     7
 10
384.711549
 20
298.322257
 40
4.077742
 50
49.652860
 51
130.347140
  0
ARC
  8
CSLAYER1
  6
CONTINUOUS
 62
     7
 10
374.871549
 20
275.191956
 40
27.208044
 50
74.655173
 51
105.344827
  0
ARC
  8
CSLAYER1
  6
CONTINUOUS
 62
     7
 10
365.031549
 20
298.322257
 40
4.077742
 50
49.652860
 51
130.347140
  0
LINE
  8
CSLAYER1
  6
CONTINUOUS
 62
     7
 10
382.071549
 20
301.430051
 11
382.071549
 21
293.400000
  0
LINE
  8
CSLAYER1
  6
CONTINUOUS
 62
     7
 10
367.671549
 20
301.430051
 11
367.671549
 21
293.400000
  0
LINE
  8
CSLAYER1
  6
CONTINUOUS
 62
     7
 10
367.671549
 20
244.200000
 11
367.671549
 21
233.769948
  0
LINE
  8
CSLAYER1
  6
CONTINUOUS
 62
     7
 10
362.391549
 20
244.200000
 11
362.391549
 21
233.769948
  0
ARC
  8
CSLAYER1
  6
CONTINUOUS
 62
     7
 10
365.031549
 20
236.877742
 40
4.077742
 50
229.652860
 51
310.347140
  0
LINE
  8
CSLAYER1
  6
CONTINUOUS
 62
     7
 10
364.071549
 20
232.800000
 11
362.391549
 21
233.769948
  0
LINE
  8
CSLAYER1
  6
CONTINUOUS
 62
     7
 10
385.671549
 20
232.800000
 11
364.071549
 21
232.800000
  0
ARC
  8
CSLAYER1
  6
CONTINUOUS
 62
     7
 10
384.711549
 20
236.877742
 40
4.077742
 50
229.652860
 51
310.347140
  0
ARC
  8
CSLAYER1
  6
CONTINUOUS
 62
     7
 10
374.871549
 20
260.008044
 40
27.208044
 50
254.655173
 51
285.344827
  0
LINE
  8
CSLAYER1
  6
CONTINUOUS
 62
     7
 10
382.071549
 20
244.200000
 11
382.071549
 21
233.769948
  0
LINE
  8
CSLAYER1
  6
CONTINUOUS
 62
     7
 10
387.351549
 20
244.200000
 11
387.351549
 21
233.769948
  0
LINE
  8
CSLAYER1
  6
CONTINUOUS
 62
     7
 10
385.671549
 20
232.800000
 11
387.351549
 21
233.769948
  0
LINE
  8
CSLAYER1
  6
CONTINUOUS
 62
     7
 10
382.071549
 20
232.800000
 11
382.071549
 21
228.600000
  0
LINE
  8
CSLAYER1
  6
CONTINUOUS
 62
     7
 10
382.071549
 20
228.600000
 11
380.871549
 21
227.400000
  0
LINE
  8
CSLAYER1
  6
CONTINUOUS
 62
     7
 10
381.171549
 20
232.800000
 11
381.171549
 21
227.700000
  0
LINE
  8
CSLAYER1
  6
CONTINUOUS
 62
     7
 10
382.071549
 20
228.600000
 11
367.671549
 21
228.600000
  0
LINE
  8
CSLAYER1
  6
CONTINUOUS
 62
     7
 10
380.871549
 20
227.400000
 11
368.871549
 21
227.400000
  0
LINE
  8
CSLAYER1
  6
CONTINUOUS
 62
     7
 10
368.871549
 20
227.400000
 11
367.671549
 21
228.600000
  0
LINE
  8
CSLAYER1
  6
CONTINUOUS
 62
     7
 10
367.671549
 20
228.600000
 11
367.671549
 21
232.800000
  0
LINE
  8
CSLAYER1
  6
CONTINUOUS
 62
     7
 10
368.571549
 20
227.700000
 11
368.571549
 21
232.800000
  0
LINE
  8
CSLAYER1
  6
CENTER
 62
     2
 10
440.306353
 20
221.400000
 11
440.306353
 21
308.400000
  0
LINE
  8
CSLAYER1
  6
CONTINUOUS
 62
     7
 10
451.106353
 20
302.400000
 11
452.786353
 21
301.430051
  0
LINE
  8
CSLAYER1
  6
CONTINUOUS
 62
     7
 10
452.786353
 20
301.430051
 11
452.786353
 21
293.400000
  0
LINE
  8
CSLAYER1
  6
CONTINUOUS
 62
     7
 10
429.506353
 20
302.400000
 11
427.826353
 21
301.430051
  0
LINE
  8
CSLAYER1
  6
CONTINUOUS
 62
     7
 10
427.826353
 20
301.430051
 11
427.826353
 21
293.400000
  0
LINE
  8
CSLAYER1
  6
CONTINUOUS
 62
     7
 10
451.106353
 20
302.400000
 11
429.506353
 21
302.400000
  0
LINE
  8
CSLAYER1
  6
CONTINUOUS
 62
     7
 10
452.786353
 20
293.400000
 11
427.826353
 21
293.400000
  0
ARC
  8
CSLAYER1
  6
CONTINUOUS
 62
     7
 10
450.146353
 20
298.322257
 40
4.077742
 50
49.652860
 51
130.347140
  0
ARC
  8
CSLAYER1
  6
CONTINUOUS
 62
     7
 10
440.306353
 20
275.191956
 40
27.208044
 50
74.655173
 51
105.344827
  0
ARC
  8
CSLAYER1
  6
CONTINUOUS
 62
     7
 10
430.466353
 20
298.322257
 40
4.077742
 50
49.652860
 51
130.347140
  0
LINE
  8
CSLAYER1
  6
CONTINUOUS
 62
     7
 10
447.506353
 20
301.430051
 11
447.506353
 21
293.400000
  0
LINE
  8
CSLAYER1
  6
CONTINUOUS
 62
     7
 10
433.106353
 20
301.430051
 11
433.106353
 21
293.400000
  0
LINE
  8
CSLAYER1
  6
CONTINUOUS
 62
     7
 10
433.106353
 20
244.200000
 11
433.106353
 21
233.769948
  0
LINE
  8
CSLAYER1
  6
CONTINUOUS
 62
     7
 10
427.826353
 20
244.200000
 11
427.826353
 21
233.769948
  0
ARC
  8
CSLAYER1
  6
CONTINUOUS
 62
     7
 10
430.466353
 20
236.877742
 40
4.077742
 50
229.652860
 51
310.347140
  0
LINE
  8
CSLAYER1
  6
CONTINUOUS
 62
     7
 10
429.506353
 20
232.800000
 11
427.826353
 21
233.769948
  0
LINE
  8
CSLAYER1
  6
CONTINUOUS
 62
     7
 10
451.106353
 20
232.800000
 11
429.506353
 21
232.800000
  0
ARC
  8
CSLAYER1
  6
CONTINUOUS
 62
     7
 10
450.146353
 20
236.877742
 40
4.077742
 50
229.652860
 51
310.347140
  0
ARC
  8
CSLAYER1
  6
CONTINUOUS
 62
     7
 10
440.306353
 20
260.008044
 40
27.208044
 50
254.655173
 51
285.344827
  0
LINE
  8
CSLAYER1
  6
CONTINUOUS
 62
     7
 10
447.506353
 20
244.200000
 11
447.506353
 21
233.769948
  0
LINE
  8
CSLAYER1
  6
CONTINUOUS
 62
     7
 10
452.786353
 20
244.200000
 11
452.786353
 21
233.769948
  0
LINE
  8
CSLAYER1
  6
CONTINUOUS
 62
     7
 10
451.106353
 20
232.800000
 11
452.786353
 21
233.769948
  0
LINE
  8
CSLAYER1
  6
CONTINUOUS
 62
     7
 10
447.506353
 20
232.800000
 11
447.506353
 21
228.600000
  0
LINE
  8
CSLAYER1
  6
CONTINUOUS
 62
     7
 10
447.506353
 20
228.600000
 11
446.306353
 21
227.400000
  0
LINE
  8
CSLAYER1
  6
CONTINUOUS
 62
     7
 10
446.606353
 20
232.800000
 11
446.606353
 21
227.700000
  0
LINE
  8
CSLAYER1
  6
CONTINUOUS
 62
     7
 10
447.506353
 20
228.600000
 11
433.106353
 21
228.600000
  0
LINE
  8
CSLAYER1
  6
CONTINUOUS
 62
     7
 10
446.306353
 20
227.400000
 11
434.306353
 21
227.400000
  0
LINE
  8
CSLAYER1
  6
CONTINUOUS
 62
     7
 10
434.306353
 20
227.400000
 11
433.106353
 21
228.600000
  0
LINE
  8
CSLAYER1
  6
CONTINUOUS
 62
     7
 10
433.106353
 20
228.600000
 11
433.106353
 21
232.800000
  0
LINE
  8
CSLAYER1
  6
CONTINUOUS
 62
     7
 10
434.006353
 20
227.700000
 11
434.006353
 21
232.800000
  0
LINE
  8
CSLAYER1
  6
CENTER
 62
     2
 10
498.973593
 20
221.400000
 11
498.973593
 21
308.400000
  0
LINE
  8
CSLAYER1
  6
CONTINUOUS
 62
     7
 10
509.773593
 20
302.400000
 11
511.453593
 21
301.430051
  0
LINE
  8
CSLAYER1
  6
CONTINUOUS
 62
     7
 10
511.453593
 20
301.430051
 11
511.453593
 21
293.400000
  0
LINE
  8
CSLAYER1
  6
CONTINUOUS
 62
     7
 10
488.173593
 20
302.400000
 11
486.493593
 21
301.430051
  0
LINE
  8
CSLAYER1
  6
CONTINUOUS
 62
     7
 10
486.493593
 20
301.430051
 11
486.493593
 21
293.400000
  0
LINE
  8
CSLAYER1
  6
CONTINUOUS
 62
     7
 10
509.773593
 20
302.400000
 11
488.173593
 21
302.400000
  0
LINE
  8
CSLAYER1
  6
CONTINUOUS
 62
     7
 10
511.453593
 20
293.400000
 11
486.493593
 21
293.400000
  0
ARC
  8
CSLAYER1
  6
CONTINUOUS
 62
     7
 10
508.813593
 20
298.322257
 40
4.077742
 50
49.652860
 51
130.347140
  0
ARC
  8
CSLAYER1
  6
CONTINUOUS
 62
     7
 10
498.973593
 20
275.191956
 40
27.208044
 50
74.655173
 51
105.344827
  0
ARC
  8
CSLAYER1
  6
CONTINUOUS
 62
     7
 10
489.133593
 20
298.322257
 40
4.077742
 50
49.652860
 51
130.347140
  0
LINE
  8
CSLAYER1
  6
CONTINUOUS
 62
     7
 10
506.173593
 20
301.430051
 11
506.173593
 21
293.400000
  0
LINE
  8
CSLAYER1
  6
CONTINUOUS
 62
     7
 10
491.773593
 20
301.430051
 11
491.773593
 21
293.400000
  0
LINE
  8
CSLAYER1
  6
CONTINUOUS
 62
     7
 10
491.773593
 20
244.200000
 11
491.773593
 21
233.769948
  0
LINE
  8
CSLAYER1
  6
CONTINUOUS
 62
     7
 10
486.493593
 20
244.200000
 11
486.493593
 21
233.769948
  0
ARC
  8
CSLAYER1
  6
CONTINUOUS
 62
     7
 10
489.133593
 20
236.877742
 40
4.077742
 50
229.652860
 51
310.347140
  0
LINE
  8
CSLAYER1
  6
CONTINUOUS
 62
     7
 10
488.173593
 20
232.800000
 11
486.493593
 21
233.769948
  0
LINE
  8
CSLAYER1
  6
CONTINUOUS
 62
     7
 10
509.773593
 20
232.800000
 11
488.173593
 21
232.800000
  0
ARC
  8
CSLAYER1
  6
CONTINUOUS
 62
     7
 10
508.813593
 20
236.877742
 40
4.077742
 50
229.652860
 51
310.347140
  0
ARC
  8
CSLAYER1
  6
CONTINUOUS
 62
     7
 10
498.973593
 20
260.008044
 40
27.208044
 50
254.655173
 51
285.344827
  0
LINE
  8
CSLAYER1
  6
CONTINUOUS
 62
     7
 10
506.173593
 20
244.200000
 11
506.173593
 21
233.769948
  0
LINE
  8
CSLAYER1
  6
CONTINUOUS
 62
     7
 10
511.453593
 20
244.200000
 11
511.453593
 21
233.769948
  0
LINE
  8
CSLAYER1
  6
CONTINUOUS
 62
     7
 10
509.773593
 20
232.800000
 11
511.453593
 21
233.769948
  0
LINE
  8
CSLAYER1
  6
CONTINUOUS
 62
     7
 10
506.173593
 20
232.800000
 11
506.173593
 21
228.600000
  0
LINE
  8
CSLAYER1
  6
CONTINUOUS
 62
     7
 10
506.173593
 20
228.600000
 11
504.973593
 21
227.400000
  0
LINE
  8
CSLAYER1
  6
CONTINUOUS
 62
     7
 10
505.273593
 20
232.800000
 11
505.273593
 21
227.700000
  0
LINE
  8
CSLAYER1
  6
CONTINUOUS
 62
     7
 10
506.173593
 20
228.600000
 11
491.773593
 21
228.600000
  0
LINE
  8
CSLAYER1
  6
CONTINUOUS
 62
     7
 10
504.973593
 20
227.400000
 11
492.973593
 21
227.400000
  0
LINE
  8
CSLAYER1
  6
CONTINUOUS
 62
     7
 10
492.973593
 20
227.400000
 11
491.773593
 21
228.600000
  0
LINE
  8
CSLAYER1
  6
CONTINUOUS
 62
     7
 10
491.773593
 20
228.600000
 11
491.773593
 21
232.800000
  0
LINE
  8
CSLAYER1
  6
CONTINUOUS
 62
     7
 10
492.673593
 20
227.700000
 11
492.673593
 21
232.800000
  0
LINE
  8
CSLAYER1
  6
CENTER
 62
     2
 10
546.875194
 20
221.400000
 11
546.875194
 21
308.400000
  0
LINE
  8
CSLAYER1
  6
CONTINUOUS
 62
     7
 10
557.675194
 20
302.400000
 11
559.355194
 21
301.430051
  0
LINE
  8
CSLAYER1
  6
CONTINUOUS
 62
     7
 10
559.355194
 20
301.430051
 11
559.355194
 21
293.400000
  0
LINE
  8
CSLAYER1
  6
CONTINUOUS
 62
     7
 10
536.075194
 20
302.400000
 11
534.395194
 21
301.430051
  0
LINE
  8
CSLAYER1
  6
CONTINUOUS
 62
     7
 10
534.395194
 20
301.430051
 11
534.395194
 21
293.400000
  0
LINE
  8
CSLAYER1
  6
CONTINUOUS
 62
     7
 10
557.675194
 20
302.400000
 11
536.075194
 21
302.400000
  0
LINE
  8
CSLAYER1
  6
CONTINUOUS
 62
     7
 10
559.355194
 20
293.400000
 11
534.395194
 21
293.400000
  0
ARC
  8
CSLAYER1
  6
CONTINUOUS
 62
     7
 10
556.715194
 20
298.322257
 40
4.077742
 50
49.652860
 51
130.347140
  0
ARC
  8
CSLAYER1
  6
CONTINUOUS
 62
     7
 10
546.875194
 20
275.191956
 40
27.208044
 50
74.655173
 51
105.344827
  0
ARC
  8
CSLAYER1
  6
CONTINUOUS
 62
     7
 10
537.035194
 20
298.322257
 40
4.077742
 50
49.652860
 51
130.347140
  0
LINE
  8
CSLAYER1
  6
CONTINUOUS
 62
     7
 10
554.075194
 20
301.430051
 11
554.075194
 21
293.400000
  0
LINE
  8
CSLAYER1
  6
CONTINUOUS
 62
     7
 10
539.675194
 20
301.430051
 11
539.675194
 21
293.400000
  0
LINE
  8
CSLAYER1
  6
CONTINUOUS
 62
     7
 10
539.675194
 20
244.200000
 11
539.675194
 21
233.769948
  0
LINE
  8
CSLAYER1
  6
CONTINUOUS
 62
     7
 10
534.395194
 20
244.200000
 11
534.395194
 21
233.769948
  0
ARC
  8
CSLAYER1
  6
CONTINUOUS
 62
     7
 10
537.035194
 20
236.877742
 40
4.077742
 50
229.652860
 51
310.347140
  0
LINE
  8
CSLAYER1
  6
CONTINUOUS
 62
     7
 10
536.075194
 20
232.800000
 11
534.395194
 21
233.769948
  0
LINE
  8
CSLAYER1
  6
CONTINUOUS
 62
     7
 10
557.675194
 20
232.800000
 11
536.075194
 21
232.800000
  0
ARC
  8
CSLAYER1
  6
CONTINUOUS
 62
     7
 10
556.715194
 20
236.877742
 40
4.077742
 50
229.652860
 51
310.347140
  0
ARC
  8
CSLAYER1
  6
CONTINUOUS
 62
     7
 10
546.875194
 20
260.008044
 40
27.208044
 50
254.655173
 51
285.344827
  0
LINE
  8
CSLAYER1
  6
CONTINUOUS
 62
     7
 10
554.075194
 20
244.200000
 11
554.075194
 21
233.769948
  0
LINE
  8
CSLAYER1
  6
CONTINUOUS
 62
     7
 10
559.355194
 20
244.200000
 11
559.355194
 21
233.769948
  0
LINE
  8
CSLAYER1
  6
CONTINUOUS
 62
     7
 10
557.675194
 20
232.800000
 11
559.355194
 21
233.769948
  0
LINE
  8
CSLAYER1
  6
CONTINUOUS
 62
     7
 10
554.075194
 20
232.800000
 11
554.075194
 21
228.600000
  0
LINE
  8
CSLAYER1
  6
CONTINUOUS
 62
     7
 10
554.075194
 20
228.600000
 11
552.875194
 21
227.400000
  0
LINE
  8
CSLAYER1
  6
CONTINUOUS
 62
     7
 10
553.175194
 20
232.800000
 11
553.175194
 21
227.700000
  0
LINE
  8
CSLAYER1
  6
CONTINUOUS
 62
     7
 10
554.075194
 20
228.600000
 11
539.675194
 21
228.600000
  0
LINE
  8
CSLAYER1
  6
CONTINUOUS
 62
     7
 10
552.875194
 20
227.400000
 11
540.875194
 21
227.400000
  0
LINE
  8
CSLAYER1
  6
CONTINUOUS
 62
     7
 10
540.875194
 20
227.400000
 11
539.675194
 21
228.600000
  0
LINE
  8
CSLAYER1
  6
CONTINUOUS
 62
     7
 10
539.675194
 20
228.600000
 11
539.675194
 21
232.800000
  0
LINE
  8
CSLAYER1
  6
CONTINUOUS
 62
     7
 10
540.575194
 20
227.700000
 11
540.575194
 21
232.800000
  0
LINE
  8
CSLAYER1
  6
CENTER
 62
     2
 10
580.746741
 20
221.400000
 11
580.746741
 21
308.400000
  0
LINE
  8
CSLAYER1
  6
CONTINUOUS
 62
     7
 10
591.546741
 20
302.400000
 11
593.226741
 21
301.430051
  0
LINE
  8
CSLAYER1
  6
CONTINUOUS
 62
     7
 10
593.226741
 20
301.430051
 11
593.226741
 21
293.400000
  0
LINE
  8
CSLAYER1
  6
CONTINUOUS
 62
     7
 10
569.946741
 20
302.400000
 11
568.266741
 21
301.430051
  0
LINE
  8
CSLAYER1
  6
CONTINUOUS
 62
     7
 10
568.266741
 20
301.430051
 11
568.266741
 21
293.400000
  0
LINE
  8
CSLAYER1
  6
CONTINUOUS
 62
     7
 10
591.546741
 20
302.400000
 11
569.946741
 21
302.400000
  0
LINE
  8
CSLAYER1
  6
CONTINUOUS
 62
     7
 10
593.226741
 20
293.400000
 11
568.266741
 21
293.400000
  0
ARC
  8
CSLAYER1
  6
CONTINUOUS
 62
     7
 10
590.586741
 20
298.322257
 40
4.077742
 50
49.652860
 51
130.347140
  0
ARC
  8
CSLAYER1
  6
CONTINUOUS
 62
     7
 10
580.746741
 20
275.191956
 40
27.208044
 50
74.655173
 51
105.344827
  0
ARC
  8
CSLAYER1
  6
CONTINUOUS
 62
     7
 10
570.906741
 20
298.322257
 40
4.077742
 50
49.652860
 51
130.347140
  0
LINE
  8
CSLAYER1
  6
CONTINUOUS
 62
     7
 10
587.946741
 20
301.430051
 11
587.946741
 21
293.400000
  0
LINE
  8
CSLAYER1
  6
CONTINUOUS
 62
     7
 10
573.546741
 20
301.430051
 11
573.546741
 21
293.400000
  0
LINE
  8
CSLAYER1
  6
CONTINUOUS
 62
     7
 10
573.546741
 20
244.200000
 11
573.546741
 21
233.769948
  0
LINE
  8
CSLAYER1
  6
CONTINUOUS
 62
     7
 10
568.266741
 20
244.200000
 11
568.266741
 21
233.769948
  0
ARC
  8
CSLAYER1
  6
CONTINUOUS
 62
     7
 10
570.906741
 20
236.877742
 40
4.077742
 50
229.652860
 51
310.347140
  0
LINE
  8
CSLAYER1
  6
CONTINUOUS
 62
     7
 10
569.946741
 20
232.800000
 11
568.266741
 21
233.769948
  0
LINE
  8
CSLAYER1
  6
CONTINUOUS
 62
     7
 10
591.546741
 20
232.800000
 11
569.946741
 21
232.800000
  0
ARC
  8
CSLAYER1
  6
CONTINUOUS
 62
     7
 10
590.586741
 20
236.877742
 40
4.077742
 50
229.652860
 51
310.347140
  0
ARC
  8
CSLAYER1
  6
CONTINUOUS
 62
     7
 10
580.746741
 20
260.008044
 40
27.208044
 50
254.655173
 51
285.344827
  0
LINE
  8
CSLAYER1
  6
CONTINUOUS
 62
     7
 10
587.946741
 20
244.200000
 11
587.946741
 21
233.769948
  0
LINE
  8
CSLAYER1
  6
CONTINUOUS
 62
     7
 10
593.226741
 20
244.200000
 11
593.226741
 21
233.769948
  0
LINE
  8
CSLAYER1
  6
CONTINUOUS
 62
     7
 10
591.546741
 20
232.800000
 11
593.226741
 21
233.769948
  0
LINE
  8
CSLAYER1
  6
CONTINUOUS
 62
     7
 10
587.946741
 20
232.800000
 11
587.946741
 21
228.600000
  0
LINE
  8
CSLAYER1
  6
CONTINUOUS
 62
     7
 10
587.946741
 20
228.600000
 11
586.746741
 21
227.400000
  0
LINE
  8
CSLAYER1
  6
CONTINUOUS
 62
     7
 10
587.046741
 20
232.800000
 11
587.046741
 21
227.700000
  0
LINE
  8
CSLAYER1
  6
CONTINUOUS
 62
     7
 10
587.946741
 20
228.600000
 11
573.546741
 21
228.600000
  0
LINE
  8
CSLAYER1
  6
CONTINUOUS
 62
     7
 10
586.746741
 20
227.400000
 11
574.746741
 21
227.400000
  0
LINE
  8
CSLAYER1
  6
CONTINUOUS
 62
     7
 10
574.746741
 20
227.400000
 11
573.546741
 21
228.600000
  0
LINE
  8
CSLAYER1
  6
CONTINUOUS
 62
     7
 10
573.546741
 20
228.600000
 11
573.546741
 21
232.800000
  0
LINE
  8
CSLAYER1
  6
CONTINUOUS
 62
     7
 10
574.446741
 20
227.700000
 11
574.446741
 21
232.800000
  0
LINE
  8
CSLAYER1
  6
CENTER
 62
     2
 10
598.279943
 20
221.400000
 11
598.279943
 21
308.400000
  0
LINE
  8
CSLAYER1
  6
CONTINUOUS
 62
     7
 10
609.079943
 20
302.400000
 11
610.759943
 21
301.430051
  0
LINE
  8
CSLAYER1
  6
CONTINUOUS
 62
     7
 10
610.759943
 20
301.430051
 11
610.759943
 21
293.400000
  0
LINE
  8
CSLAYER1
  6
CONTINUOUS
 62
     7
 10
609.079943
 20
302.400000
 11
587.479943
 21
302.400000
  0
LINE
  8
CSLAYER1
  6
CONTINUOUS
 62
     7
 10
610.759943
 20
293.400000
 11
585.799943
 21
293.400000
  0
ARC
  8
CSLAYER1
  6
CONTINUOUS
 62
     7
 10
608.119943
 20
298.322257
 40
4.077742
 50
49.652860
 51
130.347140
  0
ARC
  8
CSLAYER1
  6
CONTINUOUS
 62
     7
 10
598.279943
 20
275.191956
 40
27.208044
 50
74.655173
 51
102.073154
  0
LINE
  8
CSLAYER1
  6
CONTINUOUS
 62
     7
 10
605.479943
 20
301.430051
 11
605.479943
 21
293.400000
  0
LINE
  8
CSLAYER1
  6
CONTINUOUS
 62
     7
 10
609.079943
 20
232.800000
 11
587.479943
 21
232.800000
  0
ARC
  8
CSLAYER1
  6
CONTINUOUS
 62
     7
 10
608.119943
 20
236.877742
 40
4.077742
 50
229.652860
 51
310.347140
  0
ARC
  8
CSLAYER1
  6
CONTINUOUS
 62
     7
 10
598.279943
 20
260.008044
 40
27.208044
 50
258.133818
 51
285.344827
  0
LINE
  8
CSLAYER1
  6
CONTINUOUS
 62
     7
 10
605.479943
 20
244.200000
 11
605.479943
 21
233.769948
  0
LINE
  8
CSLAYER1
  6
CONTINUOUS
 62
     7
 10
610.759943
 20
244.200000
 11
610.759943
 21
233.769948
  0
LINE
  8
CSLAYER1
  6
CONTINUOUS
 62
     7
 10
609.079943
 20
232.800000
 11
610.759943
 21
233.769948
  0
LINE
  8
CSLAYER1
  6
CONTINUOUS
 62
     7
 10
605.479943
 20
232.800000
 11
605.479943
 21
228.600000
  0
LINE
  8
CSLAYER1
  6
CONTINUOUS
 62
     7
 10
605.479943
 20
228.600000
 11
604.279943
 21
227.400000
  0
LINE
  8
CSLAYER1
  6
CONTINUOUS
 62
     7
 10
604.579943
 20
232.800000
 11
604.579943
 21
227.700000
  0
LINE
  8
CSLAYER1
  6
CONTINUOUS
 62
     7
 10
605.479943
 20
228.600000
 11
591.079943
 21
228.600000
  0
LINE
  8
CSLAYER1
  6
CONTINUOUS
 62
     7
 10
604.279943
 20
227.400000
 11
592.279943
 21
227.400000
  0
LINE
  8
CSLAYER1
  6
CONTINUOUS
 62
     7
 10
592.279943
 20
227.400000
 11
591.079943
 21
228.600000
  0
LINE
  8
CSLAYER1
  6
CONTINUOUS
 62
     7
 10
591.079943
 20
228.600000
 11
591.079943
 21
232.800000
  0
LINE
  8
CSLAYER1
  6
CONTINUOUS
 62
     7
 10
591.979943
 20
227.700000
 11
591.979943
 21
232.800000
  0
LINE
  8
CSLAYER1
  6
CONTINUOUS
 62
     7
 10
1342.284133
 20
302.400000
 11
1342.284133
 21
377.400000
  0
LINE
  8
CSLAYER1
  6
CENTER
 62
     2
 10
1100.484133
 20
663.000000
 11
1100.484133
 21
39.000000
  0
ARC
  8
CSLAYER1
  6
CONTINUOUS
 62
     7
 10
1282.884133
 20
169.202400
 40
15.000000
 50
90.458371
 51
180.000000
  0
ARC
  8
CSLAYER1
  6
CONTINUOUS
 62
     7
 10
1282.284133
 20
244.200000
 40
60.000000
 50
270.458371
 51
343.739795
  0
LINE
  8
CSLAYER1
  6
CONTINUOUS
 62
     7
 10
1342.284133
 20
377.400000
 11
1342.284133
 21
444.600000
  0
LINE
  8
CSLAYER1
  6
CONTINUOUS
 62
     7
 10
1100.484133
 20
485.400000
 11
825.384133
 21
485.400000
  0
LINE
  8
CSLAYER1
  6
CONTINUOUS
 62
     7
 10
824.484133
 20
484.500000
 11
824.484133
 21
463.200000
  0
LINE
  8
CSLAYER1
  6
CONTINUOUS
 62
     7
 10
826.284133
 20
461.400000
 11
1100.484133
 21
461.400000
  0
LINE
  8
CSLAYER1
  6
CONTINUOUS
 62
     7
 10
851.484133
 20
269.400000
 11
851.484133
 21
268.200000
  0
LINE
  8
CSLAYER1
  6
CONTINUOUS
 62
     7
 10
1058.607844
 20
269.400000
 11
1036.584133
 21
269.400000
  0
LINE
  8
CSLAYER1
  6
CONTINUOUS
 62
     7
 10
824.484133
 20
270.300000
 11
824.484133
 21
291.600000
  0
LINE
  8
CSLAYER1
  6
CONTINUOUS
 62
     7
 10
826.284133
 20
293.400000
 11
996.164170
 21
293.400000
  0
LINE
  8
CSLAYER1
  6
CONTINUOUS
 62
     7
 10
858.684133
 20
302.400000
 11
858.684133
 21
444.600000
  0
LINE
  8
CSLAYER1
  6
CONTINUOUS
 62
     7
 10
824.484133
 20
463.200000
 11
826.284133
 21
461.400000
  0
LINE
  8
CSLAYER1
  6
CONTINUOUS
 62
     7
 10
824.484133
 20
291.600000
 11
826.284133
 21
293.400000
  0
LINE
  8
CSLAYER1
  6
CONTINUOUS
 62
     7
 10
824.484133
 20
270.300000
 11
825.384133
 21
269.400000
  0
LINE
  8
CSLAYER1
  6
CONTINUOUS
 62
     7
 10
825.384133
 20
485.400000
 11
824.484133
 21
484.500000
  0
LINE
  8
CSLAYER1
  6
CONTINUOUS
 62
     7
 10
1100.484133
 20
651.000000
 11
898.884133
 21
651.000000
  0
LINE
  8
CSLAYER1
  6
CONTINUOUS
 62
     7
 10
897.984133
 20
650.100000
 11
897.984133
 21
628.800000
  0
LINE
  8
CSLAYER1
  6
CONTINUOUS
 62
     7
 10
1100.484133
 20
627.000000
 11
899.784133
 21
627.000000
  0
LINE
  8
CSLAYER1
  6
CONTINUOUS
 62
     7
 10
851.484133
 20
485.400000
 11
851.484133
 21
486.600000
  0
LINE
  8
CSLAYER1
  6
CONTINUOUS
 62
     7
 10
1100.484133
 20
486.600000
 11
825.384133
 21
486.600000
  0
LINE
  8
CSLAYER1
  6
CONTINUOUS
 62
     7
 10
824.484133
 20
487.500000
 11
824.484133
 21
508.800000
  0
LINE
  8
CSLAYER1
  6
CONTINUOUS
 62
     7
 10
826.284133
 20
510.600000
 11
1100.484133
 21
510.600000
  0
LINE
  8
CSLAYER1
  6
CONTINUOUS
 62
     7
 10
933.084133
 20
624.600000
 11
933.084133
 21
602.916879
  0
LINE
  8
CSLAYER1
  6
CONTINUOUS
 62
     7
 10
858.684133
 20
525.000000
 11
858.684133
 21
519.600000
  0
ARC
  8
CSLAYER1
  6
CONTINUOUS
 62
     7
 10
930.684133
 20
624.600000
 40
2.400000
 50
0.000000
 51
90.000000
  0
ARC
  8
CSLAYER1
  6
CONTINUOUS
 62
     7
 10
918.684133
 20
525.000000
 40
60.000000
 50
92.645360
 51
180.000000
  0
ARC
  8
CSLAYER1
  6
CONTINUOUS
 62
     7
 10
915.084133
 20
602.916879
 40
18.000000
 50
272.645360
 51
360.000000
  0
LINE
  8
CSLAYER1
  6
CENTER
 62
     2
 10
914.484133
 20
663.000000
 11
914.484133
 21
615.000000
  0
LINE
  8
CSLAYER1
  6
CONTINUOUS
 62
     7
 10
897.984133
 20
628.800000
 11
899.784133
 21
627.000000
  0
LINE
  8
CSLAYER1
  6
CONTINUOUS
 62
     7
 10
824.484133
 20
487.500000
 11
825.384133
 21
486.600000
  0
LINE
  8
CSLAYER1
  6
CONTINUOUS
 62
     7
 10
826.284133
 20
510.600000
 11
824.484133
 21
508.800000
  0
LINE
  8
CSLAYER1
  6
CONTINUOUS
 62
     7
 10
898.884133
 20
651.000000
 11
897.984133
 21
650.100000
  0
LINE
  8
CSLAYER1
  6
CONTINUOUS
 62
     7
 10
1100.484133
 20
51.000000
 11
898.884133
 21
51.000000
  0
LINE
  8
CSLAYER1
  6
CONTINUOUS
 62
     7
 10
897.984133
 20
51.900000
 11
897.984133
 21
73.200000
  0
LINE
  8
CSLAYER1
  6
CONTINUOUS
 62
     7
 10
899.784133
 20
75.000000
 11
1100.484133
 21
75.000000
  0
ARC
  8
CSLAYER1
  6
CONTINUOUS
 62
     7
 10
930.684133
 20
77.400000
 40
2.400000
 50
270.000000
 51
360.000000
  0
LINE
  8
CSLAYER1
  6
CONTINUOUS
 62
     7
 10
825.384133
 20
268.200000
 11
995.616299
 21
268.200000
  0
LINE
  8
CSLAYER1
  6
CONTINUOUS
 62
     7
 10
824.484133
 20
267.300000
 11
824.484133
 21
246.000000
  0
LINE
  8
CSLAYER1
  6
CONTINUOUS
 62
     7
 10
1059.217354
 20
244.200000
 11
1010.842373
 21
244.200000
  0
ARC
  8
CSLAYER1
  6
CONTINUOUS
 62
     7
 10
918.084133
 20
169.202400
 40
15.000000
 50
0.000000
 51
89.541629
  0
ARC
  8
CSLAYER1
  6
CONTINUOUS
 62
     7
 10
918.684133
 20
244.200000
 40
60.000000
 50
196.260205
 51
269.541629
  0
LINE
  8
CSLAYER1
  6
CENTER
 62
     2
 10
914.484133
 20
87.000000
 11
914.484133
 21
39.000000
  0
LINE
  8
CSLAYER1
  6
CONTINUOUS
 62
     7
 10
824.484133
 20
246.000000
 11
826.284133
 21
244.200000
  0
LINE
  8
CSLAYER1
  6
CONTINUOUS
 62
     7
 10
899.784133
 20
75.000000
 11
897.984133
 21
73.200000
  0
LINE
  8
CSLAYER1
  6
CONTINUOUS
 62
     7
 10
825.384133
 20
268.200000
 11
824.484133
 21
267.300000
  0
LINE
  8
CSLAYER1
  6
CONTINUOUS
 62
     7
 10
897.984133
 20
51.900000
 11
898.884133
 21
51.000000
  0
LINE
  8
CSLAYER1
  6
CONTINUOUS
 62
     7
 10
933.084133
 20
169.202400
 11
933.084133
 21
77.400000
  0
LINE
  8
CSLAYER1
  6
CONTINUOUS
 62
     7
 10
915.914902
 20
584.936060
 11
1100.484133
 21
584.936060
  0
LINE
  8
CSLAYER1
  6
CONTINUOUS
 62
     7
 10
1100.484133
 20
651.000000
 11
1302.084133
 21
651.000000
  0
LINE
  8
CSLAYER1
  6
CONTINUOUS
 62
     7
 10
1100.484133
 20
627.000000
 11
1301.184133
 21
627.000000
  0
LINE
  8
CSLAYER1
  6
CONTINUOUS
 62
     7
 10
1285.053364
 20
584.936060
 11
1100.484133
 21
584.936060
  0
LINE
  8
CSLAYER1
  6
CONTINUOUS
 62
     7
 10
918.204133
 20
184.201920
 11
1100.484133
 21
184.201920
  0
LINE
  8
CSLAYER1
  6
CONTINUOUS
 62
     7
 10
1100.484133
 20
51.000000
 11
1302.084133
 21
51.000000
  0
LINE
  8
CSLAYER1
  6
CONTINUOUS
 62
     7
 10
1302.984133
 20
51.900000
 11
1302.984133
 21
73.200000
  0
LINE
  8
CSLAYER1
  6
CONTINUOUS
 62
     7
 10
1301.184133
 20
75.000000
 11
1100.484133
 21
75.000000
  0
ARC
  8
CSLAYER1
  6
CONTINUOUS
 62
     7
 10
1270.284133
 20
77.400000
 40
2.400000
 50
180.000000
 51
270.000000
  0
LINE
  8
CSLAYER1
  6
CENTER
 62
     2
 10
1286.484133
 20
87.000000
 11
1286.484133
 21
39.000000
  0
LINE
  8
CSLAYER1
  6
CONTINUOUS
 62
     7
 10
1301.184133
 20
75.000000
 11
1302.984133
 21
73.200000
  0
LINE
  8
CSLAYER1
  6
CONTINUOUS
 62
     7
 10
1302.984133
 20
51.900000
 11
1302.084133
 21
51.000000
  0
LINE
  8
CSLAYER1
  6
CONTINUOUS
 62
     7
 10
1267.884133
 20
169.202400
 11
1267.884133
 21
77.400000
  0
LINE
  8
CSLAYER1
  6
CONTINUOUS
 62
     7
 10
1349.484133
 20
269.400000
 11
1349.484133
 21
268.200000
  0
LINE
  8
CSLAYER1
  6
CONTINUOUS
 62
     7
 10
1125.455458
 20
269.400000
 11
1375.584133
 21
269.400000
  0
LINE
  8
CSLAYER1
  6
CONTINUOUS
 62
     7
 10
1376.484133
 20
270.300000
 11
1376.484133
 21
291.600000
  0
LINE
  8
CSLAYER1
  6
CONTINUOUS
 62
     7
 10
1374.684133
 20
293.400000
 11
1125.354131
 21
293.400000
  0
LINE
  8
CSLAYER1
  6
CONTINUOUS
 62
     7
 10
1376.484133
 20
291.600000
 11
1374.684133
 21
293.400000
  0
LINE
  8
CSLAYER1
  6
CONTINUOUS
 62
     7
 10
1376.484133
 20
270.300000
 11
1375.584133
 21
269.400000
  0
LINE
  8
CSLAYER1
  6
CONTINUOUS
 62
     7
 10
1375.584133
 20
268.200000
 11
1125.613516
 21
268.200000
  0
LINE
  8
CSLAYER1
  6
CONTINUOUS
 62
     7
 10
1376.484133
 20
267.300000
 11
1376.484133
 21
246.000000
  0
LINE
  8
CSLAYER1
  6
CONTINUOUS
 62
     7
 10
1376.484133
 20
246.000000
 11
1374.684133
 21
244.200000
  0
LINE
  8
CSLAYER1
  6
CONTINUOUS
 62
     7
 10
1375.584133
 20
268.200000
 11
1376.484133
 21
267.300000
  0
LINE
  8
CSLAYER1
  6
CONTINUOUS
 62
     7
 10
1282.764133
 20
184.201920
 11
1100.484133
 21
184.201920
  0
LINE
  8
CSLAYER1
  6
CENTER
 62
     2
 10
1066.612586
 20
438.600000
 11
1066.612586
 21
525.600000
  0
LINE
  8
CSLAYER1
  6
CONTINUOUS
 62
     7
 10
1055.812586
 20
519.600000
 11
1054.132586
 21
518.630051
  0
LINE
  8
CSLAYER1
  6
CONTINUOUS
 62
     7
 10
1054.132586
 20
518.630051
 11
1054.132586
 21
510.600000
  0
LINE
  8
CSLAYER1
  6
CONTINUOUS
 62
     7
 10
1077.412586
 20
519.600000
 11
1079.092586
 21
518.630051
  0
LINE
  8
CSLAYER1
  6
CONTINUOUS
 62
     7
 10
1079.092586
 20
518.630051
 11
1079.092586
 21
510.600000
  0
LINE
  8
CSLAYER1
  6
CONTINUOUS
 62
     7
 10
1055.812586
 20
519.600000
 11
1077.412586
 21
519.600000
  0
LINE
  8
CSLAYER1
  6
CONTINUOUS
 62
     7
 10
1054.132586
 20
510.600000
 11
1079.092586
 21
510.600000
  0
ARC
  8
CSLAYER1
  6
CONTINUOUS
 62
     7
 10
1056.772586
 20
515.522257
 40
4.077742
 50
49.652860
 51
130.347140
  0
ARC
  8
CSLAYER1
  6
CONTINUOUS
 62
     7
 10
1066.612586
 20
492.391956
 40
27.208044
 50
74.655173
 51
105.344827
  0
ARC
  8
CSLAYER1
  6
CONTINUOUS
 62
     7
 10
1076.452586
 20
515.522257
 40
4.077742
 50
49.652860
 51
130.347140
  0
LINE
  8
CSLAYER1
  6
CONTINUOUS
 62
     7
 10
1059.412586
 20
518.630051
 11
1059.412586
 21
510.600000
  0
LINE
  8
CSLAYER1
  6
CONTINUOUS
 62
     7
 10
1073.812586
 20
518.630051
 11
1073.812586
 21
510.600000
  0
LINE
  8
CSLAYER1
  6
CONTINUOUS
 62
     7
 10
1073.812586
 20
461.400000
 11
1073.812586
 21
450.969948
  0
LINE
  8
CSLAYER1
  6
CONTINUOUS
 62
     7
 10
1079.092586
 20
461.400000
 11
1079.092586
 21
450.969948
  0
ARC
  8
CSLAYER1
  6
CONTINUOUS
 62
     7
 10
1076.452586
 20
454.077742
 40
4.077742
 50
229.652860
 51
310.347140
  0
LINE
  8
CSLAYER1
  6
CONTINUOUS
 62
     7
 10
1077.412586
 20
450.000000
 11
1079.092586
 21
450.969948
  0
LINE
  8
CSLAYER1
  6
CONTINUOUS
 62
     7
 10
1055.812586
 20
450.000000
 11
1077.412586
 21
450.000000
  0
ARC
  8
CSLAYER1
  6
CONTINUOUS
 62
     7
 10
1056.772586
 20
454.077742
 40
4.077742
 50
229.652860
 51
310.347140
  0
ARC
  8
CSLAYER1
  6
CONTINUOUS
 62
     7
 10
1066.612586
 20
477.208044
 40
27.208044
 50
254.655173
 51
285.344827
  0
LINE
  8
CSLAYER1
  6
CONTINUOUS
 62
     7
 10
1059.412586
 20
461.400000
 11
1059.412586
 21
450.969948
  0
LINE
  8
CSLAYER1
  6
CONTINUOUS
 62
     7
 10
1054.132586
 20
461.400000
 11
1054.132586
 21
450.969948
  0
LINE
  8
CSLAYER1
  6
CONTINUOUS
 62
     7
 10
1055.812586
 20
450.000000
 11
1054.132586
 21
450.969948
  0
LINE
  8
CSLAYER1
  6
CONTINUOUS
 62
     7
 10
1059.412586
 20
450.000000
 11
1059.412586
 21
445.800000
  0
LINE
  8
CSLAYER1
  6
CONTINUOUS
 62
     7
 10
1059.412586
 20
445.800000
 11
1060.612586
 21
444.600000
  0
LINE
  8
CSLAYER1
  6
CONTINUOUS
 62
     7
 10
1060.312586
 20
450.000000
 11
1060.312586
 21
444.900000
  0
LINE
  8
CSLAYER1
  6
CONTINUOUS
 62
     7
 10
1059.412586
 20
445.800000
 11
1073.812586
 21
445.800000
  0
LINE
  8
CSLAYER1
  6
CONTINUOUS
 62
     7
 10
1060.612586
 20
444.600000
 11
1072.612586
 21
444.600000
  0
LINE
  8
CSLAYER1
  6
CONTINUOUS
 62
     7
 10
1072.612586
 20
444.600000
 11
1073.812586
 21
445.800000
  0
LINE
  8
CSLAYER1
  6
CONTINUOUS
 62
     7
 10
1073.812586
 20
445.800000
 11
1073.812586
 21
450.000000
  0
LINE
  8
CSLAYER1
  6
CONTINUOUS
 62
     7
 10
1072.912586
 20
444.900000
 11
1072.912586
 21
450.000000
  0
LINE
  8
CSLAYER1
  6
CENTER
 62
     2
 10
1001.177782
 20
438.600000
 11
1001.177782
 21
525.600000
  0
LINE
  8
CSLAYER1
  6
CONTINUOUS
 62
     7
 10
990.377782
 20
519.600000
 11
988.697782
 21
518.630051
  0
LINE
  8
CSLAYER1
  6
CONTINUOUS
 62
     7
 10
988.697782
 20
518.630051
 11
988.697782
 21
510.600000
  0
LINE
  8
CSLAYER1
  6
CONTINUOUS
 62
     7
 10
1011.977782
 20
519.600000
 11
1013.657782
 21
518.630051
  0
LINE
  8
CSLAYER1
  6
CONTINUOUS
 62
     7
 10
1013.657782
 20
518.630051
 11
1013.657782
 21
510.600000
  0
LINE
  8
CSLAYER1
  6
CONTINUOUS
 62
     7
 10
990.377782
 20
519.600000
 11
1011.977782
 21
519.600000
  0
LINE
  8
CSLAYER1
  6
CONTINUOUS
 62
     7
 10
988.697782
 20
510.600000
 11
1013.657782
 21
510.600000
  0
ARC
  8
CSLAYER1
  6
CONTINUOUS
 62
     7
 10
991.337782
 20
515.522257
 40
4.077742
 50
49.652860
 51
130.347140
  0
ARC
  8
CSLAYER1
  6
CONTINUOUS
 62
     7
 10
1001.177782
 20
492.391956
 40
27.208044
 50
74.655173
 51
105.344827
  0
ARC
  8
CSLAYER1
  6
CONTINUOUS
 62
     7
 10
1011.017782
 20
515.522257
 40
4.077742
 50
49.652860
 51
130.347140
  0
LINE
  8
CSLAYER1
  6
CONTINUOUS
 62
     7
 10
993.977782
 20
518.630051
 11
993.977782
 21
510.600000
  0
LINE
  8
CSLAYER1
  6
CONTINUOUS
 62
     7
 10
1008.377782
 20
518.630051
 11
1008.377782
 21
510.600000
  0
LINE
  8
CSLAYER1
  6
CONTINUOUS
 62
     7
 10
1008.377782
 20
461.400000
 11
1008.377782
 21
450.969948
  0
LINE
  8
CSLAYER1
  6
CONTINUOUS
 62
     7
 10
1013.657782
 20
461.400000
 11
1013.657782
 21
450.969948
  0
ARC
  8
CSLAYER1
  6
CONTINUOUS
 62
     7
 10
1011.017782
 20
454.077742
 40
4.077742
 50
229.652860
 51
310.347140
  0
LINE
  8
CSLAYER1
  6
CONTINUOUS
 62
     7
 10
1011.977782
 20
450.000000
 11
1013.657782
 21
450.969948
  0
LINE
  8
CSLAYER1
  6
CONTINUOUS
 62
     7
 10
990.377782
 20
450.000000
 11
1011.977782
 21
450.000000
  0
ARC
  8
CSLAYER1
  6
CONTINUOUS
 62
     7
 10
991.337782
 20
454.077742
 40
4.077742
 50
229.652860
 51
310.347140
  0
ARC
  8
CSLAYER1
  6
CONTINUOUS
 62
     7
 10
1001.177782
 20
477.208044
 40
27.208044
 50
254.655173
 51
285.344827
  0
LINE
  8
CSLAYER1
  6
CONTINUOUS
 62
     7
 10
993.977782
 20
461.400000
 11
993.977782
 21
450.969948
  0
LINE
  8
CSLAYER1
  6
CONTINUOUS
 62
     7
 10
988.697782
 20
461.400000
 11
988.697782
 21
450.969948
  0
LINE
  8
CSLAYER1
  6
CONTINUOUS
 62
     7
 10
990.377782
 20
450.000000
 11
988.697782
 21
450.969948
  0
LINE
  8
CSLAYER1
  6
CONTINUOUS
 62
     7
 10
993.977782
 20
450.000000
 11
993.977782
 21
445.800000
  0
LINE
  8
CSLAYER1
  6
CONTINUOUS
 62
     7
 10
993.977782
 20
445.800000
 11
995.177782
 21
444.600000
  0
LINE
  8
CSLAYER1
  6
CONTINUOUS
 62
     7
 10
994.877782
 20
450.000000
 11
994.877782
 21
444.900000
  0
LINE
  8
CSLAYER1
  6
CONTINUOUS
 62
     7
 10
993.977782
 20
445.800000
 11
1008.377782
 21
445.800000
  0
LINE
  8
CSLAYER1
  6
CONTINUOUS
 62
     7
 10
995.177782
 20
444.600000
 11
1007.177782
 21
444.600000
  0
LINE
  8
CSLAYER1
  6
CONTINUOUS
 62
     7
 10
1007.177782
 20
444.600000
 11
1008.377782
 21
445.800000
  0
LINE
  8
CSLAYER1
  6
CONTINUOUS
 62
     7
 10
1008.377782
 20
445.800000
 11
1008.377782
 21
450.000000
  0
LINE
  8
CSLAYER1
  6
CONTINUOUS
 62
     7
 10
1007.477782
 20
444.900000
 11
1007.477782
 21
450.000000
  0
LINE
  8
CSLAYER1
  6
CENTER
 62
     2
 10
942.510542
 20
438.600000
 11
942.510542
 21
525.600000
  0
LINE
  8
CSLAYER1
  6
CONTINUOUS
 62
     7
 10
931.710542
 20
519.600000
 11
930.030542
 21
518.630051
  0
LINE
  8
CSLAYER1
  6
CONTINUOUS
 62
     7
 10
930.030542
 20
518.630051
 11
930.030542
 21
510.600000
  0
LINE
  8
CSLAYER1
  6
CONTINUOUS
 62
     7
 10
953.310542
 20
519.600000
 11
954.990542
 21
518.630051
  0
LINE
  8
CSLAYER1
  6
CONTINUOUS
 62
     7
 10
954.990542
 20
518.630051
 11
954.990542
 21
510.600000
  0
LINE
  8
CSLAYER1
  6
CONTINUOUS
 62
     7
 10
931.710542
 20
519.600000
 11
953.310542
 21
519.600000
  0
LINE
  8
CSLAYER1
  6
CONTINUOUS
 62
     7
 10
930.030542
 20
510.600000
 11
954.990542
 21
510.600000
  0
ARC
  8
CSLAYER1
  6
CONTINUOUS
 62
     7
 10
932.670542
 20
515.522257
 40
4.077742
 50
49.652860
 51
130.347140
  0
ARC
  8
CSLAYER1
  6
CONTINUOUS
 62
     7
 10
942.510542
 20
492.391956
 40
27.208044
 50
74.655173
 51
105.344827
  0
ARC
  8
CSLAYER1
  6
CONTINUOUS
 62
     7
 10
952.350542
 20
515.522257
 40
4.077742
 50
49.652860
 51
130.347140
  0
LINE
  8
CSLAYER1
  6
CONTINUOUS
 62
     7
 10
935.310542
 20
518.630051
 11
935.310542
 21
510.600000
  0
LINE
  8
CSLAYER1
  6
CONTINUOUS
 62
     7
 10
949.710542
 20
518.630051
 11
949.710542
 21
510.600000
  0
LINE
  8
CSLAYER1
  6
CONTINUOUS
 62
     7
 10
949.710542
 20
461.400000
 11
949.710542
 21
450.969948
  0
LINE
  8
CSLAYER1
  6
CONTINUOUS
 62
     7
 10
954.990542
 20
461.400000
 11
954.990542
 21
450.969948
  0
ARC
  8
CSLAYER1
  6
CONTINUOUS
 62
     7
 10
952.350542
 20
454.077742
 40
4.077742
 50
229.652860
 51
310.347140
  0
LINE
  8
CSLAYER1
  6
CONTINUOUS
 62
     7
 10
953.310542
 20
450.000000
 11
954.990542
 21
450.969948
  0
LINE
  8
CSLAYER1
  6
CONTINUOUS
 62
     7
 10
931.710542
 20
450.000000
 11
953.310542
 21
450.000000
  0
ARC
  8
CSLAYER1
  6
CONTINUOUS
 62
     7
 10
932.670542
 20
454.077742
 40
4.077742
 50
229.652860
 51
310.347140
  0
ARC
  8
CSLAYER1
  6
CONTINUOUS
 62
     7
 10
942.510542
 20
477.208044
 40
27.208044
 50
254.655173
 51
285.344827
  0
LINE
  8
CSLAYER1
  6
CONTINUOUS
 62
     7
 10
935.310542
 20
461.400000
 11
935.310542
 21
450.969948
  0
LINE
  8
CSLAYER1
  6
CONTINUOUS
 62
     7
 10
930.030542
 20
461.400000
 11
930.030542
 21
450.969948
  0
LINE
  8
CSLAYER1
  6
CONTINUOUS
 62
     7
 10
931.710542
 20
450.000000
 11
930.030542
 21
450.969948
  0
LINE
  8
CSLAYER1
  6
CONTINUOUS
 62
     7
 10
935.310542
 20
450.000000
 11
935.310542
 21
445.800000
  0
LINE
  8
CSLAYER1
  6
CONTINUOUS
 62
     7
 10
935.310542
 20
445.800000
 11
936.510542
 21
444.600000
  0
LINE
  8
CSLAYER1
  6
CONTINUOUS
 62
     7
 10
936.210542
 20
450.000000
 11
936.210542
 21
444.900000
  0
LINE
  8
CSLAYER1
  6
CONTINUOUS
 62
     7
 10
935.310542
 20
445.800000
 11
949.710542
 21
445.800000
  0
LINE
  8
CSLAYER1
  6
CONTINUOUS
 62
     7
 10
936.510542
 20
444.600000
 11
948.510542
 21
444.600000
  0
LINE
  8
CSLAYER1
  6
CONTINUOUS
 62
     7
 10
948.510542
 20
444.600000
 11
949.710542
 21
445.800000
  0
LINE
  8
CSLAYER1
  6
CONTINUOUS
 62
     7
 10
949.710542
 20
445.800000
 11
949.710542
 21
450.000000
  0
LINE
  8
CSLAYER1
  6
CONTINUOUS
 62
     7
 10
948.810542
 20
444.900000
 11
948.810542
 21
450.000000
  0
LINE
  8
CSLAYER1
  6
CENTER
 62
     2
 10
894.608941
 20
438.600000
 11
894.608941
 21
525.600000
  0
LINE
  8
CSLAYER1
  6
CONTINUOUS
 62
     7
 10
883.808941
 20
519.600000
 11
882.128941
 21
518.630051
  0
LINE
  8
CSLAYER1
  6
CONTINUOUS
 62
     7
 10
882.128941
 20
518.630051
 11
882.128941
 21
510.600000
  0
LINE
  8
CSLAYER1
  6
CONTINUOUS
 62
     7
 10
905.408941
 20
519.600000
 11
907.088941
 21
518.630051
  0
LINE
  8
CSLAYER1
  6
CONTINUOUS
 62
     7
 10
907.088941
 20
518.630051
 11
907.088941
 21
510.600000
  0
LINE
  8
CSLAYER1
  6
CONTINUOUS
 62
     7
 10
883.808941
 20
519.600000
 11
905.408941
 21
519.600000
  0
LINE
  8
CSLAYER1
  6
CONTINUOUS
 62
     7
 10
882.128941
 20
510.600000
 11
907.088941
 21
510.600000
  0
ARC
  8
CSLAYER1
  6
CONTINUOUS
 62
     7
 10
884.768941
 20
515.522257
 40
4.077742
 50
49.652860
 51
130.347140
  0
ARC
  8
CSLAYER1
  6
CONTINUOUS
 62
     7
 10
894.608941
 20
492.391956
 40
27.208044
 50
74.655173
 51
105.344827
  0
ARC
  8
CSLAYER1
  6
CONTINUOUS
 62
     7
 10
904.448941
 20
515.522257
 40
4.077742
 50
49.652860
 51
130.347140
  0
LINE
  8
CSLAYER1
  6
CONTINUOUS
 62
     7
 10
887.408941
 20
518.630051
 11
887.408941
 21
510.600000
  0
LINE
  8
CSLAYER1
  6
CONTINUOUS
 62
     7
 10
901.808941
 20
518.630051
 11
901.808941
 21
510.600000
  0
LINE
  8
CSLAYER1
  6
CONTINUOUS
 62
     7
 10
901.808941
 20
461.400000
 11
901.808941
 21
450.969948
  0
LINE
  8
CSLAYER1
  6
CONTINUOUS
 62
     7
 10
907.088941
 20
461.400000
 11
907.088941
 21
450.969948
  0
ARC
  8
CSLAYER1
  6
CONTINUOUS
 62
     7
 10
904.448941
 20
454.077742
 40
4.077742
 50
229.652860
 51
310.347140
  0
LINE
  8
CSLAYER1
  6
CONTINUOUS
 62
     7
 10
905.408941
 20
450.000000
 11
907.088941
 21
450.969948
  0
LINE
  8
CSLAYER1
  6
CONTINUOUS
 62
     7
 10
883.808941
 20
450.000000
 11
905.408941
 21
450.000000
  0
ARC
  8
CSLAYER1
  6
CONTINUOUS
 62
     7
 10
884.768941
 20
454.077742
 40
4.077742
 50
229.652860
 51
310.347140
  0
ARC
  8
CSLAYER1
  6
CONTINUOUS
 62
     7
 10
894.608941
 20
477.208044
 40
27.208044
 50
254.655173
 51
285.344827
  0
LINE
  8
CSLAYER1
  6
CONTINUOUS
 62
     7
 10
887.408941
 20
461.400000
 11
887.408941
 21
450.969948
  0
LINE
  8
CSLAYER1
  6
CONTINUOUS
 62
     7
 10
882.128941
 20
461.400000
 11
882.128941
 21
450.969948
  0
LINE
  8
CSLAYER1
  6
CONTINUOUS
 62
     7
 10
883.808941
 20
450.000000
 11
882.128941
 21
450.969948
  0
LINE
  8
CSLAYER1
  6
CONTINUOUS
 62
     7
 10
887.408941
 20
450.000000
 11
887.408941
 21
445.800000
  0
LINE
  8
CSLAYER1
  6
CONTINUOUS
 62
     7
 10
887.408941
 20
445.800000
 11
888.608941
 21
444.600000
  0
LINE
  8
CSLAYER1
  6
CONTINUOUS
 62
     7
 10
888.308941
 20
450.000000
 11
888.308941
 21
444.900000
  0
LINE
  8
CSLAYER1
  6
CONTINUOUS
 62
     7
 10
887.408941
 20
445.800000
 11
901.808941
 21
445.800000
  0
LINE
  8
CSLAYER1
  6
CONTINUOUS
 62
     7
 10
888.608941
 20
444.600000
 11
900.608941
 21
444.600000
  0
LINE
  8
CSLAYER1
  6
CONTINUOUS
 62
     7
 10
900.608941
 20
444.600000
 11
901.808941
 21
445.800000
  0
LINE
  8
CSLAYER1
  6
CONTINUOUS
 62
     7
 10
901.808941
 20
445.800000
 11
901.808941
 21
450.000000
  0
LINE
  8
CSLAYER1
  6
CONTINUOUS
 62
     7
 10
900.908941
 20
444.900000
 11
900.908941
 21
450.000000
  0
LINE
  8
CSLAYER1
  6
CENTER
 62
     2
 10
860.737394
 20
438.600000
 11
860.737394
 21
525.600000
  0
LINE
  8
CSLAYER1
  6
CONTINUOUS
 62
     7
 10
849.937394
 20
519.600000
 11
848.257394
 21
518.630051
  0
LINE
  8
CSLAYER1
  6
CONTINUOUS
 62
     7
 10
848.257394
 20
518.630051
 11
848.257394
 21
510.600000
  0
LINE
  8
CSLAYER1
  6
CONTINUOUS
 62
     7
 10
871.537394
 20
519.600000
 11
873.217394
 21
518.630051
  0
LINE
  8
CSLAYER1
  6
CONTINUOUS
 62
     7
 10
873.217394
 20
518.630051
 11
873.217394
 21
510.600000
  0
LINE
  8
CSLAYER1
  6
CONTINUOUS
 62
     7
 10
849.937394
 20
519.600000
 11
871.537394
 21
519.600000
  0
LINE
  8
CSLAYER1
  6
CONTINUOUS
 62
     7
 10
848.257394
 20
510.600000
 11
873.217394
 21
510.600000
  0
ARC
  8
CSLAYER1
  6
CONTINUOUS
 62
     7
 10
850.897394
 20
515.522257
 40
4.077742
 50
49.652860
 51
130.347140
  0
ARC
  8
CSLAYER1
  6
CONTINUOUS
 62
     7
 10
860.737394
 20
492.391956
 40
27.208044
 50
74.655173
 51
105.344827
  0
ARC
  8
CSLAYER1
  6
CONTINUOUS
 62
     7
 10
870.577394
 20
515.522257
 40
4.077742
 50
49.652860
 51
130.347140
  0
LINE
  8
CSLAYER1
  6
CONTINUOUS
 62
     7
 10
853.537394
 20
518.630051
 11
853.537394
 21
510.600000
  0
LINE
  8
CSLAYER1
  6
CONTINUOUS
 62
     7
 10
867.937394
 20
518.630051
 11
867.937394
 21
510.600000
  0
LINE
  8
CSLAYER1
  6
CONTINUOUS
 62
     7
 10
867.937394
 20
461.400000
 11
867.937394
 21
450.969948
  0
LINE
  8
CSLAYER1
  6
CONTINUOUS
 62
     7
 10
873.217394
 20
461.400000
 11
873.217394
 21
450.969948
  0
ARC
  8
CSLAYER1
  6
CONTINUOUS
 62
     7
 10
870.577394
 20
454.077742
 40
4.077742
 50
229.652860
 51
310.347140
  0
LINE
  8
CSLAYER1
  6
CONTINUOUS
 62
     7
 10
871.537394
 20
450.000000
 11
873.217394
 21
450.969948
  0
LINE
  8
CSLAYER1
  6
CONTINUOUS
 62
     7
 10
849.937394
 20
450.000000
 11
871.537394
 21
450.000000
  0
ARC
  8
CSLAYER1
  6
CONTINUOUS
 62
     7
 10
850.897394
 20
454.077742
 40
4.077742
 50
229.652860
 51
310.347140
  0
ARC
  8
CSLAYER1
  6
CONTINUOUS
 62
     7
 10
860.737394
 20
477.208044
 40
27.208044
 50
254.655173
 51
285.344827
  0
LINE
  8
CSLAYER1
  6
CONTINUOUS
 62
     7
 10
853.537394
 20
461.400000
 11
853.537394
 21
450.969948
  0
LINE
  8
CSLAYER1
  6
CONTINUOUS
 62
     7
 10
848.257394
 20
461.400000
 11
848.257394
 21
450.969948
  0
LINE
  8
CSLAYER1
  6
CONTINUOUS
 62
     7
 10
849.937394
 20
450.000000
 11
848.257394
 21
450.969948
  0
LINE
  8
CSLAYER1
  6
CONTINUOUS
 62
     7
 10
853.537394
 20
450.000000
 11
853.537394
 21
445.800000
  0
LINE
  8
CSLAYER1
  6
CONTINUOUS
 62
     7
 10
853.537394
 20
445.800000
 11
854.737394
 21
444.600000
  0
LINE
  8
CSLAYER1
  6
CONTINUOUS
 62
     7
 10
854.437394
 20
450.000000
 11
854.437394
 21
444.900000
  0
LINE
  8
CSLAYER1
  6
CONTINUOUS
 62
     7
 10
853.537394
 20
445.800000
 11
867.937394
 21
445.800000
  0
LINE
  8
CSLAYER1
  6
CONTINUOUS
 62
     7
 10
854.737394
 20
444.600000
 11
866.737394
 21
444.600000
  0
LINE
  8
CSLAYER1
  6
CONTINUOUS
 62
     7
 10
866.737394
 20
444.600000
 11
867.937394
 21
445.800000
  0
LINE
  8
CSLAYER1
  6
CONTINUOUS
 62
     7
 10
867.937394
 20
445.800000
 11
867.937394
 21
450.000000
  0
LINE
  8
CSLAYER1
  6
CONTINUOUS
 62
     7
 10
867.037394
 20
444.900000
 11
867.037394
 21
450.000000
  0
LINE
  8
CSLAYER1
  6
CENTER
 62
     2
 10
843.204191
 20
438.600000
 11
843.204191
 21
525.600000
  0
LINE
  8
CSLAYER1
  6
CONTINUOUS
 62
     7
 10
832.404191
 20
519.600000
 11
830.724191
 21
518.630051
  0
LINE
  8
CSLAYER1
  6
CONTINUOUS
 62
     7
 10
830.724191
 20
518.630051
 11
830.724191
 21
510.600000
  0
LINE
  8
CSLAYER1
  6
CONTINUOUS
 62
     7
 10
832.404191
 20
519.600000
 11
854.004191
 21
519.600000
  0
LINE
  8
CSLAYER1
  6
CONTINUOUS
 62
     7
 10
830.724191
 20
510.600000
 11
855.684191
 21
510.600000
  0
ARC
  8
CSLAYER1
  6
CONTINUOUS
 62
     7
 10
833.364191
 20
515.522257
 40
4.077742
 50
49.652860
 51
130.347140
  0
ARC
  8
CSLAYER1
  6
CONTINUOUS
 62
     7
 10
843.204191
 20
492.391956
 40
27.208044
 50
77.926846
 51
105.344827
  0
LINE
  8
CSLAYER1
  6
CONTINUOUS
 62
     7
 10
836.004191
 20
518.630051
 11
836.004191
 21
510.600000
  0
LINE
  8
CSLAYER1
  6
CONTINUOUS
 62
     7
 10
832.404191
 20
450.000000
 11
854.004191
 21
450.000000
  0
ARC
  8
CSLAYER1
  6
CONTINUOUS
 62
     7
 10
833.364191
 20
454.077742
 40
4.077742
 50
229.652860
 51
310.347140
  0
ARC
  8
CSLAYER1
  6
CONTINUOUS
 62
     7
 10
843.204191
 20
477.208044
 40
27.208044
 50
254.655173
 51
281.866182
  0
LINE
  8
CSLAYER1
  6
CONTINUOUS
 62
     7
 10
836.004191
 20
461.400000
 11
836.004191
 21
450.969948
  0
LINE
  8
CSLAYER1
  6
CONTINUOUS
 62
     7
 10
830.724191
 20
461.400000
 11
830.724191
 21
450.969948
  0
LINE
  8
CSLAYER1
  6
CONTINUOUS
 62
     7
 10
832.404191
 20
450.000000
 11
830.724191
 21
450.969948
  0
LINE
  8
CSLAYER1
  6
CONTINUOUS
 62
     7
 10
836.004191
 20
450.000000
 11
836.004191
 21
445.800000
  0
LINE
  8
CSLAYER1
  6
CONTINUOUS
 62
     7
 10
836.004191
 20
445.800000
 11
837.204191
 21
444.600000
  0
LINE
  8
CSLAYER1
  6
CONTINUOUS
 62
     7
 10
836.904191
 20
450.000000
 11
836.904191
 21
444.900000
  0
LINE
  8
CSLAYER1
  6
CONTINUOUS
 62
     7
 10
836.004191
 20
445.800000
 11
850.404191
 21
445.800000
  0
LINE
  8
CSLAYER1
  6
CONTINUOUS
 62
     7
 10
837.204191
 20
444.600000
 11
849.204191
 21
444.600000
  0
LINE
  8
CSLAYER1
  6
CONTINUOUS
 62
     7
 10
849.204191
 20
444.600000
 11
850.404191
 21
445.800000
  0
LINE
  8
CSLAYER1
  6
CONTINUOUS
 62
     7
 10
850.404191
 20
445.800000
 11
850.404191
 21
450.000000
  0
LINE
  8
CSLAYER1
  6
CONTINUOUS
 62
     7
 10
849.504191
 20
444.900000
 11
849.504191
 21
450.000000
  0
LINE
  8
CSLAYER1
  6
CONTINUOUS
 62
     7
 10
1100.484133
 20
485.400000
 11
1375.584133
 21
485.400000
  0
LINE
  8
CSLAYER1
  6
CONTINUOUS
 62
     7
 10
1376.484133
 20
484.500000
 11
1376.484133
 21
463.200000
  0
LINE
  8
CSLAYER1
  6
CONTINUOUS
 62
     7
 10
1374.684133
 20
461.400000
 11
1100.484133
 21
461.400000
  0
LINE
  8
CSLAYER1
  6
CONTINUOUS
 62
     7
 10
1376.484133
 20
463.200000
 11
1374.684133
 21
461.400000
  0
LINE
  8
CSLAYER1
  6
CONTINUOUS
 62
     7
 10
1375.584133
 20
485.400000
 11
1376.484133
 21
484.500000
  0
LINE
  8
CSLAYER1
  6
CONTINUOUS
 62
     7
 10
1100.484133
 20
651.000000
 11
1302.084133
 21
651.000000
  0
LINE
  8
CSLAYER1
  6
CONTINUOUS
 62
     7
 10
1302.984133
 20
650.100000
 11
1302.984133
 21
628.800000
  0
LINE
  8
CSLAYER1
  6
CONTINUOUS
 62
     7
 10
1100.484133
 20
627.000000
 11
1301.184133
 21
627.000000
  0
LINE
  8
CSLAYER1
  6
CONTINUOUS
 62
     7
 10
1349.484133
 20
485.400000
 11
1349.484133
 21
486.600000
  0
LINE
  8
CSLAYER1
  6
CONTINUOUS
 62
     7
 10
1100.484133
 20
486.600000
 11
1375.584133
 21
486.600000
  0
LINE
  8
CSLAYER1
  6
CONTINUOUS
 62
     7
 10
1376.484133
 20
487.500000
 11
1376.484133
 21
508.800000
  0
LINE
  8
CSLAYER1
  6
CONTINUOUS
 62
     7
 10
1374.684133
 20
510.600000
 11
1100.484133
 21
510.600000
  0
LINE
  8
CSLAYER1
  6
CONTINUOUS
 62
     7
 10
1267.884133
 20
624.600000
 11
1267.884133
 21
602.916879
  0
LINE
  8
CSLAYER1
  6
CONTINUOUS
 62
     7
 10
1342.284133
 20
525.000000
 11
1342.284133
 21
519.600000
  0
ARC
  8
CSLAYER1
  6
CONTINUOUS
 62
     7
 10
1270.284133
 20
624.600000
 40
2.400000
 50
90.000000
 51
180.000000
  0
ARC
  8
CSLAYER1
  6
CONTINUOUS
 62
     7
 10
1282.284133
 20
525.000000
 40
60.000000
 50
0.000000
 51
87.354640
  0
ARC
  8
CSLAYER1
  6
CONTINUOUS
 62
     7
 10
1285.884133
 20
602.916879
 40
18.000000
 50
180.000000
 51
267.354640
  0
LINE
  8
CSLAYER1
  6
CENTER
 62
     2
 10
1286.484133
 20
663.000000
 11
1286.484133
 21
615.000000
  0
LINE
  8
CSLAYER1
  6
CONTINUOUS
 62
     7
 10
1302.984133
 20
628.800000
 11
1301.184133
 21
627.000000
  0
LINE
  8
CSLAYER1
  6
CONTINUOUS
 62
     7
 10
1376.484133
 20
487.500000
 11
1375.584133
 21
486.600000
  0
LINE
  8
CSLAYER1
  6
CONTINUOUS
 62
     7
 10
1374.684133
 20
510.600000
 11
1376.484133
 21
508.800000
  0
LINE
  8
CSLAYER1
  6
CONTINUOUS
 62
     7
 10
1302.084133
 20
651.000000
 11
1302.984133
 21
650.100000
  0
LINE
  8
CSLAYER1
  6
CONTINUOUS
 62
     7
 10
1285.053364
 20
584.936060
 11
1100.484133
 21
584.936060
  0
LINE
  8
CSLAYER1
  6
CENTER
 62
     2
 10
1134.355680
 20
438.600000
 11
1134.355680
 21
525.600000
  0
LINE
  8
CSLAYER1
  6
CONTINUOUS
 62
     7
 10
1145.155680
 20
519.600000
 11
1146.835680
 21
518.630051
  0
LINE
  8
CSLAYER1
  6
CONTINUOUS
 62
     7
 10
1146.835680
 20
518.630051
 11
1146.835680
 21
510.600000
  0
LINE
  8
CSLAYER1
  6
CONTINUOUS
 62
     7
 10
1123.555680
 20
519.600000
 11
1121.875680
 21
518.630051
  0
LINE
  8
CSLAYER1
  6
CONTINUOUS
 62
     7
 10
1121.875680
 20
518.630051
 11
1121.875680
 21
510.600000
  0
LINE
  8
CSLAYER1
  6
CONTINUOUS
 62
     7
 10
1145.155680
 20
519.600000
 11
1123.555680
 21
519.600000
  0
LINE
  8
CSLAYER1
  6
CONTINUOUS
 62
     7
 10
1146.835680
 20
510.600000
 11
1121.875680
 21
510.600000
  0
ARC
  8
CSLAYER1
  6
CONTINUOUS
 62
     7
 10
1144.195680
 20
515.522257
 40
4.077742
 50
49.652860
 51
130.347140
  0
ARC
  8
CSLAYER1
  6
CONTINUOUS
 62
     7
 10
1134.355680
 20
492.391956
 40
27.208044
 50
74.655173
 51
105.344827
  0
ARC
  8
CSLAYER1
  6
CONTINUOUS
 62
     7
 10
1124.515680
 20
515.522257
 40
4.077742
 50
49.652860
 51
130.347140
  0
LINE
  8
CSLAYER1
  6
CONTINUOUS
 62
     7
 10
1141.555680
 20
518.630051
 11
1141.555680
 21
510.600000
  0
LINE
  8
CSLAYER1
  6
CONTINUOUS
 62
     7
 10
1127.155680
 20
518.630051
 11
1127.155680
 21
510.600000
  0
LINE
  8
CSLAYER1
  6
CONTINUOUS
 62
     7
 10
1127.155680
 20
461.400000
 11
1127.155680
 21
450.969948
  0
LINE
  8
CSLAYER1
  6
CONTINUOUS
 62
     7
 10
1121.875680
 20
461.400000
 11
1121.875680
 21
450.969948
  0
ARC
  8
CSLAYER1
  6
CONTINUOUS
 62
     7
 10
1124.515680
 20
454.077742
 40
4.077742
 50
229.652860
 51
310.347140
  0
LINE
  8
CSLAYER1
  6
CONTINUOUS
 62
     7
 10
1123.555680
 20
450.000000
 11
1121.875680
 21
450.969948
  0
LINE
  8
CSLAYER1
  6
CONTINUOUS
 62
     7
 10
1145.155680
 20
450.000000
 11
1123.555680
 21
450.000000
  0
ARC
  8
CSLAYER1
  6
CONTINUOUS
 62
     7
 10
1144.195680
 20
454.077742
 40
4.077742
 50
229.652860
 51
310.347140
  0
ARC
  8
CSLAYER1
  6
CONTINUOUS
 62
     7
 10
1134.355680
 20
477.208044
 40
27.208044
 50
254.655173
 51
285.344827
  0
LINE
  8
CSLAYER1
  6
CONTINUOUS
 62
     7
 10
1141.555680
 20
461.400000
 11
1141.555680
 21
450.969948
  0
LINE
  8
CSLAYER1
  6
CONTINUOUS
 62
     7
 10
1146.835680
 20
461.400000
 11
1146.835680
 21
450.969948
  0
LINE
  8
CSLAYER1
  6
CONTINUOUS
 62
     7
 10
1145.155680
 20
450.000000
 11
1146.835680
 21
450.969948
  0
LINE
  8
CSLAYER1
  6
CONTINUOUS
 62
     7
 10
1141.555680
 20
450.000000
 11
1141.555680
 21
445.800000
  0
LINE
  8
CSLAYER1
  6
CONTINUOUS
 62
     7
 10
1141.555680
 20
445.800000
 11
1140.355680
 21
444.600000
  0
LINE
  8
CSLAYER1
  6
CONTINUOUS
 62
     7
 10
1140.655680
 20
450.000000
 11
1140.655680
 21
444.900000
  0
LINE
  8
CSLAYER1
  6
CONTINUOUS
 62
     7
 10
1141.555680
 20
445.800000
 11
1127.155680
 21
445.800000
  0
LINE
  8
CSLAYER1
  6
CONTINUOUS
 62
     7
 10
1140.355680
 20
444.600000
 11
1128.355680
 21
444.600000
  0
LINE
  8
CSLAYER1
  6
CONTINUOUS
 62
     7
 10
1128.355680
 20
444.600000
 11
1127.155680
 21
445.800000
  0
LINE
  8
CSLAYER1
  6
CONTINUOUS
 62
     7
 10
1127.155680
 20
445.800000
 11
1127.155680
 21
450.000000
  0
LINE
  8
CSLAYER1
  6
CONTINUOUS
 62
     7
 10
1128.055680
 20
444.900000
 11
1128.055680
 21
450.000000
  0
LINE
  8
CSLAYER1
  6
CENTER
 62
     2
 10
1199.790484
 20
438.600000
 11
1199.790484
 21
525.600000
  0
LINE
  8
CSLAYER1
  6
CONTINUOUS
 62
     7
 10
1210.590484
 20
519.600000
 11
1212.270484
 21
518.630051
  0
LINE
  8
CSLAYER1
  6
CONTINUOUS
 62
     7
 10
1212.270484
 20
518.630051
 11
1212.270484
 21
510.600000
  0
LINE
  8
CSLAYER1
  6
CONTINUOUS
 62
     7
 10
1188.990484
 20
519.600000
 11
1187.310484
 21
518.630051
  0
LINE
  8
CSLAYER1
  6
CONTINUOUS
 62
     7
 10
1187.310484
 20
518.630051
 11
1187.310484
 21
510.600000
  0
LINE
  8
CSLAYER1
  6
CONTINUOUS
 62
     7
 10
1210.590484
 20
519.600000
 11
1188.990484
 21
519.600000
  0
LINE
  8
CSLAYER1
  6
CONTINUOUS
 62
     7
 10
1212.270484
 20
510.600000
 11
1187.310484
 21
510.600000
  0
ARC
  8
CSLAYER1
  6
CONTINUOUS
 62
     7
 10
1209.630484
 20
515.522257
 40
4.077742
 50
49.652860
 51
130.347140
  0
ARC
  8
CSLAYER1
  6
CONTINUOUS
 62
     7
 10
1199.790484
 20
492.391956
 40
27.208044
 50
74.655173
 51
105.344827
  0
ARC
  8
CSLAYER1
  6
CONTINUOUS
 62
     7
 10
1189.950484
 20
515.522257
 40
4.077742
 50
49.652860
 51
130.347140
  0
LINE
  8
CSLAYER1
  6
CONTINUOUS
 62
     7
 10
1206.990484
 20
518.630051
 11
1206.990484
 21
510.600000
  0
LINE
  8
CSLAYER1
  6
CONTINUOUS
 62
     7
 10
1192.590484
 20
518.630051
 11
1192.590484
 21
510.600000
  0
LINE
  8
CSLAYER1
  6
CONTINUOUS
 62
     7
 10
1192.590484
 20
461.400000
 11
1192.590484
 21
450.969948
  0
LINE
  8
CSLAYER1
  6
CONTINUOUS
 62
     7
 10
1187.310484
 20
461.400000
 11
1187.310484
 21
450.969948
  0
ARC
  8
CSLAYER1
  6
CONTINUOUS
 62
     7
 10
1189.950484
 20
454.077742
 40
4.077742
 50
229.652860
 51
310.347140
  0
LINE
  8
CSLAYER1
  6
CONTINUOUS
 62
     7
 10
1188.990484
 20
450.000000
 11
1187.310484
 21
450.969948
  0
LINE
  8
CSLAYER1
  6
CONTINUOUS
 62
     7
 10
1210.590484
 20
450.000000
 11
1188.990484
 21
450.000000
  0
ARC
  8
CSLAYER1
  6
CONTINUOUS
 62
     7
 10
1209.630484
 20
454.077742
 40
4.077742
 50
229.652860
 51
310.347140
  0
ARC
  8
CSLAYER1
  6
CONTINUOUS
 62
     7
 10
1199.790484
 20
477.208044
 40
27.208044
 50
254.655173
 51
285.344827
  0
LINE
  8
CSLAYER1
  6
CONTINUOUS
 62
     7
 10
1206.990484
 20
461.400000
 11
1206.990484
 21
450.969948
  0
LINE
  8
CSLAYER1
  6
CONTINUOUS
 62
     7
 10
1212.270484
 20
461.400000
 11
1212.270484
 21
450.969948
  0
LINE
  8
CSLAYER1
  6
CONTINUOUS
 62
     7
 10
1210.590484
 20
450.000000
 11
1212.270484
 21
450.969948
  0
LINE
  8
CSLAYER1
  6
CONTINUOUS
 62
     7
 10
1206.990484
 20
450.000000
 11
1206.990484
 21
445.800000
  0
LINE
  8
CSLAYER1
  6
CONTINUOUS
 62
     7
 10
1206.990484
 20
445.800000
 11
1205.790484
 21
444.600000
  0
LINE
  8
CSLAYER1
  6
CONTINUOUS
 62
     7
 10
1206.090484
 20
450.000000
 11
1206.090484
 21
444.900000
  0
LINE
  8
CSLAYER1
  6
CONTINUOUS
 62
     7
 10
1206.990484
 20
445.800000
 11
1192.590484
 21
445.800000
  0
LINE
  8
CSLAYER1
  6
CONTINUOUS
 62
     7
 10
1205.790484
 20
444.600000
 11
1193.790484
 21
444.600000
  0
LINE
  8
CSLAYER1
  6
CONTINUOUS
 62
     7
 10
1193.790484
 20
444.600000
 11
1192.590484
 21
445.800000
  0
LINE
  8
CSLAYER1
  6
CONTINUOUS
 62
     7
 10
1192.590484
 20
445.800000
 11
1192.590484
 21
450.000000
  0
LINE
  8
CSLAYER1
  6
CONTINUOUS
 62
     7
 10
1193.490484
 20
444.900000
 11
1193.490484
 21
450.000000
  0
LINE
  8
CSLAYER1
  6
CENTER
 62
     2
 10
1258.457724
 20
438.600000
 11
1258.457724
 21
525.600000
  0
LINE
  8
CSLAYER1
  6
CONTINUOUS
 62
     7
 10
1269.257724
 20
519.600000
 11
1270.937724
 21
518.630051
  0
LINE
  8
CSLAYER1
  6
CONTINUOUS
 62
     7
 10
1270.937724
 20
518.630051
 11
1270.937724
 21
510.600000
  0
LINE
  8
CSLAYER1
  6
CONTINUOUS
 62
     7
 10
1247.657724
 20
519.600000
 11
1245.977724
 21
518.630051
  0
LINE
  8
CSLAYER1
  6
CONTINUOUS
 62
     7
 10
1245.977724
 20
518.630051
 11
1245.977724
 21
510.600000
  0
LINE
  8
CSLAYER1
  6
CONTINUOUS
 62
     7
 10
1269.257724
 20
519.600000
 11
1247.657724
 21
519.600000
  0
LINE
  8
CSLAYER1
  6
CONTINUOUS
 62
     7
 10
1270.937724
 20
510.600000
 11
1245.977724
 21
510.600000
  0
ARC
  8
CSLAYER1
  6
CONTINUOUS
 62
     7
 10
1268.297724
 20
515.522257
 40
4.077742
 50
49.652860
 51
130.347140
  0
ARC
  8
CSLAYER1
  6
CONTINUOUS
 62
     7
 10
1258.457724
 20
492.391956
 40
27.208044
 50
74.655173
 51
105.344827
  0
ARC
  8
CSLAYER1
  6
CONTINUOUS
 62
     7
 10
1248.617724
 20
515.522257
 40
4.077742
 50
49.652860
 51
130.347140
  0
LINE
  8
CSLAYER1
  6
CONTINUOUS
 62
     7
 10
1265.657724
 20
518.630051
 11
1265.657724
 21
510.600000
  0
LINE
  8
CSLAYER1
  6
CONTINUOUS
 62
     7
 10
1251.257724
 20
518.630051
 11
1251.257724
 21
510.600000
  0
LINE
  8
CSLAYER1
  6
CONTINUOUS
 62
     7
 10
1251.257724
 20
461.400000
 11
1251.257724
 21
450.969948
  0
LINE
  8
CSLAYER1
  6
CONTINUOUS
 62
     7
 10
1245.977724
 20
461.400000
 11
1245.977724
 21
450.969948
  0
ARC
  8
CSLAYER1
  6
CONTINUOUS
 62
     7
 10
1248.617724
 20
454.077742
 40
4.077742
 50
229.652860
 51
310.347140
  0
LINE
  8
CSLAYER1
  6
CONTINUOUS
 62
     7
 10
1247.657724
 20
450.000000
 11
1245.977724
 21
450.969948
  0
LINE
  8
CSLAYER1
  6
CONTINUOUS
 62
     7
 10
1269.257724
 20
450.000000
 11
1247.657724
 21
450.000000
  0
ARC
  8
CSLAYER1
  6
CONTINUOUS
 62
     7
 10
1268.297724
 20
454.077742
 40
4.077742
 50
229.652860
 51
310.347140
  0
ARC
  8
CSLAYER1
  6
CONTINUOUS
 62
     7
 10
1258.457724
 20
477.208044
 40
27.208044
 50
254.655173
 51
285.344827
  0
LINE
  8
CSLAYER1
  6
CONTINUOUS
 62
     7
 10
1265.657724
 20
461.400000
 11
1265.657724
 21
450.969948
  0
LINE
  8
CSLAYER1
  6
CONTINUOUS
 62
     7
 10
1270.937724
 20
461.400000
 11
1270.937724
 21
450.969948
  0
LINE
  8
CSLAYER1
  6
CONTINUOUS
 62
     7
 10
1269.257724
 20
450.000000
 11
1270.937724
 21
450.969948
  0
LINE
  8
CSLAYER1
  6
CONTINUOUS
 62
     7
 10
1265.657724
 20
450.000000
 11
1265.657724
 21
445.800000
  0
LINE
  8
CSLAYER1
  6
CONTINUOUS
 62
     7
 10
1265.657724
 20
445.800000
 11
1264.457724
 21
444.600000
  0
LINE
  8
CSLAYER1
  6
CONTINUOUS
 62
     7
 10
1264.757724
 20
450.000000
 11
1264.757724
 21
444.900000
  0
LINE
  8
CSLAYER1
  6
CONTINUOUS
 62
     7
 10
1265.657724
 20
445.800000
 11
1251.257724
 21
445.800000
  0
LINE
  8
CSLAYER1
  6
CONTINUOUS
 62
     7
 10
1264.457724
 20
444.600000
 11
1252.457724
 21
444.600000
  0
LINE
  8
CSLAYER1
  6
CONTINUOUS
 62
     7
 10
1252.457724
 20
444.600000
 11
1251.257724
 21
445.800000
  0
LINE
  8
CSLAYER1
  6
CONTINUOUS
 62
     7
 10
1251.257724
 20
445.800000
 11
1251.257724
 21
450.000000
  0
LINE
  8
CSLAYER1
  6
CONTINUOUS
 62
     7
 10
1252.157724
 20
444.900000
 11
1252.157724
 21
450.000000
  0
LINE
  8
CSLAYER1
  6
CENTER
 62
     2
 10
1306.359325
 20
438.600000
 11
1306.359325
 21
525.600000
  0
LINE
  8
CSLAYER1
  6
CONTINUOUS
 62
     7
 10
1317.159325
 20
519.600000
 11
1318.839325
 21
518.630051
  0
LINE
  8
CSLAYER1
  6
CONTINUOUS
 62
     7
 10
1318.839325
 20
518.630051
 11
1318.839325
 21
510.600000
  0
LINE
  8
CSLAYER1
  6
CONTINUOUS
 62
     7
 10
1295.559325
 20
519.600000
 11
1293.879325
 21
518.630051
  0
LINE
  8
CSLAYER1
  6
CONTINUOUS
 62
     7
 10
1293.879325
 20
518.630051
 11
1293.879325
 21
510.600000
  0
LINE
  8
CSLAYER1
  6
CONTINUOUS
 62
     7
 10
1317.159325
 20
519.600000
 11
1295.559325
 21
519.600000
  0
LINE
  8
CSLAYER1
  6
CONTINUOUS
 62
     7
 10
1318.839325
 20
510.600000
 11
1293.879325
 21
510.600000
  0
ARC
  8
CSLAYER1
  6
CONTINUOUS
 62
     7
 10
1316.199325
 20
515.522257
 40
4.077742
 50
49.652860
 51
130.347140
  0
ARC
  8
CSLAYER1
  6
CONTINUOUS
 62
     7
 10
1306.359325
 20
492.391956
 40
27.208044
 50
74.655173
 51
105.344827
  0
ARC
  8
CSLAYER1
  6
CONTINUOUS
 62
     7
 10
1296.519325
 20
515.522257
 40
4.077742
 50
49.652860
 51
130.347140
  0
LINE
  8
CSLAYER1
  6
CONTINUOUS
 62
     7
 10
1313.559325
 20
518.630051
 11
1313.559325
 21
510.600000
  0
LINE
  8
CSLAYER1
  6
CONTINUOUS
 62
     7
 10
1299.159325
 20
518.630051
 11
1299.159325
 21
510.600000
  0
LINE
  8
CSLAYER1
  6
CONTINUOUS
 62
     7
 10
1299.159325
 20
461.400000
 11
1299.159325
 21
450.969948
  0
LINE
  8
CSLAYER1
  6
CONTINUOUS
 62
     7
 10
1293.879325
 20
461.400000
 11
1293.879325
 21
450.969948
  0
ARC
  8
CSLAYER1
  6
CONTINUOUS
 62
     7
 10
1296.519325
 20
454.077742
 40
4.077742
 50
229.652860
 51
310.347140
  0
LINE
  8
CSLAYER1
  6
CONTINUOUS
 62
     7
 10
1295.559325
 20
450.000000
 11
1293.879325
 21
450.969948
  0
LINE
  8
CSLAYER1
  6
CONTINUOUS
 62
     7
 10
1317.159325
 20
450.000000
 11
1295.559325
 21
450.000000
  0
ARC
  8
CSLAYER1
  6
CONTINUOUS
 62
     7
 10
1316.199325
 20
454.077742
 40
4.077742
 50
229.652860
 51
310.347140
  0
ARC
  8
CSLAYER1
  6
CONTINUOUS
 62
     7
 10
1306.359325
 20
477.208044
 40
27.208044
 50
254.655173
 51
285.344827
  0
LINE
  8
CSLAYER1
  6
CONTINUOUS
 62
     7
 10
1313.559325
 20
461.400000
 11
1313.559325
 21
450.969948
  0
LINE
  8
CSLAYER1
  6
CONTINUOUS
 62
     7
 10
1318.839325
 20
461.400000
 11
1318.839325
 21
450.969948
  0
LINE
  8
CSLAYER1
  6
CONTINUOUS
 62
     7
 10
1317.159325
 20
450.000000
 11
1318.839325
 21
450.969948
  0
LINE
  8
CSLAYER1
  6
CONTINUOUS
 62
     7
 10
1313.559325
 20
450.000000
 11
1313.559325
 21
445.800000
  0
LINE
  8
CSLAYER1
  6
CONTINUOUS
 62
     7
 10
1313.559325
 20
445.800000
 11
1312.359325
 21
444.600000
  0
LINE
  8
CSLAYER1
  6
CONTINUOUS
 62
     7
 10
1312.659325
 20
450.000000
 11
1312.659325
 21
444.900000
  0
LINE
  8
CSLAYER1
  6
CONTINUOUS
 62
     7
 10
1313.559325
 20
445.800000
 11
1299.159325
 21
445.800000
  0
LINE
  8
CSLAYER1
  6
CONTINUOUS
 62
     7
 10
1312.359325
 20
444.600000
 11
1300.359325
 21
444.600000
  0
LINE
  8
CSLAYER1
  6
CONTINUOUS
 62
     7
 10
1300.359325
 20
444.600000
 11
1299.159325
 21
445.800000
  0
LINE
  8
CSLAYER1
  6
CONTINUOUS
 62
     7
 10
1299.159325
 20
445.800000
 11
1299.159325
 21
450.000000
  0
LINE
  8
CSLAYER1
  6
CONTINUOUS
 62
     7
 10
1300.059325
 20
444.900000
 11
1300.059325
 21
450.000000
  0
LINE
  8
CSLAYER1
  6
CENTER
 62
     2
 10
1340.230872
 20
438.600000
 11
1340.230872
 21
525.600000
  0
LINE
  8
CSLAYER1
  6
CONTINUOUS
 62
     7
 10
1351.030872
 20
519.600000
 11
1352.710872
 21
518.630051
  0
LINE
  8
CSLAYER1
  6
CONTINUOUS
 62
     7
 10
1352.710872
 20
518.630051
 11
1352.710872
 21
510.600000
  0
LINE
  8
CSLAYER1
  6
CONTINUOUS
 62
     7
 10
1329.430872
 20
519.600000
 11
1327.750872
 21
518.630051
  0
LINE
  8
CSLAYER1
  6
CONTINUOUS
 62
     7
 10
1327.750872
 20
518.630051
 11
1327.750872
 21
510.600000
  0
LINE
  8
CSLAYER1
  6
CONTINUOUS
 62
     7
 10
1351.030872
 20
519.600000
 11
1329.430872
 21
519.600000
  0
LINE
  8
CSLAYER1
  6
CONTINUOUS
 62
     7
 10
1352.710872
 20
510.600000
 11
1327.750872
 21
510.600000
  0
ARC
  8
CSLAYER1
  6
CONTINUOUS
 62
     7
 10
1350.070872
 20
515.522257
 40
4.077742
 50
49.652860
 51
130.347140
  0
ARC
  8
CSLAYER1
  6
CONTINUOUS
 62
     7
 10
1340.230872
 20
492.391956
 40
27.208044
 50
74.655173
 51
105.344827
  0
ARC
  8
CSLAYER1
  6
CONTINUOUS
 62
     7
 10
1330.390872
 20
515.522257
 40
4.077742
 50
49.652860
 51
130.347140
  0
LINE
  8
CSLAYER1
  6
CONTINUOUS
 62
     7
 10
1347.430872
 20
518.630051
 11
1347.430872
 21
510.600000
  0
LINE
  8
CSLAYER1
  6
CONTINUOUS
 62
     7
 10
1333.030872
 20
518.630051
 11
1333.030872
 21
510.600000
  0
LINE
  8
CSLAYER1
  6
CONTINUOUS
 62
     7
 10
1333.030872
 20
461.400000
 11
1333.030872
 21
450.969948
  0
LINE
  8
CSLAYER1
  6
CONTINUOUS
 62
     7
 10
1327.750872
 20
461.400000
 11
1327.750872
 21
450.969948
  0
ARC
  8
CSLAYER1
  6
CONTINUOUS
 62
     7
 10
1330.390872
 20
454.077742
 40
4.077742
 50
229.652860
 51
310.347140
  0
LINE
  8
CSLAYER1
  6
CONTINUOUS
 62
     7
 10
1329.430872
 20
450.000000
 11
1327.750872
 21
450.969948
  0
LINE
  8
CSLAYER1
  6
CONTINUOUS
 62
     7
 10
1351.030872
 20
450.000000
 11
1329.430872
 21
450.000000
  0
ARC
  8
CSLAYER1
  6
CONTINUOUS
 62
     7
 10
1350.070872
 20
454.077742
 40
4.077742
 50
229.652860
 51
310.347140
  0
ARC
  8
CSLAYER1
  6
CONTINUOUS
 62
     7
 10
1340.230872
 20
477.208044
 40
27.208044
 50
254.655173
 51
285.344827
  0
LINE
  8
CSLAYER1
  6
CONTINUOUS
 62
     7
 10
1347.430872
 20
461.400000
 11
1347.430872
 21
450.969948
  0
LINE
  8
CSLAYER1
  6
CONTINUOUS
 62
     7
 10
1352.710872
 20
461.400000
 11
1352.710872
 21
450.969948
  0
LINE
  8
CSLAYER1
  6
CONTINUOUS
 62
     7
 10
1351.030872
 20
450.000000
 11
1352.710872
 21
450.969948
  0
LINE
  8
CSLAYER1
  6
CONTINUOUS
 62
     7
 10
1347.430872
 20
450.000000
 11
1347.430872
 21
445.800000
  0
LINE
  8
CSLAYER1
  6
CONTINUOUS
 62
     7
 10
1347.430872
 20
445.800000
 11
1346.230872
 21
444.600000
  0
LINE
  8
CSLAYER1
  6
CONTINUOUS
 62
     7
 10
1346.530872
 20
450.000000
 11
1346.530872
 21
444.900000
  0
LINE
  8
CSLAYER1
  6
CONTINUOUS
 62
     7
 10
1347.430872
 20
445.800000
 11
1333.030872
 21
445.800000
  0
LINE
  8
CSLAYER1
  6
CONTINUOUS
 62
     7
 10
1346.230872
 20
444.600000
 11
1334.230872
 21
444.600000
  0
LINE
  8
CSLAYER1
  6
CONTINUOUS
 62
     7
 10
1334.230872
 20
444.600000
 11
1333.030872
 21
445.800000
  0
LINE
  8
CSLAYER1
  6
CONTINUOUS
 62
     7
 10
1333.030872
 20
445.800000
 11
1333.030872
 21
450.000000
  0
LINE
  8
CSLAYER1
  6
CONTINUOUS
 62
     7
 10
1333.930872
 20
444.900000
 11
1333.930872
 21
450.000000
  0
LINE
  8
CSLAYER1
  6
CENTER
 62
     2
 10
1357.764074
 20
438.600000
 11
1357.764074
 21
525.600000
  0
LINE
  8
CSLAYER1
  6
CONTINUOUS
 62
     7
 10
1368.564074
 20
519.600000
 11
1370.244074
 21
518.630051
  0
LINE
  8
CSLAYER1
  6
CONTINUOUS
 62
     7
 10
1370.244074
 20
518.630051
 11
1370.244074
 21
510.600000
  0
LINE
  8
CSLAYER1
  6
CONTINUOUS
 62
     7
 10
1368.564074
 20
519.600000
 11
1346.964074
 21
519.600000
  0
LINE
  8
CSLAYER1
  6
CONTINUOUS
 62
     7
 10
1370.244074
 20
510.600000
 11
1345.284074
 21
510.600000
  0
ARC
  8
CSLAYER1
  6
CONTINUOUS
 62
     7
 10
1367.604074
 20
515.522257
 40
4.077742
 50
49.652860
 51
130.347140
  0
ARC
  8
CSLAYER1
  6
CONTINUOUS
 62
     7
 10
1357.764074
 20
492.391956
 40
27.208044
 50
74.655173
 51
102.073154
  0
LINE
  8
CSLAYER1
  6
CONTINUOUS
 62
     7
 10
1364.964074
 20
518.630051
 11
1364.964074
 21
510.600000
  0
LINE
  8
CSLAYER1
  6
CONTINUOUS
 62
     7
 10
1368.564074
 20
450.000000
 11
1346.964074
 21
450.000000
  0
ARC
  8
CSLAYER1
  6
CONTINUOUS
 62
     7
 10
1367.604074
 20
454.077742
 40
4.077742
 50
229.652860
 51
310.347140
  0
ARC
  8
CSLAYER1
  6
CONTINUOUS
 62
     7
 10
1357.764074
 20
477.208044
 40
27.208044
 50
258.133818
 51
285.344827
  0
LINE
  8
CSLAYER1
  6
CONTINUOUS
 62
     7
 10
1364.964074
 20
461.400000
 11
1364.964074
 21
450.969948
  0
LINE
  8
CSLAYER1
  6
CONTINUOUS
 62
     7
 10
1370.244074
 20
461.400000
 11
1370.244074
 21
450.969948
  0
LINE
  8
CSLAYER1
  6
CONTINUOUS
 62
     7
 10
1368.564074
 20
450.000000
 11
1370.244074
 21
450.969948
  0
LINE
  8
CSLAYER1
  6
CONTINUOUS
 62
     7
 10
1364.964074
 20
450.000000
 11
1364.964074
 21
445.800000
  0
LINE
  8
CSLAYER1
  6
CONTINUOUS
 62
     7
 10
1364.964074
 20
445.800000
 11
1363.764074
 21
444.600000
  0
LINE
  8
CSLAYER1
  6
CONTINUOUS
 62
     7
 10
1364.064074
 20
450.000000
 11
1364.064074
 21
444.900000
  0
LINE
  8
CSLAYER1
  6
CONTINUOUS
 62
     7
 10
1364.964074
 20
445.800000
 11
1350.564074
 21
445.800000
  0
LINE
  8
CSLAYER1
  6
CONTINUOUS
 62
     7
 10
1363.764074
 20
444.600000
 11
1351.764074
 21
444.600000
  0
LINE
  8
CSLAYER1
  6
CONTINUOUS
 62
     7
 10
1351.764074
 20
444.600000
 11
1350.564074
 21
445.800000
  0
LINE
  8
CSLAYER1
  6
CONTINUOUS
 62
     7
 10
1350.564074
 20
445.800000
 11
1350.564074
 21
450.000000
  0
LINE
  8
CSLAYER1
  6
CONTINUOUS
 62
     7
 10
1351.464074
 20
444.900000
 11
1351.464074
 21
450.000000
  0
LINE
  8
CSLAYER1
  6
CONTINUOUS
 62
     7
 10
851.484133
 20
268.200000
 11
851.484133
 21
269.400000
  0
LINE
  8
CSLAYER1
  6
CENTER
 62
     2
 10
1066.612586
 20
221.400000
 11
1066.612586
 21
308.400000
  0
LINE
  8
CSLAYER1
  6
CONTINUOUS
 62
     7
 10
1055.812586
 20
302.400000
 11
1054.132586
 21
301.430051
  0
LINE
  8
CSLAYER1
  6
CONTINUOUS
 62
     7
 10
1054.132586
 20
301.430051
 11
1054.132586
 21
293.400000
  0
LINE
  8
CSLAYER1
  6
CONTINUOUS
 62
     7
 10
1077.412586
 20
302.400000
 11
1079.092586
 21
301.430051
  0
LINE
  8
CSLAYER1
  6
CONTINUOUS
 62
     7
 10
1079.092586
 20
301.430051
 11
1079.092586
 21
299.400000
  0
LINE
  8
CSLAYER1
  6
CONTINUOUS
 62
     7
 10
1055.812586
 20
302.400000
 11
1077.412586
 21
302.400000
  0
LINE
  8
CSLAYER1
  6
CONTINUOUS
 62
     7
 10
1054.132586
 20
293.400000
 11
1075.614135
 21
293.400000
  0
ARC
  8
CSLAYER1
  6
CONTINUOUS
 62
     7
 10
1056.772586
 20
298.322257
 40
4.077742
 50
49.652860
 51
130.347140
  0
ARC
  8
CSLAYER1
  6
CONTINUOUS
 62
     7
 10
1066.612586
 20
275.191956
 40
27.208044
 50
74.655173
 51
105.344827
  0
ARC
  8
CSLAYER1
  6
CONTINUOUS
 62
     7
 10
1076.452586
 20
298.322257
 40
4.077742
 50
49.652860
 51
130.347140
  0
LINE
  8
CSLAYER1
  6
CONTINUOUS
 62
     7
 10
1059.412586
 20
301.430051
 11
1059.412586
 21
293.400000
  0
LINE
  8
CSLAYER1
  6
CONTINUOUS
 62
     7
 10
1073.812586
 20
301.430051
 11
1073.812586
 21
293.400000
  0
LINE
  8
CSLAYER1
  6
CONTINUOUS
 62
     7
 10
1073.812586
 20
237.300000
 11
1073.812586
 21
233.769948
  0
ARC
  8
CSLAYER1
  6
CONTINUOUS
 62
     7
 10
1076.452586
 20
236.877742
 40
4.077742
 50
229.652860
 51
294.107739
  0
LINE
  8
CSLAYER1
  6
CONTINUOUS
 62
     7
 10
1077.412586
 20
232.800000
 11
1078.105359
 21
233.199973
  0
LINE
  8
CSLAYER1
  6
CONTINUOUS
 62
     7
 10
1055.812586
 20
232.800000
 11
1077.412586
 21
232.800000
  0
ARC
  8
CSLAYER1
  6
CONTINUOUS
 62
     7
 10
1056.772586
 20
236.877742
 40
4.077742
 50
229.652860
 51
310.347140
  0
ARC
  8
CSLAYER1
  6
CONTINUOUS
 62
     7
 10
1066.612586
 20
260.008044
 40
27.208044
 50
254.655173
 51
285.344827
  0
LINE
  8
CSLAYER1
  6
CONTINUOUS
 62
     7
 10
1059.412586
 20
244.200000
 11
1059.412586
 21
233.769948
  0
LINE
  8
CSLAYER1
  6
CONTINUOUS
 62
     7
 10
1054.132586
 20
244.200000
 11
1054.132586
 21
233.769948
  0
LINE
  8
CSLAYER1
  6
CONTINUOUS
 62
     7
 10
1055.812586
 20
232.800000
 11
1054.132586
 21
233.769948
  0
LINE
  8
CSLAYER1
  6
CONTINUOUS
 62
     7
 10
1059.412586
 20
232.800000
 11
1059.412586
 21
228.600000
  0
LINE
  8
CSLAYER1
  6
CONTINUOUS
 62
     7
 10
1059.412586
 20
228.600000
 11
1060.612586
 21
227.400000
  0
LINE
  8
CSLAYER1
  6
CONTINUOUS
 62
     7
 10
1060.312586
 20
232.800000
 11
1060.312586
 21
227.700000
  0
LINE
  8
CSLAYER1
  6
CONTINUOUS
 62
     7
 10
1059.412586
 20
228.600000
 11
1073.812586
 21
228.600000
  0
LINE
  8
CSLAYER1
  6
CONTINUOUS
 62
     7
 10
1060.612586
 20
227.400000
 11
1072.612586
 21
227.400000
  0
LINE
  8
CSLAYER1
  6
CONTINUOUS
 62
     7
 10
1072.612586
 20
227.400000
 11
1073.812586
 21
228.600000
  0
LINE
  8
CSLAYER1
  6
CONTINUOUS
 62
     7
 10
1073.812586
 20
228.600000
 11
1073.812586
 21
232.800000
  0
LINE
  8
CSLAYER1
  6
CONTINUOUS
 62
     7
 10
1072.912586
 20
227.700000
 11
1072.912586
 21
232.800000
  0
LINE
  8
CSLAYER1
  6
CENTER
 62
     2
 10
1001.177782
 20
221.400000
 11
1001.177782
 21
308.400000
  0
LINE
  8
CSLAYER1
  6
CONTINUOUS
 62
     7
 10
990.377782
 20
302.400000
 11
988.697782
 21
301.430051
  0
LINE
  8
CSLAYER1
  6
CONTINUOUS
 62
     7
 10
988.697782
 20
301.430051
 11
988.697782
 21
293.400000
  0
LINE
  8
CSLAYER1
  6
CONTINUOUS
 62
     7
 10
1011.977782
 20
302.400000
 11
1013.657782
 21
301.430051
  0
LINE
  8
CSLAYER1
  6
CONTINUOUS
 62
     7
 10
1013.657782
 20
301.430051
 11
1013.657782
 21
293.400000
  0
LINE
  8
CSLAYER1
  6
CONTINUOUS
 62
     7
 10
990.377782
 20
302.400000
 11
1011.977782
 21
302.400000
  0
ARC
  8
CSLAYER1
  6
CONTINUOUS
 62
     7
 10
991.337782
 20
298.322257
 40
4.077742
 50
49.652860
 51
130.347140
  0
ARC
  8
CSLAYER1
  6
CONTINUOUS
 62
     7
 10
1001.177782
 20
275.191956
 40
27.208044
 50
74.655173
 51
105.344827
  0
ARC
  8
CSLAYER1
  6
CONTINUOUS
 62
     7
 10
1011.017782
 20
298.322257
 40
4.077742
 50
49.652860
 51
130.347140
  0
LINE
  8
CSLAYER1
  6
CONTINUOUS
 62
     7
 10
993.977782
 20
301.430051
 11
993.977782
 21
293.400000
  0
LINE
  8
CSLAYER1
  6
CONTINUOUS
 62
     7
 10
1008.377782
 20
301.430051
 11
1008.377782
 21
293.400000
  0
LINE
  8
CSLAYER1
  6
CONTINUOUS
 62
     7
 10
1008.377782
 20
237.208949
 11
1008.377782
 21
233.769948
  0
LINE
  8
CSLAYER1
  6
CONTINUOUS
 62
     7
 10
1013.657782
 20
244.200000
 11
1013.657782
 21
233.769948
  0
ARC
  8
CSLAYER1
  6
CONTINUOUS
 62
     7
 10
1011.017782
 20
236.877742
 40
4.077742
 50
229.652860
 51
310.347140
  0
LINE
  8
CSLAYER1
  6
CONTINUOUS
 62
     7
 10
1011.977782
 20
232.800000
 11
1013.657782
 21
233.769948
  0
LINE
  8
CSLAYER1
  6
CONTINUOUS
 62
     7
 10
990.377782
 20
232.800000
 11
996.692259
 21
232.800000
  0
ARC
  8
CSLAYER1
  6
CONTINUOUS
 62
     7
 10
991.337782
 20
236.877742
 40
4.077742
 50
229.652860
 51
310.347140
  0
ARC
  8
CSLAYER1
  6
CONTINUOUS
 62
     7
 10
1001.177782
 20
260.008044
 40
27.208044
 50
254.655173
 51
261.070293
  0
LINE
  8
CSLAYER1
  6
CONTINUOUS
 62
     7
 10
993.977782
 20
244.200000
 11
993.977782
 21
233.769948
  0
LINE
  8
CSLAYER1
  6
CONTINUOUS
 62
     7
 10
988.697782
 20
244.200000
 11
988.697782
 21
233.769948
  0
LINE
  8
CSLAYER1
  6
CONTINUOUS
 62
     7
 10
990.377782
 20
232.800000
 11
988.697782
 21
233.769948
  0
LINE
  8
CSLAYER1
  6
CONTINUOUS
 62
     7
 10
993.977782
 20
232.800000
 11
993.977782
 21
228.600000
  0
LINE
  8
CSLAYER1
  6
CONTINUOUS
 62
     7
 10
993.977782
 20
228.600000
 11
995.177782
 21
227.400000
  0
LINE
  8
CSLAYER1
  6
CONTINUOUS
 62
     7
 10
994.877782
 20
232.800000
 11
994.877782
 21
227.700000
  0
LINE
  8
CSLAYER1
  6
CONTINUOUS
 62
     7
 10
993.977782
 20
228.600000
 11
995.689963
 21
228.600000
  0
LINE
  8
CSLAYER1
  6
CONTINUOUS
 62
     7
 10
995.177782
 20
227.400000
 11
996.032367
 21
227.400000
  0
LINE
  8
CSLAYER1
  6
CONTINUOUS
 62
     7
 10
1008.124327
 20
228.346544
 11
1008.377782
 21
228.600000
  0
LINE
  8
CSLAYER1
  6
CONTINUOUS
 62
     7
 10
1008.377782
 20
228.600000
 11
1008.377782
 21
232.800000
  0
LINE
  8
CSLAYER1
  6
CENTER
 62
     2
 10
942.510542
 20
221.400000
 11
942.510542
 21
308.400000
  0
LINE
  8
CSLAYER1
  6
CONTINUOUS
 62
     7
 10
931.710542
 20
302.400000
 11
930.030542
 21
301.430051
  0
LINE
  8
CSLAYER1
  6
CONTINUOUS
 62
     7
 10
930.030542
 20
301.430051
 11
930.030542
 21
293.400000
  0
LINE
  8
CSLAYER1
  6
CONTINUOUS
 62
     7
 10
953.310542
 20
302.400000
 11
954.990542
 21
301.430051
  0
LINE
  8
CSLAYER1
  6
CONTINUOUS
 62
     7
 10
954.990542
 20
301.430051
 11
954.990542
 21
293.400000
  0
LINE
  8
CSLAYER1
  6
CONTINUOUS
 62
     7
 10
931.710542
 20
302.400000
 11
953.310542
 21
302.400000
  0
LINE
  8
CSLAYER1
  6
CONTINUOUS
 62
     7
 10
930.030542
 20
293.400000
 11
954.990542
 21
293.400000
  0
ARC
  8
CSLAYER1
  6
CONTINUOUS
 62
     7
 10
932.670542
 20
298.322257
 40
4.077742
 50
49.652860
 51
130.347140
  0
ARC
  8
CSLAYER1
  6
CONTINUOUS
 62
     7
 10
942.510542
 20
275.191956
 40
27.208044
 50
74.655173
 51
105.344827
  0
ARC
  8
CSLAYER1
  6
CONTINUOUS
 62
     7
 10
952.350542
 20
298.322257
 40
4.077742
 50
49.652860
 51
130.347140
  0
LINE
  8
CSLAYER1
  6
CONTINUOUS
 62
     7
 10
935.310542
 20
301.430051
 11
935.310542
 21
293.400000
  0
LINE
  8
CSLAYER1
  6
CONTINUOUS
 62
     7
 10
949.710542
 20
301.430051
 11
949.710542
 21
293.400000
  0
LINE
  8
CSLAYER1
  6
CONTINUOUS
 62
     7
 10
949.710542
 20
244.200000
 11
949.710542
 21
233.769948
  0
LINE
  8
CSLAYER1
  6
CONTINUOUS
 62
     7
 10
954.990542
 20
244.200000
 11
954.990542
 21
233.769948
  0
ARC
  8
CSLAYER1
  6
CONTINUOUS
 62
     7
 10
952.350542
 20
236.877742
 40
4.077742
 50
229.652860
 51
310.347140
  0
LINE
  8
CSLAYER1
  6
CONTINUOUS
 62
     7
 10
953.310542
 20
232.800000
 11
954.990542
 21
233.769948
  0
LINE
  8
CSLAYER1
  6
CONTINUOUS
 62
     7
 10
931.710542
 20
232.800000
 11
953.310542
 21
232.800000
  0
ARC
  8
CSLAYER1
  6
CONTINUOUS
 62
     7
 10
932.670542
 20
236.877742
 40
4.077742
 50
229.652860
 51
310.347140
  0
ARC
  8
CSLAYER1
  6
CONTINUOUS
 62
     7
 10
942.510542
 20
260.008044
 40
27.208044
 50
254.655173
 51
285.344827
  0
LINE
  8
CSLAYER1
  6
CONTINUOUS
 62
     7
 10
935.310542
 20
244.200000
 11
935.310542
 21
233.769948
  0
LINE
  8
CSLAYER1
  6
CONTINUOUS
 62
     7
 10
930.030542
 20
244.200000
 11
930.030542
 21
233.769948
  0
LINE
  8
CSLAYER1
  6
CONTINUOUS
 62
     7
 10
931.710542
 20
232.800000
 11
930.030542
 21
233.769948
  0
LINE
  8
CSLAYER1
  6
CONTINUOUS
 62
     7
 10
935.310542
 20
232.800000
 11
935.310542
 21
228.600000
  0
LINE
  8
CSLAYER1
  6
CONTINUOUS
 62
     7
 10
935.310542
 20
228.600000
 11
936.510542
 21
227.400000
  0
LINE
  8
CSLAYER1
  6
CONTINUOUS
 62
     7
 10
936.210542
 20
232.800000
 11
936.210542
 21
227.700000
  0
LINE
  8
CSLAYER1
  6
CONTINUOUS
 62
     7
 10
935.310542
 20
228.600000
 11
949.710542
 21
228.600000
  0
LINE
  8
CSLAYER1
  6
CONTINUOUS
 62
     7
 10
936.510542
 20
227.400000
 11
948.510542
 21
227.400000
  0
LINE
  8
CSLAYER1
  6
CONTINUOUS
 62
     7
 10
948.510542
 20
227.400000
 11
949.710542
 21
228.600000
  0
LINE
  8
CSLAYER1
  6
CONTINUOUS
 62
     7
 10
949.710542
 20
228.600000
 11
949.710542
 21
232.800000
  0
LINE
  8
CSLAYER1
  6
CONTINUOUS
 62
     7
 10
948.810542
 20
227.700000
 11
948.810542
 21
232.800000
  0
LINE
  8
CSLAYER1
  6
CENTER
 62
     2
 10
894.608941
 20
221.400000
 11
894.608941
 21
308.400000
  0
LINE
  8
CSLAYER1
  6
CONTINUOUS
 62
     7
 10
883.808941
 20
302.400000
 11
882.128941
 21
301.430051
  0
LINE
  8
CSLAYER1
  6
CONTINUOUS
 62
     7
 10
882.128941
 20
301.430051
 11
882.128941
 21
293.400000
  0
LINE
  8
CSLAYER1
  6
CONTINUOUS
 62
     7
 10
905.408941
 20
302.400000
 11
907.088941
 21
301.430051
  0
LINE
  8
CSLAYER1
  6
CONTINUOUS
 62
     7
 10
907.088941
 20
301.430051
 11
907.088941
 21
293.400000
  0
LINE
  8
CSLAYER1
  6
CONTINUOUS
 62
     7
 10
883.808941
 20
302.400000
 11
905.408941
 21
302.400000
  0
LINE
  8
CSLAYER1
  6
CONTINUOUS
 62
     7
 10
882.128941
 20
293.400000
 11
907.088941
 21
293.400000
  0
ARC
  8
CSLAYER1
  6
CONTINUOUS
 62
     7
 10
884.768941
 20
298.322257
 40
4.077742
 50
49.652860
 51
130.347140
  0
ARC
  8
CSLAYER1
  6
CONTINUOUS
 62
     7
 10
894.608941
 20
275.191956
 40
27.208044
 50
74.655173
 51
105.344827
  0
ARC
  8
CSLAYER1
  6
CONTINUOUS
 62
     7
 10
904.448941
 20
298.322257
 40
4.077742
 50
49.652860
 51
130.347140
  0
LINE
  8
CSLAYER1
  6
CONTINUOUS
 62
     7
 10
887.408941
 20
301.430051
 11
887.408941
 21
293.400000
  0
LINE
  8
CSLAYER1
  6
CONTINUOUS
 62
     7
 10
901.808941
 20
301.430051
 11
901.808941
 21
293.400000
  0
LINE
  8
CSLAYER1
  6
CONTINUOUS
 62
     7
 10
901.808941
 20
244.200000
 11
901.808941
 21
233.769948
  0
LINE
  8
CSLAYER1
  6
CONTINUOUS
 62
     7
 10
907.088941
 20
244.200000
 11
907.088941
 21
233.769948
  0
ARC
  8
CSLAYER1
  6
CONTINUOUS
 62
     7
 10
904.448941
 20
236.877742
 40
4.077742
 50
229.652860
 51
310.347140
  0
LINE
  8
CSLAYER1
  6
CONTINUOUS
 62
     7
 10
905.408941
 20
232.800000
 11
907.088941
 21
233.769948
  0
LINE
  8
CSLAYER1
  6
CONTINUOUS
 62
     7
 10
883.808941
 20
232.800000
 11
905.408941
 21
232.800000
  0
ARC
  8
CSLAYER1
  6
CONTINUOUS
 62
     7
 10
884.768941
 20
236.877742
 40
4.077742
 50
229.652860
 51
310.347140
  0
ARC
  8
CSLAYER1
  6
CONTINUOUS
 62
     7
 10
894.608941
 20
260.008044
 40
27.208044
 50
254.655173
 51
285.344827
  0
LINE
  8
CSLAYER1
  6
CONTINUOUS
 62
     7
 10
887.408941
 20
244.200000
 11
887.408941
 21
233.769948
  0
LINE
  8
CSLAYER1
  6
CONTINUOUS
 62
     7
 10
882.128941
 20
244.200000
 11
882.128941
 21
233.769948
  0
LINE
  8
CSLAYER1
  6
CONTINUOUS
 62
     7
 10
883.808941
 20
232.800000
 11
882.128941
 21
233.769948
  0
LINE
  8
CSLAYER1
  6
CONTINUOUS
 62
     7
 10
887.408941
 20
232.800000
 11
887.408941
 21
228.600000
  0
LINE
  8
CSLAYER1
  6
CONTINUOUS
 62
     7
 10
887.408941
 20
228.600000
 11
888.608941
 21
227.400000
  0
LINE
  8
CSLAYER1
  6
CONTINUOUS
 62
     7
 10
888.308941
 20
232.800000
 11
888.308941
 21
227.700000
  0
LINE
  8
CSLAYER1
  6
CONTINUOUS
 62
     7
 10
887.408941
 20
228.600000
 11
901.808941
 21
228.600000
  0
LINE
  8
CSLAYER1
  6
CONTINUOUS
 62
     7
 10
888.608941
 20
227.400000
 11
900.608941
 21
227.400000
  0
LINE
  8
CSLAYER1
  6
CONTINUOUS
 62
     7
 10
900.608941
 20
227.400000
 11
901.808941
 21
228.600000
  0
LINE
  8
CSLAYER1
  6
CONTINUOUS
 62
     7
 10
901.808941
 20
228.600000
 11
901.808941
 21
232.800000
  0
LINE
  8
CSLAYER1
  6
CONTINUOUS
 62
     7
 10
900.908941
 20
227.700000
 11
900.908941
 21
232.800000
  0
LINE
  8
CSLAYER1
  6
CENTER
 62
     2
 10
860.737394
 20
221.400000
 11
860.737394
 21
308.400000
  0
LINE
  8
CSLAYER1
  6
CONTINUOUS
 62
     7
 10
849.937394
 20
302.400000
 11
848.257394
 21
301.430051
  0
LINE
  8
CSLAYER1
  6
CONTINUOUS
 62
     7
 10
848.257394
 20
301.430051
 11
848.257394
 21
293.400000
  0
LINE
  8
CSLAYER1
  6
CONTINUOUS
 62
     7
 10
871.537394
 20
302.400000
 11
873.217394
 21
301.430051
  0
LINE
  8
CSLAYER1
  6
CONTINUOUS
 62
     7
 10
873.217394
 20
301.430051
 11
873.217394
 21
293.400000
  0
LINE
  8
CSLAYER1
  6
CONTINUOUS
 62
     7
 10
849.937394
 20
302.400000
 11
871.537394
 21
302.400000
  0
LINE
  8
CSLAYER1
  6
CONTINUOUS
 62
     7
 10
848.257394
 20
293.400000
 11
873.217394
 21
293.400000
  0
ARC
  8
CSLAYER1
  6
CONTINUOUS
 62
     7
 10
850.897394
 20
298.322257
 40
4.077742
 50
49.652860
 51
130.347140
  0
ARC
  8
CSLAYER1
  6
CONTINUOUS
 62
     7
 10
860.737394
 20
275.191956
 40
27.208044
 50
74.655173
 51
105.344827
  0
ARC
  8
CSLAYER1
  6
CONTINUOUS
 62
     7
 10
870.577394
 20
298.322257
 40
4.077742
 50
49.652860
 51
130.347140
  0
LINE
  8
CSLAYER1
  6
CONTINUOUS
 62
     7
 10
853.537394
 20
301.430051
 11
853.537394
 21
293.400000
  0
LINE
  8
CSLAYER1
  6
CONTINUOUS
 62
     7
 10
867.937394
 20
301.430051
 11
867.937394
 21
293.400000
  0
LINE
  8
CSLAYER1
  6
CONTINUOUS
 62
     7
 10
867.937394
 20
244.200000
 11
867.937394
 21
233.769948
  0
LINE
  8
CSLAYER1
  6
CONTINUOUS
 62
     7
 10
873.217394
 20
244.200000
 11
873.217394
 21
233.769948
  0
ARC
  8
CSLAYER1
  6
CONTINUOUS
 62
     7
 10
870.577394
 20
236.877742
 40
4.077742
 50
229.652860
 51
310.347140
  0
LINE
  8
CSLAYER1
  6
CONTINUOUS
 62
     7
 10
871.537394
 20
232.800000
 11
873.217394
 21
233.769948
  0
LINE
  8
CSLAYER1
  6
CONTINUOUS
 62
     7
 10
849.937394
 20
232.800000
 11
871.537394
 21
232.800000
  0
ARC
  8
CSLAYER1
  6
CONTINUOUS
 62
     7
 10
850.897394
 20
236.877742
 40
4.077742
 50
229.652860
 51
310.347140
  0
ARC
  8
CSLAYER1
  6
CONTINUOUS
 62
     7
 10
860.737394
 20
260.008044
 40
27.208044
 50
254.655173
 51
285.344827
  0
LINE
  8
CSLAYER1
  6
CONTINUOUS
 62
     7
 10
853.537394
 20
244.200000
 11
853.537394
 21
233.769948
  0
LINE
  8
CSLAYER1
  6
CONTINUOUS
 62
     7
 10
848.257394
 20
244.200000
 11
848.257394
 21
233.769948
  0
LINE
  8
CSLAYER1
  6
CONTINUOUS
 62
     7
 10
849.937394
 20
232.800000
 11
848.257394
 21
233.769948
  0
LINE
  8
CSLAYER1
  6
CONTINUOUS
 62
     7
 10
853.537394
 20
232.800000
 11
853.537394
 21
228.600000
  0
LINE
  8
CSLAYER1
  6
CONTINUOUS
 62
     7
 10
853.537394
 20
228.600000
 11
854.737394
 21
227.400000
  0
LINE
  8
CSLAYER1
  6
CONTINUOUS
 62
     7
 10
854.437394
 20
232.800000
 11
854.437394
 21
227.700000
  0
LINE
  8
CSLAYER1
  6
CONTINUOUS
 62
     7
 10
853.537394
 20
228.600000
 11
867.937394
 21
228.600000
  0
LINE
  8
CSLAYER1
  6
CONTINUOUS
 62
     7
 10
854.737394
 20
227.400000
 11
866.737394
 21
227.400000
  0
LINE
  8
CSLAYER1
  6
CONTINUOUS
 62
     7
 10
866.737394
 20
227.400000
 11
867.937394
 21
228.600000
  0
LINE
  8
CSLAYER1
  6
CONTINUOUS
 62
     7
 10
867.937394
 20
228.600000
 11
867.937394
 21
232.800000
  0
LINE
  8
CSLAYER1
  6
CONTINUOUS
 62
     7
 10
867.037394
 20
227.700000
 11
867.037394
 21
232.800000
  0
LINE
  8
CSLAYER1
  6
CENTER
 62
     2
 10
843.204191
 20
221.400000
 11
843.204191
 21
308.400000
  0
LINE
  8
CSLAYER1
  6
CONTINUOUS
 62
     7
 10
832.404191
 20
302.400000
 11
830.724191
 21
301.430051
  0
LINE
  8
CSLAYER1
  6
CONTINUOUS
 62
     7
 10
830.724191
 20
301.430051
 11
830.724191
 21
293.400000
  0
LINE
  8
CSLAYER1
  6
CONTINUOUS
 62
     7
 10
832.404191
 20
302.400000
 11
854.004191
 21
302.400000
  0
LINE
  8
CSLAYER1
  6
CONTINUOUS
 62
     7
 10
830.724191
 20
293.400000
 11
855.684191
 21
293.400000
  0
ARC
  8
CSLAYER1
  6
CONTINUOUS
 62
     7
 10
833.364191
 20
298.322257
 40
4.077742
 50
49.652860
 51
130.347140
  0
ARC
  8
CSLAYER1
  6
CONTINUOUS
 62
     7
 10
843.204191
 20
275.191956
 40
27.208044
 50
77.926846
 51
105.344827
  0
LINE
  8
CSLAYER1
  6
CONTINUOUS
 62
     7
 10
836.004191
 20
301.430051
 11
836.004191
 21
293.400000
  0
LINE
  8
CSLAYER1
  6
CONTINUOUS
 62
     7
 10
832.404191
 20
232.800000
 11
854.004191
 21
232.800000
  0
ARC
  8
CSLAYER1
  6
CONTINUOUS
 62
     7
 10
833.364191
 20
236.877742
 40
4.077742
 50
229.652860
 51
310.347140
  0
ARC
  8
CSLAYER1
  6
CONTINUOUS
 62
     7
 10
843.204191
 20
260.008044
 40
27.208044
 50
254.655173
 51
281.866182
  0
LINE
  8
CSLAYER1
  6
CONTINUOUS
 62
     7
 10
836.004191
 20
244.200000
 11
836.004191
 21
233.769948
  0
LINE
  8
CSLAYER1
  6
CONTINUOUS
 62
     7
 10
830.724191
 20
244.200000
 11
830.724191
 21
233.769948
  0
LINE
  8
CSLAYER1
  6
CONTINUOUS
 62
     7
 10
832.404191
 20
232.800000
 11
830.724191
 21
233.769948
  0
LINE
  8
CSLAYER1
  6
CONTINUOUS
 62
     7
 10
836.004191
 20
232.800000
 11
836.004191
 21
228.600000
  0
LINE
  8
CSLAYER1
  6
CONTINUOUS
 62
     7
 10
836.004191
 20
228.600000
 11
837.204191
 21
227.400000
  0
LINE
  8
CSLAYER1
  6
CONTINUOUS
 62
     7
 10
836.904191
 20
232.800000
 11
836.904191
 21
227.700000
  0
LINE
  8
CSLAYER1
  6
CONTINUOUS
 62
     7
 10
836.004191
 20
228.600000
 11
850.404191
 21
228.600000
  0
LINE
  8
CSLAYER1
  6
CONTINUOUS
 62
     7
 10
837.204191
 20
227.400000
 11
849.204191
 21
227.400000
  0
LINE
  8
CSLAYER1
  6
CONTINUOUS
 62
     7
 10
849.204191
 20
227.400000
 11
850.404191
 21
228.600000
  0
LINE
  8
CSLAYER1
  6
CONTINUOUS
 62
     7
 10
850.404191
 20
228.600000
 11
850.404191
 21
232.800000
  0
LINE
  8
CSLAYER1
  6
CONTINUOUS
 62
     7
 10
849.504191
 20
227.700000
 11
849.504191
 21
232.800000
  0
LINE
  8
CSLAYER1
  6
CONTINUOUS
 62
     7
 10
1374.684133
 20
244.200000
 11
1125.280425
 21
244.200000
  0
LINE
  8
CSLAYER1
  6
CONTINUOUS
 62
     7
 10
1349.484133
 20
268.200000
 11
1349.484133
 21
269.400000
  0
LINE
  8
CSLAYER1
  6
CENTER
 62
     2
 10
1134.355680
 20
221.400000
 11
1134.355680
 21
308.400000
  0
LINE
  8
CSLAYER1
  6
CONTINUOUS
 62
     7
 10
1145.155680
 20
302.400000
 11
1146.835680
 21
301.430051
  0
LINE
  8
CSLAYER1
  6
CONTINUOUS
 62
     7
 10
1146.835680
 20
301.430051
 11
1146.835680
 21
293.400000
  0
LINE
  8
CSLAYER1
  6
CONTINUOUS
 62
     7
 10
1123.555680
 20
302.400000
 11
1121.875680
 21
301.430051
  0
LINE
  8
CSLAYER1
  6
CONTINUOUS
 62
     7
 10
1121.875680
 20
301.430051
 11
1121.875680
 21
299.400000
  0
LINE
  8
CSLAYER1
  6
CONTINUOUS
 62
     7
 10
1145.155680
 20
302.400000
 11
1123.555680
 21
302.400000
  0
LINE
  8
CSLAYER1
  6
CONTINUOUS
 62
     7
 10
1146.835680
 20
293.400000
 11
1125.354131
 21
293.400000
  0
ARC
  8
CSLAYER1
  6
CONTINUOUS
 62
     7
 10
1144.195680
 20
298.322257
 40
4.077742
 50
49.652860
 51
130.347140
  0
ARC
  8
CSLAYER1
  6
CONTINUOUS
 62
     7
 10
1134.355680
 20
275.191956
 40
27.208044
 50
74.655173
 51
105.344827
  0
ARC
  8
CSLAYER1
  6
CONTINUOUS
 62
     7
 10
1124.515680
 20
298.322257
 40
4.077742
 50
49.652860
 51
130.347140
  0
LINE
  8
CSLAYER1
  6
CONTINUOUS
 62
     7
 10
1141.555680
 20
301.430051
 11
1141.555680
 21
293.400000
  0
LINE
  8
CSLAYER1
  6
CONTINUOUS
 62
     7
 10
1127.155680
 20
301.430051
 11
1127.155680
 21
293.400000
  0
LINE
  8
CSLAYER1
  6
CONTINUOUS
 62
     7
 10
1127.155680
 20
244.200000
 11
1127.155680
 21
233.769948
  0
ARC
  8
CSLAYER1
  6
CONTINUOUS
 62
     7
 10
1124.515680
 20
236.877742
 40
4.077742
 50
245.892261
 51
310.347140
  0
LINE
  8
CSLAYER1
  6
CONTINUOUS
 62
     7
 10
1123.555680
 20
232.800000
 11
1122.862907
 21
233.199973
  0
LINE
  8
CSLAYER1
  6
CONTINUOUS
 62
     7
 10
1145.155680
 20
232.800000
 11
1123.555680
 21
232.800000
  0
ARC
  8
CSLAYER1
  6
CONTINUOUS
 62
     7
 10
1144.195680
 20
236.877742
 40
4.077742
 50
229.652860
 51
310.347140
  0
ARC
  8
CSLAYER1
  6
CONTINUOUS
 62
     7
 10
1134.355680
 20
260.008044
 40
27.208044
 50
254.655173
 51
285.344827
  0
LINE
  8
CSLAYER1
  6
CONTINUOUS
 62
     7
 10
1141.555680
 20
244.200000
 11
1141.555680
 21
233.769948
  0
LINE
  8
CSLAYER1
  6
CONTINUOUS
 62
     7
 10
1146.835680
 20
244.200000
 11
1146.835680
 21
233.769948
  0
LINE
  8
CSLAYER1
  6
CONTINUOUS
 62
     7
 10
1145.155680
 20
232.800000
 11
1146.835680
 21
233.769948
  0
LINE
  8
CSLAYER1
  6
CONTINUOUS
 62
     7
 10
1141.555680
 20
232.800000
 11
1141.555680
 21
228.600000
  0
LINE
  8
CSLAYER1
  6
CONTINUOUS
 62
     7
 10
1141.555680
 20
228.600000
 11
1140.355680
 21
227.400000
  0
LINE
  8
CSLAYER1
  6
CONTINUOUS
 62
     7
 10
1140.655680
 20
232.800000
 11
1140.655680
 21
227.700000
  0
LINE
  8
CSLAYER1
  6
CONTINUOUS
 62
     7
 10
1141.555680
 20
228.600000
 11
1127.155680
 21
228.600000
  0
LINE
  8
CSLAYER1
  6
CONTINUOUS
 62
     7
 10
1140.355680
 20
227.400000
 11
1128.355680
 21
227.400000
  0
LINE
  8
CSLAYER1
  6
CONTINUOUS
 62
     7
 10
1128.355680
 20
227.400000
 11
1127.155680
 21
228.600000
  0
LINE
  8
CSLAYER1
  6
CONTINUOUS
 62
     7
 10
1127.155680
 20
228.600000
 11
1127.155680
 21
232.800000
  0
LINE
  8
CSLAYER1
  6
CONTINUOUS
 62
     7
 10
1128.055680
 20
227.700000
 11
1128.055680
 21
232.800000
  0
LINE
  8
CSLAYER1
  6
CENTER
 62
     2
 10
1199.790484
 20
221.400000
 11
1199.790484
 21
308.400000
  0
LINE
  8
CSLAYER1
  6
CONTINUOUS
 62
     7
 10
1210.590484
 20
302.400000
 11
1212.270484
 21
301.430051
  0
LINE
  8
CSLAYER1
  6
CONTINUOUS
 62
     7
 10
1212.270484
 20
301.430051
 11
1212.270484
 21
293.400000
  0
LINE
  8
CSLAYER1
  6
CONTINUOUS
 62
     7
 10
1188.990484
 20
302.400000
 11
1187.310484
 21
301.430051
  0
LINE
  8
CSLAYER1
  6
CONTINUOUS
 62
     7
 10
1187.310484
 20
301.430051
 11
1187.310484
 21
293.400000
  0
LINE
  8
CSLAYER1
  6
CONTINUOUS
 62
     7
 10
1210.590484
 20
302.400000
 11
1188.990484
 21
302.400000
  0
LINE
  8
CSLAYER1
  6
CONTINUOUS
 62
     7
 10
1212.270484
 20
293.400000
 11
1187.310484
 21
293.400000
  0
ARC
  8
CSLAYER1
  6
CONTINUOUS
 62
     7
 10
1209.630484
 20
298.322257
 40
4.077742
 50
49.652860
 51
130.347140
  0
ARC
  8
CSLAYER1
  6
CONTINUOUS
 62
     7
 10
1199.790484
 20
275.191956
 40
27.208044
 50
74.655173
 51
105.344827
  0
ARC
  8
CSLAYER1
  6
CONTINUOUS
 62
     7
 10
1189.950484
 20
298.322257
 40
4.077742
 50
49.652860
 51
130.347140
  0
LINE
  8
CSLAYER1
  6
CONTINUOUS
 62
     7
 10
1206.990484
 20
301.430051
 11
1206.990484
 21
293.400000
  0
LINE
  8
CSLAYER1
  6
CONTINUOUS
 62
     7
 10
1192.590484
 20
301.430051
 11
1192.590484
 21
293.400000
  0
LINE
  8
CSLAYER1
  6
CONTINUOUS
 62
     7
 10
1192.590484
 20
244.200000
 11
1192.590484
 21
233.769948
  0
LINE
  8
CSLAYER1
  6
CONTINUOUS
 62
     7
 10
1187.310484
 20
244.200000
 11
1187.310484
 21
233.769948
  0
ARC
  8
CSLAYER1
  6
CONTINUOUS
 62
     7
 10
1189.950484
 20
236.877742
 40
4.077742
 50
229.652860
 51
310.347140
  0
LINE
  8
CSLAYER1
  6
CONTINUOUS
 62
     7
 10
1188.990484
 20
232.800000
 11
1187.310484
 21
233.769948
  0
LINE
  8
CSLAYER1
  6
CONTINUOUS
 62
     7
 10
1210.590484
 20
232.800000
 11
1188.990484
 21
232.800000
  0
ARC
  8
CSLAYER1
  6
CONTINUOUS
 62
     7
 10
1209.630484
 20
236.877742
 40
4.077742
 50
229.652860
 51
310.347140
  0
ARC
  8
CSLAYER1
  6
CONTINUOUS
 62
     7
 10
1199.790484
 20
260.008044
 40
27.208044
 50
254.655173
 51
285.344827
  0
LINE
  8
CSLAYER1
  6
CONTINUOUS
 62
     7
 10
1206.990484
 20
244.200000
 11
1206.990484
 21
233.769948
  0
LINE
  8
CSLAYER1
  6
CONTINUOUS
 62
     7
 10
1212.270484
 20
244.200000
 11
1212.270484
 21
233.769948
  0
LINE
  8
CSLAYER1
  6
CONTINUOUS
 62
     7
 10
1210.590484
 20
232.800000
 11
1212.270484
 21
233.769948
  0
LINE
  8
CSLAYER1
  6
CONTINUOUS
 62
     7
 10
1206.990484
 20
232.800000
 11
1206.990484
 21
228.600000
  0
LINE
  8
CSLAYER1
  6
CONTINUOUS
 62
     7
 10
1206.990484
 20
228.600000
 11
1205.790484
 21
227.400000
  0
LINE
  8
CSLAYER1
  6
CONTINUOUS
 62
     7
 10
1206.090484
 20
232.800000
 11
1206.090484
 21
227.700000
  0
LINE
  8
CSLAYER1
  6
CONTINUOUS
 62
     7
 10
1206.990484
 20
228.600000
 11
1192.590484
 21
228.600000
  0
LINE
  8
CSLAYER1
  6
CONTINUOUS
 62
     7
 10
1205.790484
 20
227.400000
 11
1193.790484
 21
227.400000
  0
LINE
  8
CSLAYER1
  6
CONTINUOUS
 62
     7
 10
1193.790484
 20
227.400000
 11
1192.590484
 21
228.600000
  0
LINE
  8
CSLAYER1
  6
CONTINUOUS
 62
     7
 10
1192.590484
 20
228.600000
 11
1192.590484
 21
232.800000
  0
LINE
  8
CSLAYER1
  6
CONTINUOUS
 62
     7
 10
1193.490484
 20
227.700000
 11
1193.490484
 21
232.800000
  0
LINE
  8
CSLAYER1
  6
CENTER
 62
     2
 10
1258.457724
 20
221.400000
 11
1258.457724
 21
308.400000
  0
LINE
  8
CSLAYER1
  6
CONTINUOUS
 62
     7
 10
1269.257724
 20
302.400000
 11
1270.937724
 21
301.430051
  0
LINE
  8
CSLAYER1
  6
CONTINUOUS
 62
     7
 10
1270.937724
 20
301.430051
 11
1270.937724
 21
293.400000
  0
LINE
  8
CSLAYER1
  6
CONTINUOUS
 62
     7
 10
1247.657724
 20
302.400000
 11
1245.977724
 21
301.430051
  0
LINE
  8
CSLAYER1
  6
CONTINUOUS
 62
     7
 10
1245.977724
 20
301.430051
 11
1245.977724
 21
293.400000
  0
LINE
  8
CSLAYER1
  6
CONTINUOUS
 62
     7
 10
1269.257724
 20
302.400000
 11
1247.657724
 21
302.400000
  0
LINE
  8
CSLAYER1
  6
CONTINUOUS
 62
     7
 10
1270.937724
 20
293.400000
 11
1245.977724
 21
293.400000
  0
ARC
  8
CSLAYER1
  6
CONTINUOUS
 62
     7
 10
1268.297724
 20
298.322257
 40
4.077742
 50
49.652860
 51
130.347140
  0
ARC
  8
CSLAYER1
  6
CONTINUOUS
 62
     7
 10
1258.457724
 20
275.191956
 40
27.208044
 50
74.655173
 51
105.344827
  0
ARC
  8
CSLAYER1
  6
CONTINUOUS
 62
     7
 10
1248.617724
 20
298.322257
 40
4.077742
 50
49.652860
 51
130.347140
  0
LINE
  8
CSLAYER1
  6
CONTINUOUS
 62
     7
 10
1265.657724
 20
301.430051
 11
1265.657724
 21
293.400000
  0
LINE
  8
CSLAYER1
  6
CONTINUOUS
 62
     7
 10
1251.257724
 20
301.430051
 11
1251.257724
 21
293.400000
  0
LINE
  8
CSLAYER1
  6
CONTINUOUS
 62
     7
 10
1251.257724
 20
244.200000
 11
1251.257724
 21
233.769948
  0
LINE
  8
CSLAYER1
  6
CONTINUOUS
 62
     7
 10
1245.977724
 20
244.200000
 11
1245.977724
 21
233.769948
  0
ARC
  8
CSLAYER1
  6
CONTINUOUS
 62
     7
 10
1248.617724
 20
236.877742
 40
4.077742
 50
229.652860
 51
310.347140
  0
LINE
  8
CSLAYER1
  6
CONTINUOUS
 62
     7
 10
1247.657724
 20
232.800000
 11
1245.977724
 21
233.769948
  0
LINE
  8
CSLAYER1
  6
CONTINUOUS
 62
     7
 10
1269.257724
 20
232.800000
 11
1247.657724
 21
232.800000
  0
ARC
  8
CSLAYER1
  6
CONTINUOUS
 62
     7
 10
1268.297724
 20
236.877742
 40
4.077742
 50
229.652860
 51
310.347140
  0
ARC
  8
CSLAYER1
  6
CONTINUOUS
 62
     7
 10
1258.457724
 20
260.008044
 40
27.208044
 50
254.655173
 51
285.344827
  0
LINE
  8
CSLAYER1
  6
CONTINUOUS
 62
     7
 10
1265.657724
 20
244.200000
 11
1265.657724
 21
233.769948
  0
LINE
  8
CSLAYER1
  6
CONTINUOUS
 62
     7
 10
1270.937724
 20
244.200000
 11
1270.937724
 21
233.769948
  0
LINE
  8
CSLAYER1
  6
CONTINUOUS
 62
     7
 10
1269.257724
 20
232.800000
 11
1270.937724
 21
233.769948
  0
LINE
  8
CSLAYER1
  6
CONTINUOUS
 62
     7
 10
1265.657724
 20
232.800000
 11
1265.657724
 21
228.600000
  0
LINE
  8
CSLAYER1
  6
CONTINUOUS
 62
     7
 10
1265.657724
 20
228.600000
 11
1264.457724
 21
227.400000
  0
LINE
  8
CSLAYER1
  6
CONTINUOUS
 62
     7
 10
1264.757724
 20
232.800000
 11
1264.757724
 21
227.700000
  0
LINE
  8
CSLAYER1
  6
CONTINUOUS
 62
     7
 10
1265.657724
 20
228.600000
 11
1251.257724
 21
228.600000
  0
LINE
  8
CSLAYER1
  6
CONTINUOUS
 62
     7
 10
1264.457724
 20
227.400000
 11
1252.457724
 21
227.400000
  0
LINE
  8
CSLAYER1
  6
CONTINUOUS
 62
     7
 10
1252.457724
 20
227.400000
 11
1251.257724
 21
228.600000
  0
LINE
  8
CSLAYER1
  6
CONTINUOUS
 62
     7
 10
1251.257724
 20
228.600000
 11
1251.257724
 21
232.800000
  0
LINE
  8
CSLAYER1
  6
CONTINUOUS
 62
     7
 10
1252.157724
 20
227.700000
 11
1252.157724
 21
232.800000
  0
LINE
  8
CSLAYER1
  6
CENTER
 62
     2
 10
1306.359325
 20
221.400000
 11
1306.359325
 21
308.400000
  0
LINE
  8
CSLAYER1
  6
CONTINUOUS
 62
     7
 10
1317.159325
 20
302.400000
 11
1318.839325
 21
301.430051
  0
LINE
  8
CSLAYER1
  6
CONTINUOUS
 62
     7
 10
1318.839325
 20
301.430051
 11
1318.839325
 21
293.400000
  0
LINE
  8
CSLAYER1
  6
CONTINUOUS
 62
     7
 10
1295.559325
 20
302.400000
 11
1293.879325
 21
301.430051
  0
LINE
  8
CSLAYER1
  6
CONTINUOUS
 62
     7
 10
1293.879325
 20
301.430051
 11
1293.879325
 21
293.400000
  0
LINE
  8
CSLAYER1
  6
CONTINUOUS
 62
     7
 10
1317.159325
 20
302.400000
 11
1295.559325
 21
302.400000
  0
LINE
  8
CSLAYER1
  6
CONTINUOUS
 62
     7
 10
1318.839325
 20
293.400000
 11
1293.879325
 21
293.400000
  0
ARC
  8
CSLAYER1
  6
CONTINUOUS
 62
     7
 10
1316.199325
 20
298.322257
 40
4.077742
 50
49.652860
 51
130.347140
  0
ARC
  8
CSLAYER1
  6
CONTINUOUS
 62
     7
 10
1306.359325
 20
275.191956
 40
27.208044
 50
74.655173
 51
105.344827
  0
ARC
  8
CSLAYER1
  6
CONTINUOUS
 62
     7
 10
1296.519325
 20
298.322257
 40
4.077742
 50
49.652860
 51
130.347140
  0
LINE
  8
CSLAYER1
  6
CONTINUOUS
 62
     7
 10
1313.559325
 20
301.430051
 11
1313.559325
 21
293.400000
  0
LINE
  8
CSLAYER1
  6
CONTINUOUS
 62
     7
 10
1299.159325
 20
301.430051
 11
1299.159325
 21
293.400000
  0
LINE
  8
CSLAYER1
  6
CONTINUOUS
 62
     7
 10
1299.159325
 20
244.200000
 11
1299.159325
 21
233.769948
  0
LINE
  8
CSLAYER1
  6
CONTINUOUS
 62
     7
 10
1293.879325
 20
244.200000
 11
1293.879325
 21
233.769948
  0
ARC
  8
CSLAYER1
  6
CONTINUOUS
 62
     7
 10
1296.519325
 20
236.877742
 40
4.077742
 50
229.652860
 51
310.347140
  0
LINE
  8
CSLAYER1
  6
CONTINUOUS
 62
     7
 10
1295.559325
 20
232.800000
 11
1293.879325
 21
233.769948
  0
LINE
  8
CSLAYER1
  6
CONTINUOUS
 62
     7
 10
1317.159325
 20
232.800000
 11
1295.559325
 21
232.800000
  0
ARC
  8
CSLAYER1
  6
CONTINUOUS
 62
     7
 10
1316.199325
 20
236.877742
 40
4.077742
 50
229.652860
 51
310.347140
  0
ARC
  8
CSLAYER1
  6
CONTINUOUS
 62
     7
 10
1306.359325
 20
260.008044
 40
27.208044
 50
254.655173
 51
285.344827
  0
LINE
  8
CSLAYER1
  6
CONTINUOUS
 62
     7
 10
1313.559325
 20
244.200000
 11
1313.559325
 21
233.769948
  0
LINE
  8
CSLAYER1
  6
CONTINUOUS
 62
     7
 10
1318.839325
 20
244.200000
 11
1318.839325
 21
233.769948
  0
LINE
  8
CSLAYER1
  6
CONTINUOUS
 62
     7
 10
1317.159325
 20
232.800000
 11
1318.839325
 21
233.769948
  0
LINE
  8
CSLAYER1
  6
CONTINUOUS
 62
     7
 10
1313.559325
 20
232.800000
 11
1313.559325
 21
228.600000
  0
LINE
  8
CSLAYER1
  6
CONTINUOUS
 62
     7
 10
1313.559325
 20
228.600000
 11
1312.359325
 21
227.400000
  0
LINE
  8
CSLAYER1
  6
CONTINUOUS
 62
     7
 10
1312.659325
 20
232.800000
 11
1312.659325
 21
227.700000
  0
LINE
  8
CSLAYER1
  6
CONTINUOUS
 62
     7
 10
1313.559325
 20
228.600000
 11
1299.159325
 21
228.600000
  0
LINE
  8
CSLAYER1
  6
CONTINUOUS
 62
     7
 10
1312.359325
 20
227.400000
 11
1300.359325
 21
227.400000
  0
LINE
  8
CSLAYER1
  6
CONTINUOUS
 62
     7
 10
1300.359325
 20
227.400000
 11
1299.159325
 21
228.600000
  0
LINE
  8
CSLAYER1
  6
CONTINUOUS
 62
     7
 10
1299.159325
 20
228.600000
 11
1299.159325
 21
232.800000
  0
LINE
  8
CSLAYER1
  6
CONTINUOUS
 62
     7
 10
1300.059325
 20
227.700000
 11
1300.059325
 21
232.800000
  0
LINE
  8
CSLAYER1
  6
CENTER
 62
     2
 10
1340.230872
 20
221.400000
 11
1340.230872
 21
308.400000
  0
LINE
  8
CSLAYER1
  6
CONTINUOUS
 62
     7
 10
1351.030872
 20
302.400000
 11
1352.710872
 21
301.430051
  0
LINE
  8
CSLAYER1
  6
CONTINUOUS
 62
     7
 10
1352.710872
 20
301.430051
 11
1352.710872
 21
293.400000
  0
LINE
  8
CSLAYER1
  6
CONTINUOUS
 62
     7
 10
1329.430872
 20
302.400000
 11
1327.750872
 21
301.430051
  0
LINE
  8
CSLAYER1
  6
CONTINUOUS
 62
     7
 10
1327.750872
 20
301.430051
 11
1327.750872
 21
293.400000
  0
LINE
  8
CSLAYER1
  6
CONTINUOUS
 62
     7
 10
1351.030872
 20
302.400000
 11
1329.430872
 21
302.400000
  0
LINE
  8
CSLAYER1
  6
CONTINUOUS
 62
     7
 10
1352.710872
 20
293.400000
 11
1327.750872
 21
293.400000
  0
ARC
  8
CSLAYER1
  6
CONTINUOUS
 62
     7
 10
1350.070872
 20
298.322257
 40
4.077742
 50
49.652860
 51
130.347140
  0
ARC
  8
CSLAYER1
  6
CONTINUOUS
 62
     7
 10
1340.230872
 20
275.191956
 40
27.208044
 50
74.655173
 51
105.344827
  0
ARC
  8
CSLAYER1
  6
CONTINUOUS
 62
     7
 10
1330.390872
 20
298.322257
 40
4.077742
 50
49.652860
 51
130.347140
  0
LINE
  8
CSLAYER1
  6
CONTINUOUS
 62
     7
 10
1347.430872
 20
301.430051
 11
1347.430872
 21
293.400000
  0
LINE
  8
CSLAYER1
  6
CONTINUOUS
 62
     7
 10
1333.030872
 20
301.430051
 11
1333.030872
 21
293.400000
  0
LINE
  8
CSLAYER1
  6
CONTINUOUS
 62
     7
 10
1333.030872
 20
244.200000
 11
1333.030872
 21
233.769948
  0
LINE
  8
CSLAYER1
  6
CONTINUOUS
 62
     7
 10
1327.750872
 20
244.200000
 11
1327.750872
 21
233.769948
  0
ARC
  8
CSLAYER1
  6
CONTINUOUS
 62
     7
 10
1330.390872
 20
236.877742
 40
4.077742
 50
229.652860
 51
310.347140
  0
LINE
  8
CSLAYER1
  6
CONTINUOUS
 62
     7
 10
1329.430872
 20
232.800000
 11
1327.750872
 21
233.769948
  0
LINE
  8
CSLAYER1
  6
CONTINUOUS
 62
     7
 10
1351.030872
 20
232.800000
 11
1329.430872
 21
232.800000
  0
ARC
  8
CSLAYER1
  6
CONTINUOUS
 62
     7
 10
1350.070872
 20
236.877742
 40
4.077742
 50
229.652860
 51
310.347140
  0
ARC
  8
CSLAYER1
  6
CONTINUOUS
 62
     7
 10
1340.230872
 20
260.008044
 40
27.208044
 50
254.655173
 51
285.344827
  0
LINE
  8
CSLAYER1
  6
CONTINUOUS
 62
     7
 10
1347.430872
 20
244.200000
 11
1347.430872
 21
233.769948
  0
LINE
  8
CSLAYER1
  6
CONTINUOUS
 62
     7
 10
1352.710872
 20
244.200000
 11
1352.710872
 21
233.769948
  0
LINE
  8
CSLAYER1
  6
CONTINUOUS
 62
     7
 10
1351.030872
 20
232.800000
 11
1352.710872
 21
233.769948
  0
LINE
  8
CSLAYER1
  6
CONTINUOUS
 62
     7
 10
1347.430872
 20
232.800000
 11
1347.430872
 21
228.600000
  0
LINE
  8
CSLAYER1
  6
CONTINUOUS
 62
     7
 10
1347.430872
 20
228.600000
 11
1346.230872
 21
227.400000
  0
LINE
  8
CSLAYER1
  6
CONTINUOUS
 62
     7
 10
1346.530872
 20
232.800000
 11
1346.530872
 21
227.700000
  0
LINE
  8
CSLAYER1
  6
CONTINUOUS
 62
     7
 10
1347.430872
 20
228.600000
 11
1333.030872
 21
228.600000
  0
LINE
  8
CSLAYER1
  6
CONTINUOUS
 62
     7
 10
1346.230872
 20
227.400000
 11
1334.230872
 21
227.400000
  0
LINE
  8
CSLAYER1
  6
CONTINUOUS
 62
     7
 10
1334.230872
 20
227.400000
 11
1333.030872
 21
228.600000
  0
LINE
  8
CSLAYER1
  6
CONTINUOUS
 62
     7
 10
1333.030872
 20
228.600000
 11
1333.030872
 21
232.800000
  0
LINE
  8
CSLAYER1
  6
CONTINUOUS
 62
     7
 10
1333.930872
 20
227.700000
 11
1333.930872
 21
232.800000
  0
LINE
  8
CSLAYER1
  6
CENTER
 62
     2
 10
1357.764074
 20
221.400000
 11
1357.764074
 21
308.400000
  0
LINE
  8
CSLAYER1
  6
CONTINUOUS
 62
     7
 10
1368.564074
 20
302.400000
 11
1370.244074
 21
301.430051
  0
LINE
  8
CSLAYER1
  6
CONTINUOUS
 62
     7
 10
1370.244074
 20
301.430051
 11
1370.244074
 21
293.400000
  0
LINE
  8
CSLAYER1
  6
CONTINUOUS
 62
     7
 10
1368.564074
 20
302.400000
 11
1346.964074
 21
302.400000
  0
LINE
  8
CSLAYER1
  6
CONTINUOUS
 62
     7
 10
1370.244074
 20
293.400000
 11
1345.284074
 21
293.400000
  0
ARC
  8
CSLAYER1
  6
CONTINUOUS
 62
     7
 10
1367.604074
 20
298.322257
 40
4.077742
 50
49.652860
 51
130.347140
  0
ARC
  8
CSLAYER1
  6
CONTINUOUS
 62
     7
 10
1357.764074
 20
275.191956
 40
27.208044
 50
74.655173
 51
102.073154
  0
LINE
  8
CSLAYER1
  6
CONTINUOUS
 62
     7
 10
1364.964074
 20
301.430051
 11
1364.964074
 21
293.400000
  0
LINE
  8
CSLAYER1
  6
CONTINUOUS
 62
     7
 10
1368.564074
 20
232.800000
 11
1346.964074
 21
232.800000
  0
ARC
  8
CSLAYER1
  6
CONTINUOUS
 62
     7
 10
1367.604074
 20
236.877742
 40
4.077742
 50
229.652860
 51
310.347140
  0
ARC
  8
CSLAYER1
  6
CONTINUOUS
 62
     7
 10
1357.764074
 20
260.008044
 40
27.208044
 50
258.133818
 51
285.344827
  0
LINE
  8
CSLAYER1
  6
CONTINUOUS
 62
     7
 10
1364.964074
 20
244.200000
 11
1364.964074
 21
233.769948
  0
LINE
  8
CSLAYER1
  6
CONTINUOUS
 62
     7
 10
1370.244074
 20
244.200000
 11
1370.244074
 21
233.769948
  0
LINE
  8
CSLAYER1
  6
CONTINUOUS
 62
     7
 10
1368.564074
 20
232.800000
 11
1370.244074
 21
233.769948
  0
LINE
  8
CSLAYER1
  6
CONTINUOUS
 62
     7
 10
1364.964074
 20
232.800000
 11
1364.964074
 21
228.600000
  0
LINE
  8
CSLAYER1
  6
CONTINUOUS
 62
     7
 10
1364.964074
 20
228.600000
 11
1363.764074
 21
227.400000
  0
LINE
  8
CSLAYER1
  6
CONTINUOUS
 62
     7
 10
1364.064074
 20
232.800000
 11
1364.064074
 21
227.700000
  0
LINE
  8
CSLAYER1
  6
CONTINUOUS
 62
     7
 10
1364.964074
 20
228.600000
 11
1350.564074
 21
228.600000
  0
LINE
  8
CSLAYER1
  6
CONTINUOUS
 62
     7
 10
1363.764074
 20
227.400000
 11
1351.764074
 21
227.400000
  0
LINE
  8
CSLAYER1
  6
CONTINUOUS
 62
     7
 10
1351.764074
 20
227.400000
 11
1350.564074
 21
228.600000
  0
LINE
  8
CSLAYER1
  6
CONTINUOUS
 62
     7
 10
1350.564074
 20
228.600000
 11
1350.564074
 21
232.800000
  0
LINE
  8
CSLAYER1
  6
CONTINUOUS
 62
     7
 10
1351.464074
 20
227.700000
 11
1351.464074
 21
232.800000
  0
LINE
  8
CSLAYER1
  6
CENTER
 62
     2
 10
1158.984133
 20
377.400000
 11
1041.984133
 21
377.400000
  0
LINE
  8
CSLAYER1
  6
CENTER
 62
     2
 10
1158.984133
 20
137.400000
 11
1041.984133
 21
137.400000
  0
LINE
  8
CSLAYER1
  6
CENTER
 62
     2
 10
1152.984133
 20
257.400000
 11
982.884133
 21
257.400000
  0
LINE
  8
CSLAYER1
  6
CONTINUOUS
 62
     7
 10
1121.184133
 20
343.200000
 11
1079.784133
 21
343.200000
  0
LINE
  8
CSLAYER1
  6
CONTINUOUS
 62
     7
 10
1121.184133
 20
377.400000
 11
1121.184133
 21
343.200000
  0
LINE
  8
CSLAYER1
  6
CONTINUOUS
 62
     7
 10
1079.784133
 20
377.400000
 11
1079.784133
 21
343.200000
  0
LINE
  8
CSLAYER1
  6
CONTINUOUS
 62
     7
 10
1121.184133
 20
171.600000
 11
1079.784133
 21
171.600000
  0
LINE
  8
CSLAYER1
  6
CONTINUOUS
 62
     7
 10
1118.368333
 20
303.828000
 11
1117.495131
 21
299.400000
  0
LINE
  8
CSLAYER1
  6
CONTINUOUS
 62
     7
 10
1118.368333
 20
343.200000
 11
1118.368333
 21
299.400000
  0
LINE
  8
CSLAYER1
  6
CONTINUOUS
 62
     7
 10
1118.368333
 20
338.772000
 11
1117.495131
 21
343.200000
  0
LINE
  8
CSLAYER1
  6
CONTINUOUS
 62
     7
 10
1082.599933
 20
303.828000
 11
1083.473135
 21
299.400000
  0
LINE
  8
CSLAYER1
  6
CONTINUOUS
 62
     7
 10
1082.599933
 20
343.200000
 11
1082.599933
 21
299.400000
  0
LINE
  8
CSLAYER1
  6
CONTINUOUS
 62
     7
 10
1082.599933
 20
338.772000
 11
1083.473135
 21
343.200000
  0
LINE
  8
CSLAYER1
  6
CONTINUOUS
 62
     7
 10
1118.368333
 20
176.028000
 11
1117.495131
 21
171.600000
  0
LINE
  8
CSLAYER1
  6
CONTINUOUS
 62
     7
 10
1118.368333
 20
215.400000
 11
1118.368333
 21
171.600000
  0
LINE
  8
CSLAYER1
  6
CONTINUOUS
 62
     7
 10
1118.368333
 20
210.972000
 11
1117.495131
 21
215.400000
  0
LINE
  8
CSLAYER1
  6
CONTINUOUS
 62
     7
 10
1082.599933
 20
176.028000
 11
1083.473135
 21
171.600000
  0
LINE
  8
CSLAYER1
  6
CONTINUOUS
 62
     7
 10
1082.599933
 20
215.400000
 11
1082.599933
 21
171.600000
  0
LINE
  8
CSLAYER1
  6
CONTINUOUS
 62
     7
 10
1082.599933
 20
210.972000
 11
1083.473135
 21
215.400000
  0
ARC
  8
CSLAYER1
  6
CONTINUOUS
 62
     7
 10
1100.484133
 20
377.400000
 40
46.500000
 50
-67.380690
 51
247.380690
  0
ARC
  8
CSLAYER1
  6
CONTINUOUS
 62
     7
 10
1100.484133
 20
377.400000
 40
27.600000
 50
-41.409622
 51
221.409622
  0
ARC
  8
CSLAYER1
  6
CONTINUOUS
 62
     7
 10
1100.484133
 20
377.400000
 40
20.700000
 50
0.000000
 51
180.000000
  0
ARC
  8
CSLAYER1
  6
CONTINUOUS
 62
     7
 10
1100.484133
 20
377.400000
 40
24.000000
 50
-30.401548
 51
210.401548
  0
ARC
  8
CSLAYER1
  6
CONTINUOUS
 62
     7
 10
1100.484133
 20
377.400000
 40
24.600000
 50
-32.705023
 51
212.705023
  0
ARC
  8
CSLAYER1
  6
CONTINUOUS
 62
     7
 10
1100.484133
 20
377.400000
 40
45.300000
 50
-66.746829
 51
246.746829
  0
LINE
  8
CSLAYER1
  6
CONTINUOUS
 62
     7
 10
1121.184133
 20
137.400000
 11
1121.184133
 21
171.600000
  0
LINE
  8
CSLAYER1
  6
CONTINUOUS
 62
     7
 10
1079.784133
 20
137.400000
 11
1079.784133
 21
171.600000
  0
ARC
  8
CSLAYER1
  6
CONTINUOUS
 62
     7
 10
1100.484133
 20
137.400000
 40
46.500000
 50
-247.380690
 51
67.380690
  0
ARC
  8
CSLAYER1
  6
CONTINUOUS
 62
     7
 10
1100.484133
 20
137.400000
 40
27.600000
 50
-221.409622
 51
41.409622
  0
ARC
  8
CSLAYER1
  6
CONTINUOUS
 62
     7
 10
1100.484133
 20
137.400000
 40
20.700000
 50
180.000000
 51
360.000000
  0
ARC
  8
CSLAYER1
  6
CONTINUOUS
 62
     7
 10
1100.484133
 20
137.400000
 40
24.000000
 50
-210.401548
 51
30.401548
  0
ARC
  8
CSLAYER1
  6
CONTINUOUS
 62
     7
 10
1100.484133
 20
137.400000
 40
24.600000
 50
-212.705023
 51
32.705023
  0
ARC
  8
CSLAYER1
  6
CONTINUOUS
 62
     7
 10
1100.484133
 20
137.400000
 40
45.300000
 50
-246.746829
 51
66.746829
  0
LINE
  8
CSLAYER1
  6
CONTINUOUS
 62
     7
 10
1075.614135
 20
215.400000
 11
1125.354131
 21
215.400000
  0
LINE
  8
CSLAYER1
  6
CONTINUOUS
 62
     7
 10
1075.614135
 20
225.000000
 11
1125.354131
 21
225.000000
  0
LINE
  8
CSLAYER1
  6
CONTINUOUS
 62
     7
 10
1125.354131
 20
225.000000
 11
1125.354131
 21
215.400000
  0
LINE
  8
CSLAYER1
  6
CONTINUOUS
 62
     7
 10
1123.703891
 20
225.442181
 11
1125.354134
 21
225.000000
  0
LINE
  8
CSLAYER1
  6
CONTINUOUS
 62
     7
 10
1075.614135
 20
225.000000
 11
1075.614135
 21
215.400000
  0
LINE
  8
CSLAYER1
  6
CONTINUOUS
 62
     7
 10
1077.264375
 20
225.442181
 11
1075.614132
 21
225.000000
  0
LINE
  8
CSLAYER1
  6
CONTINUOUS
 62
     7
 10
1075.614135
 20
299.400000
 11
1125.354131
 21
299.400000
  0
LINE
  8
CSLAYER1
  6
CONTINUOUS
 62
     7
 10
1075.614135
 20
289.800000
 11
1125.354131
 21
289.800000
  0
LINE
  8
CSLAYER1
  6
CONTINUOUS
 62
     7
 10
1125.354131
 20
289.800000
 11
1125.354131
 21
299.400000
  0
LINE
  8
CSLAYER1
  6
CONTINUOUS
 62
     7
 10
1123.703891
 20
289.357818
 11
1125.354134
 21
289.800000
  0
LINE
  8
CSLAYER1
  6
CONTINUOUS
 62
     7
 10
1075.614135
 20
289.800000
 11
1075.614135
 21
299.400000
  0
LINE
  8
CSLAYER1
  6
CONTINUOUS
 62
     7
 10
1077.264375
 20
289.357818
 11
1075.614132
 21
289.800000
  0
LINE
  8
CSLAYER1
  6
CONTINUOUS
 62
     7
 10
1069.884133
 20
278.100000
 11
1069.884133
 21
236.700000
  0
LINE
  8
CSLAYER1
  6
CONTINUOUS
 62
     7
 10
1072.584133
 20
278.100000
 11
1072.584133
 21
236.700000
  0
LINE
  8
CSLAYER1
  6
CONTINUOUS
 62
     7
 10
1067.603600
 20
236.700000
 11
1072.584133
 21
236.700000
  0
LINE
  8
CSLAYER1
  6
CONTINUOUS
 62
     7
 10
1072.584133
 20
237.300000
 11
1075.151885
 21
237.300000
  0
LINE
  8
CSLAYER1
  6
CONTINUOUS
 62
     7
 10
1072.584133
 20
277.500000
 11
1075.151885
 21
277.500000
  0
LINE
  8
CSLAYER1
  6
CONTINUOUS
 62
     7
 10
1066.584133
 20
272.669998
 11
1066.584133
 21
242.130002
  0
LINE
  8
CSLAYER1
  6
CONTINUOUS
 62
     7
 10
1059.684133
 20
272.669998
 11
1059.684133
 21
242.130002
  0
LINE
  8
CSLAYER1
  6
CONTINUOUS
 62
     7
 10
1039.584133
 20
248.100000
 11
1053.596856
 21
248.100000
  0
LINE
  8
CSLAYER1
  6
CONTINUOUS
 62
     7
 10
1059.684133
 20
242.130002
 11
1066.584133
 21
242.130002
  0
LINE
  8
CSLAYER1
  6
CONTINUOUS
 62
     7
 10
1059.505706
 20
243.141891
 11
1059.684133
 21
242.130002
  0
LINE
  8
CSLAYER1
  6
CONTINUOUS
 62
     7
 10
1066.584133
 20
242.130002
 11
1067.603600
 21
236.700002
  0
LINE
  8
CSLAYER1
  6
CONTINUOUS
 62
     7
 10
1059.684133
 20
249.432566
 11
1066.584133
 21
249.432566
  0
LINE
  8
CSLAYER1
  6
CONTINUOUS
 62
     7
 10
1067.603600
 20
278.100000
 11
1072.584133
 21
278.100000
  0
LINE
  8
CSLAYER1
  6
CONTINUOUS
 62
     7
 10
1039.584133
 20
266.700000
 11
1053.596856
 21
266.700000
  0
LINE
  8
CSLAYER1
  6
CONTINUOUS
 62
     7
 10
1059.684133
 20
272.669998
 11
1066.584133
 21
272.669998
  0
LINE
  8
CSLAYER1
  6
CONTINUOUS
 62
     7
 10
1059.505706
 20
271.658109
 11
1059.684133
 21
272.669997
  0
LINE
  8
CSLAYER1
  6
CONTINUOUS
 62
     7
 10
1066.584133
 20
272.669997
 11
1067.603600
 21
278.099997
  0
LINE
  8
CSLAYER1
  6
CONTINUOUS
 62
     7
 10
1059.684133
 20
265.367434
 11
1066.584133
 21
265.367434
  0
LINE
  8
CSLAYER1
  6
CONTINUOUS
 62
     7
 10
1023.084133
 20
244.919998
 11
1036.584133
 21
244.919998
  0
LINE
  8
CSLAYER1
  6
CONTINUOUS
 62
     7
 10
1023.084133
 20
269.880002
 11
1023.084133
 21
244.919998
  0
LINE
  8
CSLAYER1
  6
CONTINUOUS
 62
     7
 10
1036.584133
 20
269.880002
 11
1036.584133
 21
244.919998
  0
LINE
  8
CSLAYER1
  6
CONTINUOUS
 62
     7
 10
1023.084133
 20
269.880002
 11
1036.584133
 21
269.880002
  0
LINE
  8
CSLAYER1
  6
CONTINUOUS
 62
     7
 10
1023.084133
 20
250.818207
 11
1036.584133
 21
250.818207
  0
LINE
  8
CSLAYER1
  6
CONTINUOUS
 62
     7
 10
1023.084133
 20
263.981793
 11
1036.584133
 21
263.981793
  0
LINE
  8
CSLAYER1
  6
CONTINUOUS
 62
     7
 10
1014.724327
 20
252.900000
 11
1023.084133
 21
252.900000
  0
LINE
  8
CSLAYER1
  6
CONTINUOUS
 62
     7
 10
1014.724327
 20
264.600000
 11
1014.724327
 21
250.200000
  0
LINE
  8
CSLAYER1
  6
CONTINUOUS
 62
     7
 10
1008.124327
 20
297.716272
 11
1008.124327
 21
217.083728
  0
LINE
  8
CSLAYER1
  6
CONTINUOUS
 62
     7
 10
1008.124327
 20
249.854108
 11
1014.724327
 21
250.199999
  0
LINE
  8
CSLAYER1
  6
CONTINUOUS
 62
     7
 10
1008.124327
 20
236.489999
 11
1012.924327
 21
250.105663
  0
LINE
  8
CSLAYER1
  6
CONTINUOUS
 62
     7
 10
1006.024327
 20
297.900000
 11
1006.024327
 21
216.900000
  0
LINE
  8
CSLAYER1
  6
CONTINUOUS
 62
     7
 10
1008.124327
 20
217.083737
 11
1006.024327
 21
216.900014
  0
LINE
  8
CSLAYER1
  6
CONTINUOUS
 62
     7
 10
1008.124327
 20
240.023387
 11
1006.024327
 21
239.839661
  0
LINE
  8
CSLAYER1
  6
CONTINUOUS
 62
     7
 10
1008.124327
 20
222.788399
 11
1006.024327
 21
222.604674
  0
LINE
  8
CSLAYER1
  6
CONTINUOUS
 62
     7
 10
1003.624327
 20
262.380921
 11
1003.624327
 21
252.419078
  0
LINE
  8
CSLAYER1
  6
CONTINUOUS
 62
     7
 10
1002.574327
 20
262.980921
 11
1002.574327
 21
251.819078
  0
LINE
  8
CSLAYER1
  6
CONTINUOUS
 62
     7
 10
997.714321
 20
263.704409
 11
997.714321
 21
251.095591
  0
LINE
  8
CSLAYER1
  6
CONTINUOUS
 62
     7
 10
999.784327
 20
261.780921
 11
999.784327
 21
253.019078
  0
LINE
  8
CSLAYER1
  6
CONTINUOUS
 62
     7
 10
1000.984327
 20
251.819078
 11
1003.024327
 21
251.819078
  0
LINE
  8
CSLAYER1
  6
CONTINUOUS
 62
     7
 10
1003.624327
 20
240.164117
 11
1003.624327
 21
233.687915
  0
LINE
  8
CSLAYER1
  6
CONTINUOUS
 62
     7
 10
1002.574327
 20
240.354977
 11
1002.574327
 21
233.087915
  0
LINE
  8
CSLAYER1
  6
CONTINUOUS
 62
     7
 10
999.784327
 20
241.115075
 11
999.784327
 21
234.287915
  0
LINE
  8
CSLAYER1
  6
CONTINUOUS
 62
     7
 10
1000.984327
 20
233.087915
 11
1003.024327
 21
233.087915
  0
LINE
  8
CSLAYER1
  6
CONTINUOUS
 62
     7
 10
1008.124327
 20
264.945891
 11
1014.724327
 21
264.600000
  0
LINE
  8
CSLAYER1
  6
CONTINUOUS
 62
     7
 10
1008.124327
 20
278.310001
 11
1012.924327
 21
264.694337
  0
LINE
  8
CSLAYER1
  6
CONTINUOUS
 62
     7
 10
1008.124327
 20
297.716262
 11
1006.024315
 21
297.899986
  0
LINE
  8
CSLAYER1
  6
CONTINUOUS
 62
     7
 10
1008.124327
 20
274.776612
 11
1006.024327
 21
274.960338
  0
LINE
  8
CSLAYER1
  6
CONTINUOUS
 62
     7
 10
1008.124327
 20
292.011600
 11
1006.024327
 21
292.195326
  0
LINE
  8
CSLAYER1
  6
CONTINUOUS
 62
     7
 10
997.714321
 20
272.408258
 11
997.714321
 21
280.939407
  0
LINE
  8
CSLAYER1
  6
CONTINUOUS
 62
     7
 10
1000.984327
 20
262.980921
 11
1003.024327
 21
262.980921
  0
LINE
  8
CSLAYER1
  6
CONTINUOUS
 62
     7
 10
1003.624327
 20
274.635882
 11
1003.624327
 21
281.112085
  0
LINE
  8
CSLAYER1
  6
CONTINUOUS
 62
     7
 10
1002.574327
 20
274.445022
 11
1002.574327
 21
281.712085
  0
LINE
  8
CSLAYER1
  6
CONTINUOUS
 62
     7
 10
999.784327
 20
273.684924
 11
999.784327
 21
280.512085
  0
LINE
  8
CSLAYER1
  6
CONTINUOUS
 62
     7
 10
1000.984327
 20
281.712085
 11
1003.024327
 21
281.712085
  0
LINE
  8
CSLAYER1
  6
CONTINUOUS
 62
     7
 10
997.714321
 20
242.391742
 11
997.714321
 21
233.860592
  0
LINE
  8
CSLAYER1
  6
CONTINUOUS
 62
     7
 10
1014.724327
 20
261.900000
 11
1023.084133
 21
261.900000
  0
LINE
  8
CSLAYER1
  6
CONTINUOUS
 62
     7
 10
1113.301305
 20
225.000000
 11
1113.301305
 21
215.400000
  0
LINE
  8
CSLAYER1
  6
CONTINUOUS
 62
     7
 10
1113.301305
 20
289.800000
 11
1113.301305
 21
299.400000
  0
LINE
  8
CSLAYER1
  6
CONTINUOUS
 62
     7
 10
1087.666961
 20
225.000000
 11
1087.666961
 21
215.400000
  0
LINE
  8
CSLAYER1
  6
CONTINUOUS
 62
     7
 10
1087.666961
 20
289.800000
 11
1087.666961
 21
299.400000
  0
LINE
  8
CSLAYER1
  6
CONTINUOUS
 62
     7
 10
1067.603600
 20
278.100000
 11
1067.603600
 21
236.700000
  0
LINE
  8
CSLAYER1
  6
CONTINUOUS
 62
     7
 10
1039.584133
 20
267.000000
 11
1039.584133
 21
247.800000
  0
LINE
  8
CSLAYER1
  6
CONTINUOUS
 62
     7
 10
1036.584133
 20
247.800000
 11
1039.584133
 21
247.800000
  0
LINE
  8
CSLAYER1
  6
CONTINUOUS
 62
     7
 10
1036.584133
 20
267.000000
 11
1039.584133
 21
267.000000
  0
LINE
  8
CSLAYER1
  6
CONTINUOUS
 62
     7
 10
1036.584133
 20
248.100000
 11
1039.584133
 21
248.100000
  0
LINE
  8
CSLAYER1
  6
CONTINUOUS
 62
     7
 10
1036.584133
 20
266.700000
 11
1039.584133
 21
266.700000
  0
ARC
  8
CSLAYER1
  6
CONTINUOUS
 62
     7
 10
1038.984133
 20
257.400000
 40
87.300000
 50
-18.772820
 51
18.774750
  0
ARC
  8
CSLAYER1
  6
CONTINUOUS
 62
     7
 10
1124.480352
 20
228.339953
 40
3.000000
 50
161.227220
 51
254.999993
  0
ARC
  8
CSLAYER1
  6
CONTINUOUS
 62
     7
 10
1161.984133
 20
257.400000
 40
87.300000
 50
194.527011
 51
198.772820
  0
ARC
  8
CSLAYER1
  6
CONTINUOUS
 62
     7
 10
1076.487914
 20
228.339953
 40
3.000000
 50
-74.999990
 51
18.772780
  0
ARC
  8
CSLAYER1
  6
CONTINUOUS
 62
     7
 10
1124.480352
 20
286.460046
 40
3.000000
 50
105.000010
 51
198.772766
  0
ARC
  8
CSLAYER1
  6
CONTINUOUS
 62
     7
 10
1076.487914
 20
286.460046
 40
3.000000
 50
-18.772770
 51
74.999990
  0
ARC
  8
CSLAYER1
  6
CONTINUOUS
 62
     7
 10
1075.151885
 20
234.900000
 40
2.400000
 50
14.526970
 51
89.999910
  0
ARC
  8
CSLAYER1
  6
CONTINUOUS
 62
     7
 10
1161.984133
 20
257.400000
 40
87.300000
 50
161.227160
 51
165.472970
  0
ARC
  8
CSLAYER1
  6
CONTINUOUS
 62
     7
 10
1075.151885
 20
279.900000
 40
2.400000
 50
270.000090
 51
345.473040
  0
ARC
  8
CSLAYER1
  6
CONTINUOUS
 62
     7
 10
1053.596856
 20
242.100000
 40
6.000000
 50
10.000000
 51
90.000040
  0
ARC
  8
CSLAYER1
  6
CONTINUOUS
 62
     7
 10
1053.596856
 20
272.700000
 40
6.000000
 50
269.999964
 51
349.999980
  0
ARC
  8
CSLAYER1
  6
CONTINUOUS
 62
     7
 10
1009.966339
 20
255.097127
 40
38.400000
 50
256.741927
 51
264.107831
  0
ARC
  8
CSLAYER1
  6
CONTINUOUS
 62
     7
 10
1003.080499
 20
225.836417
 40
8.340000
 50
226.103283
 51
256.685099
  0
ARC
  8
CSLAYER1
  6
CONTINUOUS
 62
     7
 10
1001.164321
 20
223.808523
 40
5.550000
 50
149.073800
 51
225.849702
  0
ARC
  8
CSLAYER1
  6
CONTINUOUS
 62
     7
 10
1009.966339
 20
278.036783
 40
38.400000
 50
256.741927
 51
264.107831
  0
ARC
  8
CSLAYER1
  6
CONTINUOUS
 62
     7
 10
1003.080499
 20
248.776071
 40
8.340000
 50
226.103283
 51
256.685099
  0
ARC
  8
CSLAYER1
  6
CONTINUOUS
 62
     7
 10
1001.164321
 20
246.748178
 40
5.550000
 50
128.434660
 51
225.849702
  0
ARC
  8
CSLAYER1
  6
CONTINUOUS
 62
     7
 10
1009.966339
 20
260.801788
 40
38.400000
 50
256.741927
 51
264.107831
  0
ARC
  8
CSLAYER1
  6
CONTINUOUS
 62
     7
 10
1003.080499
 20
231.541076
 40
8.340000
 50
226.103283
 51
256.685099
  0
ARC
  8
CSLAYER1
  6
CONTINUOUS
 62
     7
 10
1001.164321
 20
229.513184
 40
5.550000
 50
128.434660
 51
225.849702
  0
ARC
  8
CSLAYER1
  6
CONTINUOUS
 62
     7
 10
1000.984327
 20
253.019078
 40
1.200000
 50
180.000018
 51
270.000000
  0
ARC
  8
CSLAYER1
  6
CONTINUOUS
 62
     7
 10
1003.024327
 20
252.419078
 40
0.600000
 50
270.000000
 51
359.999980
  0
ARC
  8
CSLAYER1
  6
CONTINUOUS
 62
     7
 10
1000.984327
 20
234.287915
 40
1.200000
 50
180.000018
 51
270.000000
  0
ARC
  8
CSLAYER1
  6
CONTINUOUS
 62
     7
 10
1003.024327
 20
233.687915
 40
0.600000
 50
270.000000
 51
359.999980
  0
ARC
  8
CSLAYER1
  6
CONTINUOUS
 62
     7
 10
1009.966339
 20
259.702873
 40
38.400000
 50
95.892190
 51
103.258090
  0
ARC
  8
CSLAYER1
  6
CONTINUOUS
 62
     7
 10
1003.080499
 20
288.963583
 40
8.340000
 50
103.314920
 51
133.896730
  0
ARC
  8
CSLAYER1
  6
CONTINUOUS
 62
     7
 10
1001.164321
 20
290.991476
 40
5.550000
 50
134.150320
 51
210.926186
  0
ARC
  8
CSLAYER1
  6
CONTINUOUS
 62
     7
 10
1009.966339
 20
236.763217
 40
38.400000
 50
95.892190
 51
103.258090
  0
ARC
  8
CSLAYER1
  6
CONTINUOUS
 62
     7
 10
1003.080499
 20
266.023929
 40
8.340000
 50
103.314920
 51
133.896730
  0
ARC
  8
CSLAYER1
  6
CONTINUOUS
 62
     7
 10
1001.164321
 20
268.051821
 40
5.550000
 50
134.150320
 51
231.565351
  0
ARC
  8
CSLAYER1
  6
CONTINUOUS
 62
     7
 10
1009.966339
 20
253.998211
 40
38.400000
 50
95.892190
 51
103.258090
  0
ARC
  8
CSLAYER1
  6
CONTINUOUS
 62
     7
 10
1003.080499
 20
283.258923
 40
8.340000
 50
103.314920
 51
133.896730
  0
ARC
  8
CSLAYER1
  6
CONTINUOUS
 62
     7
 10
1001.164321
 20
285.286816
 40
5.550000
 50
134.150320
 51
231.565341
  0
ARC
  8
CSLAYER1
  6
CONTINUOUS
 62
     7
 10
1000.984327
 20
261.780921
 40
1.200000
 50
89.999980
 51
179.999963
  0
ARC
  8
CSLAYER1
  6
CONTINUOUS
 62
     7
 10
1003.024327
 20
262.380921
 40
0.600000
 50
0.000000
 51
89.999980
  0
ARC
  8
CSLAYER1
  6
CONTINUOUS
 62
     7
 10
1000.984327
 20
280.512085
 40
1.200000
 50
89.999980
 51
179.999963
  0
ARC
  8
CSLAYER1
  6
CONTINUOUS
 62
     7
 10
1003.024327
 20
281.112085
 40
0.600000
 50
0.000000
 51
89.999980
  0
ARC
  8
CSLAYER1
  6
CONTINUOUS
 62
     7
 10
1052.919878
 20
257.400000
 40
31.389276
 50
-39.817650
 51
39.817640
  0
LINE
  8
CSLAYER1
  6
CONTINUOUS
 62
     7
 10
1083.342133
 20
402.855844
 11
1079.185211
 21
410.055844
  0
LINE
  8
CSLAYER1
  6
CONTINUOUS
 62
     7
 10
1079.185211
 20
410.055844
 11
1070.871367
 21
410.055844
  0
LINE
  8
CSLAYER1
  6
CONTINUOUS
 62
     7
 10
1070.871367
 20
410.055844
 11
1066.714445
 21
402.855844
  0
LINE
  8
CSLAYER1
  6
CONTINUOUS
 62
     7
 10
1066.714445
 20
402.855844
 11
1070.871367
 21
395.655844
  0
LINE
  8
CSLAYER1
  6
CONTINUOUS
 62
     7
 10
1070.871367
 20
395.655844
 11
1079.185211
 21
395.655844
  0
LINE
  8
CSLAYER1
  6
CONTINUOUS
 62
     7
 10
1079.185211
 20
395.655844
 11
1083.342133
 21
402.855844
  0
CIRCLE
  8
CSLAYER1
  6
CONTINUOUS
 62
     7
 10
1075.028289
 20
402.855844
 40
7.200000
  0
LINE
  8
CSLAYER1
  6
CONTINUOUS
 62
     7
 10
1079.784133
 20
358.106792
 11
1079.185211
 21
359.144156
  0
LINE
  8
CSLAYER1
  6
CONTINUOUS
 62
     7
 10
1079.185211
 20
359.144156
 11
1070.871367
 21
359.144156
  0
LINE
  8
CSLAYER1
  6
CONTINUOUS
 62
     7
 10
1070.871367
 20
359.144156
 11
1066.714445
 21
351.944156
  0
LINE
  8
CSLAYER1
  6
CONTINUOUS
 62
     7
 10
1066.714445
 20
351.944156
 11
1070.871367
 21
344.744156
  0
LINE
  8
CSLAYER1
  6
CONTINUOUS
 62
     7
 10
1070.871367
 20
344.744156
 11
1079.185211
 21
344.744156
  0
LINE
  8
CSLAYER1
  6
CONTINUOUS
 62
     7
 10
1079.185211
 20
344.744156
 11
1079.784133
 21
345.781519
  0
ARC
  8
CSLAYER1
  6
CONTINUOUS
 62
     7
 10
1075.028289
 20
351.944156
 40
7.200000
 50
48.659396
 51
311.340604
  0
LINE
  8
CSLAYER1
  6
CONTINUOUS
 62
     7
 10
1134.253821
 20
351.944156
 11
1130.096899
 21
359.144156
  0
LINE
  8
CSLAYER1
  6
CONTINUOUS
 62
     7
 10
1130.096899
 20
359.144156
 11
1121.783055
 21
359.144156
  0
LINE
  8
CSLAYER1
  6
CONTINUOUS
 62
     7
 10
1121.783055
 20
359.144156
 11
1121.184133
 21
358.106792
  0
LINE
  8
CSLAYER1
  6
CONTINUOUS
 62
     7
 10
1121.184133
 20
345.781519
 11
1121.783055
 21
344.744156
  0
LINE
  8
CSLAYER1
  6
CONTINUOUS
 62
     7
 10
1121.783055
 20
344.744156
 11
1130.096899
 21
344.744156
  0
LINE
  8
CSLAYER1
  6
CONTINUOUS
 62
     7
 10
1130.096899
 20
344.744156
 11
1134.253821
 21
351.944156
  0
ARC
  8
CSLAYER1
  6
CONTINUOUS
 62
     7
 10
1125.939977
 20
351.944156
 40
7.200000
 50
-131.340604
 51
131.340604
  0
LINE
  8
CSLAYER1
  6
CONTINUOUS
 62
     7
 10
1134.253821
 20
402.855844
 11
1130.096899
 21
410.055844
  0
LINE
  8
CSLAYER1
  6
CONTINUOUS
 62
     7
 10
1130.096899
 20
410.055844
 11
1121.783055
 21
410.055844
  0
LINE
  8
CSLAYER1
  6
CONTINUOUS
 62
     7
 10
1121.783055
 20
410.055844
 11
1117.626133
 21
402.855844
  0
LINE
  8
CSLAYER1
  6
CONTINUOUS
 62
     7
 10
1117.626133
 20
402.855844
 11
1121.783055
 21
395.655844
  0
LINE
  8
CSLAYER1
  6
CONTINUOUS
 62
     7
 10
1121.783055
 20
395.655844
 11
1130.096899
 21
395.655844
  0
LINE
  8
CSLAYER1
  6
CONTINUOUS
 62
     7
 10
1130.096899
 20
395.655844
 11
1134.253821
 21
402.855844
  0
CIRCLE
  8
CSLAYER1
  6
CONTINUOUS
 62
     7
 10
1125.939977
 20
402.855844
 40
7.200000
  0
LINE
  8
CSLAYER1
  6
CONTINUOUS
 62
     7
 10
1079.784133
 20
169.018480
 11
1079.185211
 21
170.055844
  0
LINE
  8
CSLAYER1
  6
CONTINUOUS
 62
     7
 10
1079.185211
 20
170.055844
 11
1070.871367
 21
170.055844
  0
LINE
  8
CSLAYER1
  6
CONTINUOUS
 62
     7
 10
1070.871367
 20
170.055844
 11
1066.714445
 21
162.855844
  0
LINE
  8
CSLAYER1
  6
CONTINUOUS
 62
     7
 10
1066.714445
 20
162.855844
 11
1070.871367
 21
155.655844
  0
LINE
  8
CSLAYER1
  6
CONTINUOUS
 62
     7
 10
1070.871367
 20
155.655844
 11
1079.185211
 21
155.655844
  0
LINE
  8
CSLAYER1
  6
CONTINUOUS
 62
     7
 10
1079.185211
 20
155.655844
 11
1079.784133
 21
156.693208
  0
ARC
  8
CSLAYER1
  6
CONTINUOUS
 62
     7
 10
1075.028289
 20
162.855844
 40
7.200000
 50
48.659396
 51
311.340604
  0
LINE
  8
CSLAYER1
  6
CONTINUOUS
 62
     7
 10
1134.253821
 20
162.855844
 11
1130.096899
 21
170.055844
  0
LINE
  8
CSLAYER1
  6
CONTINUOUS
 62
     7
 10
1130.096899
 20
170.055844
 11
1121.783055
 21
170.055844
  0
LINE
  8
CSLAYER1
  6
CONTINUOUS
 62
     7
 10
1121.783055
 20
170.055844
 11
1121.184133
 21
169.018480
  0
LINE
  8
CSLAYER1
  6
CONTINUOUS
 62
     7
 10
1121.184133
 20
156.693208
 11
1121.783055
 21
155.655844
  0
LINE
  8
CSLAYER1
  6
CONTINUOUS
 62
     7
 10
1121.783055
 20
155.655844
 11
1130.096899
 21
155.655844
  0
LINE
  8
CSLAYER1
  6
CONTINUOUS
 62
     7
 10
1130.096899
 20
155.655844
 11
1134.253821
 21
162.855844
  0
ARC
  8
CSLAYER1
  6
CONTINUOUS
 62
     7
 10
1125.939977
 20
162.855844
 40
7.200000
 50
-131.340604
 51
131.340604
  0
LINE
  8
CSLAYER1
  6
CONTINUOUS
 62
     7
 10
1134.253821
 20
111.944156
 11
1130.096899
 21
119.144156
  0
LINE
  8
CSLAYER1
  6
CONTINUOUS
 62
     7
 10
1130.096899
 20
119.144156
 11
1121.783055
 21
119.144156
  0
LINE
  8
CSLAYER1
  6
CONTINUOUS
 62
     7
 10
1121.783055
 20
119.144156
 11
1117.626133
 21
111.944156
  0
LINE
  8
CSLAYER1
  6
CONTINUOUS
 62
     7
 10
1117.626133
 20
111.944156
 11
1121.783055
 21
104.744156
  0
LINE
  8
CSLAYER1
  6
CONTINUOUS
 62
     7
 10
1121.783055
 20
104.744156
 11
1130.096899
 21
104.744156
  0
LINE
  8
CSLAYER1
  6
CONTINUOUS
 62
     7
 10
1130.096899
 20
104.744156
 11
1134.253821
 21
111.944156
  0
CIRCLE
  8
CSLAYER1
  6
CONTINUOUS
 62
     7
 10
1125.939977
 20
111.944156
 40
7.200000
  0
LINE
  8
CSLAYER1
  6
CONTINUOUS
 62
     7
 10
1083.342133
 20
111.944156
 11
1079.185211
 21
119.144156
  0
LINE
  8
CSLAYER1
  6
CONTINUOUS
 62
     7
 10
1079.185211
 20
119.144156
 11
1070.871367
 21
119.144156
  0
LINE
  8
CSLAYER1
  6
CONTINUOUS
 62
     7
 10
1070.871367
 20
119.144156
 11
1066.714445
 21
111.944156
  0
LINE
  8
CSLAYER1
  6
CONTINUOUS
 62
     7
 10
1066.714445
 20
111.944156
 11
1070.871367
 21
104.744156
  0
LINE
  8
CSLAYER1
  6
CONTINUOUS
 62
     7
 10
1070.871367
 20
104.744156
 11
1079.185211
 21
104.744156
  0
LINE
  8
CSLAYER1
  6
CONTINUOUS
 62
     7
 10
1079.185211
 20
104.744156
 11
1083.342133
 21
111.944156
  0
CIRCLE
  8
CSLAYER1
  6
CONTINUOUS
 62
     7
 10
1075.028289
 20
111.944156
 40
7.200000
  0
LINE
  8
CSLAYER1
  6
CONTINUOUS
 62
     7
 10
996.233876
 20
244.200000
 11
826.284133
 21
244.200000
  0
ARC
  8
CSLAYER1
  6
CONTINUOUS
 62
     7
 10
1001.177782
 20
260.008044
 40
27.208044
 50
284.792083
 51
285.344827
  0
LINE
  8
CSLAYER1
  6
CONTINUOUS
 62
     7
 10
1008.124327
 20
232.800000
 11
1011.977782
 21
232.800000
  0
LINE
  8
CSLAYER1
  6
CONTINUOUS
 62
     7
 10
995.780557
 20
269.400000
 11
825.384133
 21
269.400000
  0
LINE
  8
CSLAYER1
  6
CONTINUOUS
 62
     7
 10
1011.688457
 20
268.200000
 11
1023.084133
 21
268.200000
  0
LINE
  8
CSLAYER1
  6
CONTINUOUS
 62
     7
 10
1023.084133
 20
269.400000
 11
1011.265415
 21
269.400000
  0
LINE
  8
CSLAYER1
  6
CONTINUOUS
 62
     7
 10
1036.584133
 20
268.200000
 11
1057.565483
 21
268.200000
  0
LINE
  8
CSLAYER1
  6
CONTINUOUS
 62
     7
 10
1008.124327
 20
293.400000
 11
1075.614135
 21
293.400000
  0
LINE
  8
CSLAYER1
  6
CONTINUOUS
 62
     7
 10
264.119994
 20
330.633335
 11
264.119994
 21
409.092594
  0
LINE
  8
CSLAYER1
  6
CONTINUOUS
 62
     7
 10
269.453327
 20
330.633335
 11
269.453327
 21
379.225928
  0
LINE
  8
CSLAYER1
  6
CONTINUOUS
 62
     7
 10
264.119994
 20
409.092594
 11
273.453327
 21
379.225928
  0
LINE
  8
CSLAYER1
  6
CONTINUOUS
 62
     7
 10
269.453327
 20
379.225928
 11
273.453327
 21
379.225928
  0
LINE
  8
CSLAYER1
  6
CONTINUOUS
 62
     7
 10
288.053314
 20
325.300002
 11
291.053315
 21
325.300002
  0
LINE
  8
CSLAYER1
  6
CONTINUOUS
 62
     7
 10
288.053314
 20
349.300008
 11
291.053315
 21
349.300008
  0
LINE
  8
CSLAYER1
  6
CONTINUOUS
 62
     7
 10
288.053314
 20
349.300008
 11
288.053314
 21
325.300002
  0
LINE
  8
CSLAYER1
  6
CONTINUOUS
 62
     7
 10
291.053315
 20
349.300008
 11
291.053315
 21
325.300002
  0
LINE
  8
CSLAYER1
  6
CONTINUOUS
 62
     7
 10
294.653316
 20
345.300007
 11
294.653316
 21
340.692044
  0
LINE
  8
CSLAYER1
  6
CONTINUOUS
 62
     7
 10
308.653319
 20
345.300007
 11
308.653319
 21
343.800006
  0
LINE
  8
CSLAYER1
  6
CONTINUOUS
 62
     7
 10
297.653316
 20
344.300006
 11
297.653316
 21
341.459371
  0
LINE
  8
CSLAYER1
  6
CONTINUOUS
 62
     7
 10
312.253320
 20
349.300008
 11
312.253320
 21
325.300002
  0
LINE
  8
CSLAYER1
  6
CONTINUOUS
 62
     7
 10
315.253321
 20
349.300008
 11
315.253321
 21
338.800005
  0
LINE
  8
CSLAYER1
  6
CONTINUOUS
 62
     7
 10
323.253323
 20
349.300008
 11
323.253323
 21
338.800005
  0
LINE
  8
CSLAYER1
  6
CONTINUOUS
 62
     7
 10
326.253323
 20
349.300008
 11
326.253323
 21
325.300002
  0
LINE
  8
CSLAYER1
  6
CONTINUOUS
 62
     7
 10
315.253321
 20
338.800005
 11
323.253323
 21
338.800005
  0
LINE
  8
CSLAYER1
  6
CONTINUOUS
 62
     7
 10
315.253321
 20
335.800004
 11
323.253323
 21
335.800004
  0
LINE
  8
CSLAYER1
  6
CONTINUOUS
 62
     7
 10
329.853324
 20
349.300008
 11
329.853324
 21
325.300002
  0
LINE
  8
CSLAYER1
  6
CONTINUOUS
 62
     7
 10
332.853325
 20
349.300008
 11
332.853325
 21
325.300002
  0
LINE
  8
CSLAYER1
  6
CONTINUOUS
 62
     7
 10
336.453326
 20
349.300008
 11
336.453326
 21
346.300007
  0
LINE
  8
CSLAYER1
  6
CONTINUOUS
 62
     7
 10
350.453329
 20
349.300008
 11
350.453329
 21
345.800007
  0
LINE
  8
CSLAYER1
  6
CONTINUOUS
 62
     7
 10
336.453326
 20
346.300007
 11
346.747446
 21
346.300007
  0
LINE
  8
CSLAYER1
  6
CONTINUOUS
 62
     7
 10
340.159209
 20
328.300002
 11
350.453329
 21
328.300002
  0
LINE
  8
CSLAYER1
  6
CONTINUOUS
 62
     7
 10
346.747446
 20
346.300007
 11
336.453326
 21
328.800003
  0
LINE
  8
CSLAYER1
  6
CONTINUOUS
 62
     7
 10
340.159209
 20
328.300002
 11
350.453329
 21
345.800007
  0
LINE
  8
CSLAYER1
  6
CONTINUOUS
 62
     7
 10
350.453329
 20
328.300002
 11
350.453329
 21
325.300002
  0
LINE
  8
CSLAYER1
  6
CONTINUOUS
 62
     7
 10
336.453326
 20
328.800003
 11
336.453326
 21
325.300002
  0
LINE
  8
CSLAYER1
  6
CONTINUOUS
 62
     7
 10
359.583767
 20
349.300008
 11
353.322895
 21
325.300002
  0
LINE
  8
CSLAYER1
  6
CONTINUOUS
 62
     7
 10
363.322898
 20
349.300008
 11
369.583769
 21
325.300002
  0
LINE
  8
CSLAYER1
  6
CONTINUOUS
 62
     7
 10
361.453332
 20
344.581809
 11
364.526847
 21
332.800004
  0
LINE
  8
CSLAYER1
  6
CONTINUOUS
 62
     7
 10
361.453332
 20
344.581809
 11
358.379818
 21
332.800004
  0
LINE
  8
CSLAYER1
  6
CONTINUOUS
 62
     7
 10
357.597209
 20
329.800003
 11
365.309456
 21
329.800003
  0
LINE
  8
CSLAYER1
  6
CONTINUOUS
 62
     7
 10
358.379818
 20
332.800004
 11
364.526847
 21
332.800004
  0
LINE
  8
CSLAYER1
  6
CONTINUOUS
 62
     7
 10
357.597209
 20
329.800003
 11
356.423296
 21
325.300002
  0
LINE
  8
CSLAYER1
  6
CONTINUOUS
 62
     7
 10
365.309456
 20
329.800003
 11
366.483369
 21
325.300002
  0
LINE
  8
CSLAYER1
  6
CONTINUOUS
 62
     7
 10
372.453335
 20
349.300008
 11
372.453335
 21
325.300002
  0
LINE
  8
CSLAYER1
  6
CONTINUOUS
 62
     7
 10
375.453336
 20
349.300008
 11
375.453336
 21
340.800006
  0
LINE
  8
CSLAYER1
  6
CONTINUOUS
 62
     7
 10
382.890838
 20
349.300008
 11
375.453336
 21
340.800006
  0
LINE
  8
CSLAYER1
  6
CONTINUOUS
 62
     7
 10
386.877143
 20
349.300008
 11
380.927989
 21
342.500975
  0
LINE
  8
CSLAYER1
  6
CONTINUOUS
 62
     7
 10
380.927989
 20
342.500975
 11
386.618759
 21
325.300002
  0
LINE
  8
CSLAYER1
  6
CONTINUOUS
 62
     7
 10
378.635039
 20
339.880460
 11
383.458838
 21
325.300002
  0
LINE
  8
CSLAYER1
  6
CONTINUOUS
 62
     7
 10
375.453336
 20
336.244228
 11
375.453336
 21
325.300002
  0
LINE
  8
CSLAYER1
  6
CONTINUOUS
 62
     7
 10
378.635039
 20
339.880460
 11
375.453336
 21
336.244228
  0
LINE
  8
CSLAYER1
  6
CONTINUOUS
 62
     7
 10
390.053339
 20
349.300008
 11
390.053339
 21
325.300002
  0
LINE
  8
CSLAYER1
  6
CONTINUOUS
 62
     7
 10
393.053340
 20
349.300008
 11
393.053340
 21
325.300002
  0
LINE
  8
CSLAYER1
  6
CONTINUOUS
 62
     7
 10
299.653317
 20
346.300007
 11
303.653318
 21
346.300007
  0
LINE
  8
CSLAYER1
  6
CONTINUOUS
 62
     7
 10
299.653317
 20
328.300002
 11
303.653318
 21
328.300002
  0
LINE
  8
CSLAYER1
  6
CONTINUOUS
 62
     7
 10
305.653318
 20
343.800006
 11
308.653319
 21
343.800006
  0
LINE
  8
CSLAYER1
  6
CONTINUOUS
 62
     7
 10
294.653316
 20
330.800003
 11
297.653316
 21
330.800003
  0
LINE
  8
CSLAYER1
  6
CONTINUOUS
 62
     7
 10
294.653316
 20
330.800003
 11
294.653316
 21
329.300003
  0
LINE
  8
CSLAYER1
  6
CONTINUOUS
 62
     7
 10
305.653318
 20
333.140639
 11
305.653318
 21
330.300003
  0
LINE
  8
CSLAYER1
  6
CONTINUOUS
 62
     7
 10
299.135679
 20
339.527519
 11
305.688594
 21
337.771670
  0
LINE
  8
CSLAYER1
  6
CONTINUOUS
 62
     7
 10
297.618040
 20
336.828339
 11
304.170956
 21
335.072491
  0
ARC
  8
CSLAYER1
  6
CONTINUOUS
 62
     7
 10
299.653317
 20
344.300006
 40
2.000001
 50
90.000000
 51
180.000000
  0
ARC
  8
CSLAYER1
  6
CONTINUOUS
 62
     7
 10
303.653318
 20
344.300006
 40
2.000001
 50
0.000000
 51
90.000000
  0
ARC
  8
CSLAYER1
  6
CONTINUOUS
 62
     7
 10
299.653317
 20
341.459371
 40
2.000001
 50
180.000000
 51
255.000000
  0
ARC
  8
CSLAYER1
  6
CONTINUOUS
 62
     7
 10
303.653318
 20
333.140639
 40
2.000001
 50
0.000000
 51
75.000000
  0
ARC
  8
CSLAYER1
  6
CONTINUOUS
 62
     7
 10
303.653318
 20
330.300003
 40
2.000001
 50
270.000000
 51
360.000000
  0
ARC
  8
CSLAYER1
  6
CONTINUOUS
 62
     7
 10
299.653317
 20
330.300003
 40
2.000001
 50
180.000000
 51
270.000000
  0
LINE
  8
CSLAYER1
  6
CONTINUOUS
 62
     7
 10
298.653317
 20
349.300008
 11
304.653318
 21
349.300008
  0
LINE
  8
CSLAYER1
  6
CONTINUOUS
 62
     7
 10
298.653317
 20
325.300002
 11
304.653318
 21
325.300002
  0
LINE
  8
CSLAYER1
  6
CONTINUOUS
 62
     7
 10
312.253320
 20
349.300008
 11
315.253321
 21
349.300008
  0
LINE
  8
CSLAYER1
  6
CONTINUOUS
 62
     7
 10
312.253320
 20
325.300002
 11
315.253321
 21
325.300002
  0
LINE
  8
CSLAYER1
  6
CONTINUOUS
 62
     7
 10
329.853324
 20
325.300002
 11
332.853325
 21
325.300002
  0
LINE
  8
CSLAYER1
  6
CONTINUOUS
 62
     7
 10
329.853324
 20
349.300008
 11
332.853325
 21
349.300008
  0
LINE
  8
CSLAYER1
  6
CONTINUOUS
 62
     7
 10
323.253323
 20
349.300008
 11
326.253323
 21
349.300008
  0
LINE
  8
CSLAYER1
  6
CONTINUOUS
 62
     7
 10
323.253323
 20
325.300002
 11
326.253323
 21
325.300002
  0
LINE
  8
CSLAYER1
  6
CONTINUOUS
 62
     7
 10
336.453326
 20
349.300008
 11
350.453329
 21
349.300008
  0
LINE
  8
CSLAYER1
  6
CONTINUOUS
 62
     7
 10
336.453326
 20
325.300002
 11
350.453329
 21
325.300002
  0
LINE
  8
CSLAYER1
  6
CONTINUOUS
 62
     7
 10
359.453332
 20
349.300008
 11
363.453333
 21
349.300008
  0
LINE
  8
CSLAYER1
  6
CONTINUOUS
 62
     7
 10
353.322895
 20
325.300002
 11
356.423296
 21
325.300002
  0
LINE
  8
CSLAYER1
  6
CONTINUOUS
 62
     7
 10
366.483369
 20
325.300002
 11
369.583769
 21
325.300002
  0
LINE
  8
CSLAYER1
  6
CONTINUOUS
 62
     7
 10
372.453335
 20
325.300002
 11
375.453336
 21
325.300002
  0
LINE
  8
CSLAYER1
  6
CONTINUOUS
 62
     7
 10
383.458838
 20
325.300002
 11
386.618759
 21
325.300002
  0
LINE
  8
CSLAYER1
  6
CONTINUOUS
 62
     7
 10
390.053339
 20
325.300002
 11
393.053340
 21
325.300002
  0
LINE
  8
CSLAYER1
  6
CONTINUOUS
 62
     7
 10
390.053339
 20
349.300008
 11
393.053340
 21
349.300008
  0
LINE
  8
CSLAYER1
  6
CONTINUOUS
 62
     7
 10
382.890838
 20
349.300008
 11
386.877143
 21
349.300008
  0
LINE
  8
CSLAYER1
  6
CONTINUOUS
 62
     7
 10
372.453335
 20
349.300008
 11
375.453336
 21
349.300008
  0
ARC
  8
CSLAYER1
  6
CONTINUOUS
 62
     7
 10
298.653317
 20
345.300007
 40
4.000001
 50
90.000000
 51
180.000000
  0
ARC
  8
CSLAYER1
  6
CONTINUOUS
 62
     7
 10
304.653318
 20
345.300007
 40
4.000001
 50
0.000000
 51
90.000000
  0
ARC
  8
CSLAYER1
  6
CONTINUOUS
 62
     7
 10
298.653317
 20
340.692044
 40
4.000001
 50
180.000000
 51
255.000000
  0
ARC
  8
CSLAYER1
  6
CONTINUOUS
 62
     7
 10
304.653318
 20
333.907966
 40
4.000001
 50
0.000000
 51
75.000000
  0
ARC
  8
CSLAYER1
  6
CONTINUOUS
 62
     7
 10
304.653318
 20
329.300003
 40
4.000001
 50
270.000000
 51
360.000000
  0
ARC
  8
CSLAYER1
  6
CONTINUOUS
 62
     7
 10
298.653317
 20
329.300003
 40
4.000001
 50
180.000000
 51
270.000000
  0
LINE
  8
CSLAYER1
  6
CONTINUOUS
 62
     7
 10
315.253321
 20
335.800004
 11
315.253321
 21
325.300002
  0
LINE
  8
CSLAYER1
  6
CONTINUOUS
 62
     7
 10
323.253323
 20
335.800004
 11
323.253323
 21
325.300002
  0
LINE
  8
CSLAYER1
  6
CONTINUOUS
 62
     7
 10
308.653319
 20
333.907966
 11
308.653319
 21
329.300003
  0
LINE
  8
CSLAYER1
  6
CONTINUOUS
 62
     7
 10
305.653318
 20
343.800006
 11
305.653318
 21
344.300006
  0
LINE
  8
CSLAYER1
  6
CONTINUOUS
 62
     7
 10
297.653316
 20
330.300003
 11
297.653316
 21
330.800003
  0
LINE
  8
CSLAYER1
  6
CONTINUOUS
 62
     7
 10
297.747649
 20
357.300002
 11
300.747649
 21
357.300002
  0
LINE
  8
CSLAYER1
  6
CONTINUOUS
 62
     7
 10
297.747649
 20
381.300000
 11
300.747649
 21
381.300000
  0
LINE
  8
CSLAYER1
  6
CONTINUOUS
 62
     7
 10
297.747649
 20
377.126087
 11
297.747649
 21
357.300002
  0
LINE
  8
CSLAYER1
  6
CONTINUOUS
 62
     7
 10
321.947655
 20
381.300000
 11
321.947655
 21
365.647827
  0
LINE
  8
CSLAYER1
  6
CONTINUOUS
 62
     7
 10
324.034611
 20
381.300000
 11
324.034611
 21
376.082609
  0
LINE
  8
CSLAYER1
  6
CONTINUOUS
 62
     7
 10
334.469393
 20
381.300000
 11
334.469393
 21
380.971356
  0
LINE
  8
CSLAYER1
  6
CONTINUOUS
 62
     7
 10
321.947655
 20
365.647827
 11
324.034611
 21
365.647827
  0
LINE
  8
CSLAYER1
  6
CONTINUOUS
 62
     7
 10
309.529467
 20
381.300000
 11
313.165837
 21
381.300000
  0
LINE
  8
CSLAYER1
  6
CONTINUOUS
 62
     7
 10
321.947655
 20
381.300000
 11
324.034611
 21
381.300000
  0
LINE
  8
CSLAYER1
  6
CONTINUOUS
 62
     7
 10
321.947655
 20
359.386958
 11
334.469393
 21
359.386958
  0
LINE
  8
CSLAYER1
  6
CONTINUOUS
 62
     7
 10
321.947655
 20
361.473914
 11
334.469393
 21
361.473914
  0
LINE
  8
CSLAYER1
  6
CONTINUOUS
 62
     7
 10
321.947655
 20
361.473914
 11
321.947655
 21
359.386958
  0
LINE
  8
CSLAYER1
  6
CONTINUOUS
 62
     7
 10
334.469393
 20
361.473914
 11
334.469393
 21
359.386958
  0
LINE
  8
CSLAYER1
  6
CONTINUOUS
 62
     7
 10
331.338958
 20
381.300000
 11
324.034611
 21
376.082609
  0
LINE
  8
CSLAYER1
  6
CONTINUOUS
 62
     7
 10
334.469393
 20
380.971356
 11
327.625147
 21
376.082609
  0
LINE
  8
CSLAYER1
  6
CONTINUOUS
 62
     7
 10
327.625147
 20
376.082609
 11
334.469393
 21
365.647827
  0
LINE
  8
CSLAYER1
  6
CONTINUOUS
 62
     7
 10
325.925579
 20
374.868632
 11
331.973569
 21
365.647827
  0
LINE
  8
CSLAYER1
  6
CONTINUOUS
 62
     7
 10
331.338958
 20
381.300000
 11
334.469393
 21
381.300000
  0
LINE
  8
CSLAYER1
  6
CONTINUOUS
 62
     7
 10
331.973569
 20
365.647827
 11
334.469393
 21
365.647827
  0
LINE
  8
CSLAYER1
  6
CONTINUOUS
 62
     7
 10
324.034611
 20
373.517941
 11
324.034611
 21
365.647827
  0
LINE
  8
CSLAYER1
  6
CONTINUOUS
 62
     7
 10
325.925579
 20
374.868632
 11
324.034611
 21
373.517941
  0
LINE
  8
CSLAYER1
  6
CONTINUOUS
 62
     7
 10
296.704171
 20
377.126087
 11
297.747649
 21
377.126087
  0
LINE
  8
CSLAYER1
  6
CONTINUOUS
 62
     7
 10
297.747649
 20
381.300000
 11
296.704171
 21
377.126087
  0
LINE
  8
CSLAYER1
  6
CONTINUOUS
 62
     7
 10
304.347649
 20
376.082609
 11
304.347649
 21
362.517393
  0
LINE
  8
CSLAYER1
  6
CONTINUOUS
 62
     7
 10
307.347649
 20
376.118182
 11
307.347649
 21
362.517393
  0
LINE
  8
CSLAYER1
  6
CONTINUOUS
 62
     7
 10
309.529467
 20
378.300000
 11
313.165837
 21
378.300000
  0
ARC
  8
CSLAYER1
  6
CONTINUOUS
 62
     7
 10
309.529467
 20
376.118182
 40
2.181818
 50
90.000000
 51
180.000000
  0
ARC
  8
CSLAYER1
  6
CONTINUOUS
 62
     7
 10
309.529467
 20
376.118182
 40
5.181818
 50
90.000000
 51
180.000000
  0
ARC
  8
CSLAYER1
  6
CONTINUOUS
 62
     7
 10
309.529467
 20
362.481819
 40
2.181818
 50
180.000000
 51
270.000000
  0
ARC
  8
CSLAYER1
  6
CONTINUOUS
 62
     7
 10
309.529467
 20
362.481819
 40
5.181818
 50
180.000000
 51
270.000000
  0
LINE
  8
CSLAYER1
  6
CONTINUOUS
 62
     7
 10
318.347655
 20
376.082609
 11
318.347655
 21
362.517393
  0
LINE
  8
CSLAYER1
  6
CONTINUOUS
 62
     7
 10
315.347655
 20
376.118182
 11
315.347655
 21
362.517393
  0
ARC
  8
CSLAYER1
  6
CONTINUOUS
 62
     7
 10
313.165837
 20
376.118182
 40
2.181818
 50
0.000000
 51
90.000000
  0
ARC
  8
CSLAYER1
  6
CONTINUOUS
 62
     7
 10
313.165837
 20
376.118182
 40
5.181818
 50
0.000000
 51
90.000000
  0
ARC
  8
CSLAYER1
  6
CONTINUOUS
 62
     7
 10
313.165837
 20
362.481819
 40
2.181818
 50
270.000000
 51
360.000000
  0
ARC
  8
CSLAYER1
  6
CONTINUOUS
 62
     7
 10
313.165837
 20
362.481819
 40
5.181818
 50
270.000000
 51
360.000000
  0
LINE
  8
CSLAYER1
  6
CONTINUOUS
 62
     7
 10
309.529467
 20
360.300001
 11
313.165837
 21
360.300001
  0
LINE
  8
CSLAYER1
  6
CONTINUOUS
 62
     7
 10
309.529467
 20
357.300002
 11
313.165837
 21
357.300002
  0
LINE
  8
CSLAYER1
  6
CONTINUOUS
 62
     7
 10
300.747649
 20
381.300000
 11
300.747649
 21
357.300002
  0
LINE
  8
CSLAYER1
  6
CONTINUOUS
 62
     7
 10
339.583762
 20
413.300008
 11
333.322890
 21
389.300002
  0
LINE
  8
CSLAYER1
  6
CONTINUOUS
 62
     7
 10
343.322893
 20
413.300008
 11
349.583764
 21
389.300002
  0
LINE
  8
CSLAYER1
  6
CONTINUOUS
 62
     7
 10
341.453327
 20
408.581809
 11
344.526842
 21
396.800004
  0
LINE
  8
CSLAYER1
  6
CONTINUOUS
 62
     7
 10
341.453327
 20
408.581809
 11
338.379813
 21
396.800004
  0
LINE
  8
CSLAYER1
  6
CONTINUOUS
 62
     7
 10
337.597204
 20
393.800003
 11
345.309451
 21
393.800003
  0
LINE
  8
CSLAYER1
  6
CONTINUOUS
 62
     7
 10
338.379813
 20
396.800004
 11
344.526842
 21
396.800004
  0
LINE
  8
CSLAYER1
  6
CONTINUOUS
 62
     7
 10
337.597204
 20
393.800003
 11
336.423291
 21
389.300002
  0
LINE
  8
CSLAYER1
  6
CONTINUOUS
 62
     7
 10
345.309451
 20
393.800003
 11
346.483364
 21
389.300002
  0
LINE
  8
CSLAYER1
  6
CONTINUOUS
 62
     7
 10
339.453327
 20
413.300008
 11
343.453328
 21
413.300008
  0
LINE
  8
CSLAYER1
  6
CONTINUOUS
 62
     7
 10
333.322890
 20
389.300002
 11
336.423291
 21
389.300002
  0
LINE
  8
CSLAYER1
  6
CONTINUOUS
 62
     7
 10
346.483364
 20
389.300002
 11
349.583764
 21
389.300002
  0
LINE
  8
CSLAYER1
  6
CONTINUOUS
 62
     7
 10
315.722887
 20
413.300008
 11
315.722887
 21
389.300002
  0
LINE
  8
CSLAYER1
  6
CONTINUOUS
 62
     7
 10
329.722890
 20
409.300007
 11
329.722890
 21
407.800006
  0
LINE
  8
CSLAYER1
  6
CONTINUOUS
 62
     7
 10
318.722888
 20
402.800002
 11
318.722888
 21
410.300007
  0
LINE
  8
CSLAYER1
  6
CONTINUOUS
 62
     7
 10
318.722888
 20
410.300007
 11
324.722889
 21
410.300007
  0
ARC
  8
CSLAYER1
  6
CONTINUOUS
 62
     7
 10
324.722889
 20
408.300006
 40
2.000001
 50
0.000000
 51
90.000000
  0
LINE
  8
CSLAYER1
  6
CONTINUOUS
 62
     7
 10
315.722887
 20
413.300008
 11
325.722889
 21
413.300008
  0
ARC
  8
CSLAYER1
  6
CONTINUOUS
 62
     7
 10
325.722889
 20
409.300007
 40
4.000001
 50
0.000000
 51
90.000000
  0
LINE
  8
CSLAYER1
  6
CONTINUOUS
 62
     7
 10
326.722890
 20
407.800006
 11
326.722890
 21
408.300006
  0
LINE
  8
CSLAYER1
  6
CONTINUOUS
 62
     7
 10
315.722887
 20
389.300002
 11
318.722888
 21
389.300002
  0
LINE
  8
CSLAYER1
  6
CONTINUOUS
 62
     7
 10
326.722890
 20
407.800006
 11
326.722890
 21
404.800002
  0
LINE
  8
CSLAYER1
  6
CONTINUOUS
 62
     7
 10
329.722890
 20
407.800006
 11
329.722890
 21
403.800002
  0
ARC
  8
CSLAYER1
  6
CONTINUOUS
 62
     7
 10
324.722889
 20
404.800002
 40
2.000001
 50
270.000000
 51
360.000000
  0
ARC
  8
CSLAYER1
  6
CONTINUOUS
 62
     7
 10
325.722889
 20
403.800002
 40
4.000001
 50
270.000000
 51
360.000000
  0
LINE
  8
CSLAYER1
  6
CONTINUOUS
 62
     7
 10
324.722889
 20
402.800002
 11
318.722888
 21
402.800002
  0
LINE
  8
CSLAYER1
  6
CONTINUOUS
 62
     7
 10
325.722889
 20
399.800001
 11
318.722888
 21
399.800001
  0
LINE
  8
CSLAYER1
  6
CONTINUOUS
 62
     7
 10
318.722888
 20
399.800001
 11
318.722888
 21
389.300002
  0
LINE
  8
CSLAYER1
  6
CONTINUOUS
 62
     7
 10
353.183764
 20
413.300008
 11
353.183764
 21
410.300007
  0
LINE
  8
CSLAYER1
  6
CONTINUOUS
 62
     7
 10
367.183768
 20
413.300008
 11
367.183768
 21
410.300007
  0
LINE
  8
CSLAYER1
  6
CONTINUOUS
 62
     7
 10
353.183764
 20
413.300008
 11
367.183768
 21
413.300008
  0
LINE
  8
CSLAYER1
  6
CONTINUOUS
 62
     7
 10
358.683767
 20
410.300007
 11
358.683767
 21
389.300002
  0
LINE
  8
CSLAYER1
  6
CONTINUOUS
 62
     7
 10
361.683768
 20
410.300007
 11
361.683768
 21
389.300002
  0
LINE
  8
CSLAYER1
  6
CONTINUOUS
 62
     7
 10
358.683767
 20
389.300002
 11
361.683768
 21
389.300002
  0
LINE
  8
CSLAYER1
  6
CONTINUOUS
 62
     7
 10
358.683767
 20
413.300008
 11
361.683768
 21
413.300008
  0
LINE
  8
CSLAYER1
  6
CONTINUOUS
 62
     7
 10
353.183764
 20
410.300007
 11
358.683767
 21
410.300007
  0
LINE
  8
CSLAYER1
  6
CONTINUOUS
 62
     7
 10
361.683768
 20
410.300007
 11
367.183768
 21
410.300007
  0
LINE
  8
CSLAYER1
  6
CONTINUOUS
 62
     7
 10
358.683767
 20
389.300002
 11
361.683768
 21
389.300002
  0
LINE
  8
CSLAYER1
  6
CONTINUOUS
 62
     7
 10
377.383583
 20
381.300000
 11
381.019954
 21
381.300000
  0
LINE
  8
CSLAYER1
  6
CONTINUOUS
 62
     7
 10
372.201766
 20
376.082609
 11
372.201766
 21
362.517393
  0
LINE
  8
CSLAYER1
  6
CONTINUOUS
 62
     7
 10
375.201765
 20
376.118182
 11
375.201765
 21
362.517393
  0
LINE
  8
CSLAYER1
  6
CONTINUOUS
 62
     7
 10
377.383583
 20
378.300000
 11
381.019954
 21
378.300000
  0
ARC
  8
CSLAYER1
  6
CONTINUOUS
 62
     7
 10
377.383583
 20
376.118182
 40
2.181818
 50
90.000000
 51
180.000000
  0
ARC
  8
CSLAYER1
  6
CONTINUOUS
 62
     7
 10
377.383583
 20
376.118182
 40
5.181818
 50
90.000000
 51
180.000000
  0
ARC
  8
CSLAYER1
  6
CONTINUOUS
 62
     7
 10
377.383583
 20
362.481819
 40
2.181818
 50
180.000000
 51
270.000000
  0
ARC
  8
CSLAYER1
  6
CONTINUOUS
 62
     7
 10
377.383583
 20
362.481819
 40
5.181818
 50
180.000000
 51
270.000000
  0
LINE
  8
CSLAYER1
  6
CONTINUOUS
 62
     7
 10
386.201772
 20
376.082609
 11
386.201772
 21
362.517393
  0
LINE
  8
CSLAYER1
  6
CONTINUOUS
 62
     7
 10
383.201772
 20
376.118182
 11
383.201772
 21
362.517393
  0
ARC
  8
CSLAYER1
  6
CONTINUOUS
 62
     7
 10
381.019954
 20
376.118182
 40
2.181818
 50
0.000000
 51
90.000000
  0
ARC
  8
CSLAYER1
  6
CONTINUOUS
 62
     7
 10
381.019954
 20
376.118182
 40
5.181818
 50
0.000000
 51
90.000000
  0
ARC
  8
CSLAYER1
  6
CONTINUOUS
 62
     7
 10
381.019954
 20
362.481819
 40
2.181818
 50
270.000000
 51
360.000000
  0
ARC
  8
CSLAYER1
  6
CONTINUOUS
 62
     7
 10
381.019954
 20
362.481819
 40
5.181818
 50
270.000000
 51
360.000000
  0
LINE
  8
CSLAYER1
  6
CONTINUOUS
 62
     7
 10
377.383583
 20
360.300001
 11
381.019954
 21
360.300001
  0
LINE
  8
CSLAYER1
  6
CONTINUOUS
 62
     7
 10
377.383583
 20
357.300002
 11
381.019954
 21
357.300002
  0
LINE
  8
CSLAYER1
  6
CONTINUOUS
 62
     7
 10
264.119994
 20
330.633335
 11
269.453327
 21
330.633335
  0
LINE
  8
CSLAYER1
  6
CONTINUOUS
 62
     7
 10
337.484113
 20
381.300000
 11
337.484113
 21
367.734782
  0
LINE
  8
CSLAYER1
  6
CONTINUOUS
 62
     7
 10
337.484113
 20
381.300000
 11
351.484121
 21
381.300000
  0
LINE
  8
CSLAYER1
  6
CONTINUOUS
 62
     7
 10
343.744983
 20
357.300000
 11
345.223251
 21
357.300000
  0
LINE
  8
CSLAYER1
  6
CONTINUOUS
 62
     7
 10
343.744983
 20
373.995652
 11
345.223251
 21
373.995652
  0
LINE
  8
CSLAYER1
  6
CONTINUOUS
 62
     7
 10
337.484113
 20
367.734782
 11
340.484113
 21
367.734782
  0
LINE
  8
CSLAYER1
  6
CONTINUOUS
 62
     7
 10
337.484113
 20
363.560869
 11
340.484113
 21
363.560869
  0
LINE
  8
CSLAYER1
  6
CONTINUOUS
 62
     7
 10
351.484121
 20
367.734782
 11
351.484121
 21
363.560869
  0
ARC
  8
CSLAYER1
  6
CONTINUOUS
 62
     7
 10
343.744983
 20
363.560869
 40
6.260870
 50
180.000000
 51
270.000000
  0
ARC
  8
CSLAYER1
  6
CONTINUOUS
 62
     7
 10
345.223251
 20
363.560869
 40
6.260870
 50
270.000000
 51
360.000000
  0
ARC
  8
CSLAYER1
  6
CONTINUOUS
 62
     7
 10
345.223251
 20
367.734782
 40
6.260870
 50
0.000000
 51
90.000000
  0
ARC
  8
CSLAYER1
  6
CONTINUOUS
 62
     7
 10
343.744983
 20
367.734782
 40
6.260870
 50
90.000000
 51
121.388166
  0
LINE
  8
CSLAYER1
  6
CONTINUOUS
 62
     7
 10
340.484113
 20
378.300000
 11
351.484121
 21
378.300000
  0
LINE
  8
CSLAYER1
  6
CONTINUOUS
 62
     7
 10
351.484121
 20
381.300000
 11
351.484121
 21
378.300000
  0
LINE
  8
CSLAYER1
  6
CONTINUOUS
 62
     7
 10
340.484113
 20
378.300000
 11
340.484113
 21
373.079426
  0
ARC
  8
CSLAYER1
  6
CONTINUOUS
 62
     7
 10
343.744983
 20
363.560869
 40
3.260870
 50
180.000000
 51
270.000000
  0
LINE
  8
CSLAYER1
  6
CONTINUOUS
 62
     7
 10
343.744983
 20
360.300000
 11
345.223251
 21
360.300000
  0
ARC
  8
CSLAYER1
  6
CONTINUOUS
 62
     7
 10
345.223251
 20
363.560869
 40
3.265233
 50
270.000000
 51
360.000000
  0
LINE
  8
CSLAYER1
  6
CONTINUOUS
 62
     7
 10
348.484121
 20
367.734782
 11
348.484121
 21
363.560869
  0
ARC
  8
CSLAYER1
  6
CONTINUOUS
 62
     7
 10
345.223251
 20
367.734782
 40
3.260870
 50
0.000000
 51
90.000000
  0
LINE
  8
CSLAYER1
  6
CONTINUOUS
 62
     7
 10
343.744983
 20
370.995652
 11
345.223251
 21
370.995652
  0
ARC
  8
CSLAYER1
  6
CONTINUOUS
 62
     7
 10
343.744983
 20
367.734782
 40
3.260870
 50
90.000000
 51
180.000000
  0
LINE
  8
CSLAYER1
  6
CONTINUOUS
 62
     7
 10
359.783577
 20
381.300000
 11
363.419948
 21
381.300000
  0
LINE
  8
CSLAYER1
  6
CONTINUOUS
 62
     7
 10
354.601759
 20
376.082609
 11
354.601759
 21
362.517393
  0
LINE
  8
CSLAYER1
  6
CONTINUOUS
 62
     7
 10
357.601759
 20
376.118182
 11
357.601759
 21
362.517393
  0
LINE
  8
CSLAYER1
  6
CONTINUOUS
 62
     7
 10
359.783577
 20
378.300000
 11
363.419948
 21
378.300000
  0
ARC
  8
CSLAYER1
  6
CONTINUOUS
 62
     7
 10
359.783577
 20
376.118182
 40
2.181818
 50
90.000000
 51
180.000000
  0
ARC
  8
CSLAYER1
  6
CONTINUOUS
 62
     7
 10
359.783577
 20
376.118182
 40
5.181818
 50
90.000000
 51
180.000000
  0
ARC
  8
CSLAYER1
  6
CONTINUOUS
 62
     7
 10
359.783577
 20
362.481819
 40
2.181818
 50
180.000000
 51
270.000000
  0
ARC
  8
CSLAYER1
  6
CONTINUOUS
 62
     7
 10
359.783577
 20
362.481819
 40
5.181818
 50
180.000000
 51
270.000000
  0
LINE
  8
CSLAYER1
  6
CONTINUOUS
 62
     7
 10
368.601766
 20
376.082609
 11
368.601766
 21
362.517393
  0
LINE
  8
CSLAYER1
  6
CONTINUOUS
 62
     7
 10
365.601766
 20
376.118182
 11
365.601766
 21
362.517393
  0
ARC
  8
CSLAYER1
  6
CONTINUOUS
 62
     7
 10
363.419948
 20
376.118182
 40
2.181818
 50
0.000000
 51
90.000000
  0
ARC
  8
CSLAYER1
  6
CONTINUOUS
 62
     7
 10
363.419948
 20
376.118182
 40
5.181818
 50
0.000000
 51
90.000000
  0
ARC
  8
CSLAYER1
  6
CONTINUOUS
 62
     7
 10
363.419948
 20
362.481819
 40
2.181818
 50
270.000000
 51
360.000000
  0
ARC
  8
CSLAYER1
  6
CONTINUOUS
 62
     7
 10
363.419948
 20
362.481819
 40
5.181818
 50
270.000000
 51
360.000000
  0
LINE
  8
CSLAYER1
  6
CONTINUOUS
 62
     7
 10
359.783577
 20
360.300001
 11
363.419948
 21
360.300001
  0
LINE
  8
CSLAYER1
  6
CONTINUOUS
 62
     7
 10
359.783577
 20
357.300002
 11
363.419948
 21
357.300002
  0
INSERT
  8
CSLAYER1
  2
BLKF0001
 10
0.0
 20
0.0
 30
0.0
  0
INSERT
  8
CSLAYER1
  2
BLKF0002
 10
0.0
 20
0.0
 30
0.0
  0
INSERT
  8
CSLAYER1
  2
BLKF0003
 10
0.0
 20
0.0
 30
0.0
  0
INSERT
  8
CSLAYER1
  2
BLKF0004
 10
0.0
 20
0.0
 30
0.0
  0
ENDSEC
  0
EOF
