  0
SECTION
  2
HEADER
  9
$ACADVER
  1
AC1006
  9
$INSBASE
 10
0.000000
 20
0.000000
 30
0.0
  9
$EXTMIN
 10
0.000000
 20
0.000000
  9
$EXTMAX
 10
1556.992797
 20
1462.250000
  9
$LIMMIN
 10
0.000000
 20
0.000000
  9
$LIMMAX
 10
1556.992797
 20
1462.250000
  9
$VIEWCTR
 10
778.496399
 20
731.125000
  9
$VIEWSIZE
 40
1462.250000
  9
$SNAPMODE
 70
     0
  9
$SNAPUNIT
 10
1.0
 20
1.0
  9
$SNAPBASE
 10
0.0
 20
0.0
  9
$SNAPANG
 50
0.0
  9
$SNAPSTYLE
 70
     0
  9
$SNAPISOPAIR
 70
     0
  9
$GRIDMODE
 70
     0
  9
$GRIDUNIT
 10
0.0
 20
0.0
  9
$ORTHOMODE
 70
     0
  9
$REGENMODE
 70
     1
  9
$FILLMODE
 70
     1
  9
$QTEXTMODE
 70
     0
  9
$DRAGMODE
 70
     2
  9
$LTSCALE
 40
15.000000
  9
$OSMODE
 70
     0
  9
$ATTMODE
 70
     1
  9
$TEXTSIZE
 40
0.2
  9
$TRACEWID
 40
0.05
  9
$TEXTSTYLE
  7
STANDARD
  9
$CLAYER
  8
CSLAYER1
  9
$CELTYPE
  6
BYLAYER
  9
$CECOLOR
 62
   256
  9
$DIMSCALE
 40
1.0
  9
$DIMASZ
 40
0.18
  9
$DIMEXO
 40
0.0625
  9
$DIMDLI
 40
0.38
  9
$DIMRND
 40
0.0
  9
$DIMDLE
 40
0.0
  9
$DIMEXE
 40
0.18
  9
$DIMTP
 40
0.0
  9
$DIMTM
 40
0.0
  9
$DIMTXT
 40
0.18
  9
$DIMCEN
 40
0.09
  9
$DIMTSZ
 40
0.0
  9
$DIMTOL
 70
     0
  9
$DIMLIM
 70
     0
  9
$DIMTIH
 70
     1
  9
$DIMTOH
 70
     1
  9
$DIMSE1
 70
     0
  9
$DIMSE2
 70
     0
  9
$DIMTAD
 70
     0
  9
$DIMZIN
 70
     0
  9
$DIMBLK
  1

  9
$LUNITS
 70
     2
  9
$LUPREC
 70
     4
  9
$AXISMODE
 70
     0
  9
$AXISUNIT
 10
0.0
 20
0.0
  9
$SKETCHINC
 40
0.1
  9
$FILLETRAD
 40
0.0
  9
$AUNITS
 70
     0
  9
$AUPREC
 70
     0
  9
$MENU
  1
ACAD
  9
$ELEVATION
 40
0.0
  9
$THICKNESS
 40
0.0
  9
$VIEWDIR
 10
0.0
 20
0.0
 30
1.0
  9
$LIMCHECK
 70
     0
  9
$BLIPMODE
 70
     1
  9
$CHAMFERA
 40
0.0
  9
$CHAMFERB
 40
0.0
  9
$FASTZOOM
 70
     1
  9
$SKPOLY
 70
     0
  9
$TDCREATE
 40
2456637.000000
  9
$TDUPDATE
 40
2456637.000000
  9
$TDINDWG
 40
0.0
  9
$TDUSRTIMER
 40
0.0
  9
$USRTIMER
 70
     1
  9
$ANGBASE
 50
0.0
  9
$ANGDIR
 70
     0
  9
$PDMODE
 70
     0
  9
$PDSIZE
 40
0.0
  9
$PLINEWID
 40
0.0
  9
$COORDS
 70
     0
  9
$USERI1
 70
     0
  9
$USERI2
 70
     0
  9
$USERI3
 70
     0
  9
$USERI4
 70
     0
  9
$USERI5
 70
     0
  9
$USERR1
 40
0.0
  9
$USERR2
 40
0.0
  9
$USERR3
 40
0.0
  9
$USERR4
 40
0.0
  9
$USERR5
 40
0.0
  0
ENDSEC
  0
SECTION
  2
TABLES
  0
TABLE
  2
LTYPE
 70
     9
  0
LTYPE
  2
CONTINUOUS
 70
    64
  3
Solid line
 72
    65
 73
     0
 40
0.0
  0
LTYPE
  2
DASHED
 70
    64
  3
__ __ __ __ __ __ __ __ __ __ __ __ __ __ __
 72
    65
 73
     2
 40
0.75
 49
0.5
 49
-0.25
  0
LTYPE
  2
HIDDEN
 70
    64
  3
_ _ _ _ _ _ _ _ _ _ _ _ _ _ _ _ _ _ _ _ _ _ _
 72
    65
 73
     2
 40
0.375
 49
0.25
 49
-0.125
  0
LTYPE
  2
DOT
 70
    64
  3
...............................................
 72
    65
 73
     2
 40
0.25
 49
0.0
 49
-0.25
  0
LTYPE
  2
DASHDOT
 70
    64
  3
__ . __ . __ . __ . __ . __ . __ . __ . __ . __
 72
    65
 73
     4
 40
1.0
 49
0.5
 49
-0.25
 49
0.0
 49
-0.25
  0
LTYPE
  2
DIVIDE
 70
    64
  3
__ . . __ . . __ . . __ . . __ . . __ . . __
 72
    65
 73
     6
 40
1.25
 49
0.5
 49
-0.25
 49
0.0
 49
-0.25
 49
0.0
 49
-0.25
  0
LTYPE
  2
CENTER
 70
    64
  3
____ _ ____ _ ____ _ ____ _ ____ _ ____ _ ____ 
 72
    65
 73
     4
 40
2.0
 49
1.25
 49
-0.25
 49
0.25
 49
-0.25
  0
LTYPE
  2
PHANTOM
 70
    64
  3
______  __  __  ______  __  __  ______  __  __ 
 72
    65
 73
     6
 40
2.5
 49
1.25
 49
-0.25
 49
0.25
 49
-0.25
 49
0.25
 49
-0.25
  0
LTYPE
  2
BORDER
 70
    64
  3
__ __ . __ __ . __ __ . __ __ . __ __ . __ __ .
 72
    65
 73
     6
 40
1.75
 49
0.5
 49
-0.25
 49
0.5
 49
-0.25
 49
0.0
 49
-0.25
  0
ENDTAB
  0
TABLE
  2
LAYER
 70
    16
  0
LAYER
  2
CSLAYER1
 70
    64
 62
     7
  6
CONTINUOUS
  0
LAYER
  2
CSLAYER2
 70
    64
 62
     7
  6
CONTINUOUS
  0
LAYER
  2
CSLAYER3
 70
    64
 62
     7
  6
CONTINUOUS
  0
LAYER
  2
CSLAYER4
 70
    64
 62
     7
  6
CONTINUOUS
  0
LAYER
  2
CSLAYER5
 70
    64
 62
     7
  6
CONTINUOUS
  0
LAYER
  2
CSLAYER6
 70
    64
 62
     7
  6
CONTINUOUS
  0
LAYER
  2
CSLAYER7
 70
    64
 62
     7
  6
CONTINUOUS
  0
LAYER
  2
CSLAYER8
 70
    64
 62
     7
  6
CONTINUOUS
  0
LAYER
  2
CSLAYER9
 70
    64
 62
     7
  6
CONTINUOUS
  0
LAYER
  2
CSLAYER10
 70
    64
 62
     7
  6
CONTINUOUS
  0
LAYER
  2
CSLAYER11
 70
    64
 62
     7
  6
CONTINUOUS
  0
LAYER
  2
CSLAYER12
 70
    64
 62
     7
  6
CONTINUOUS
  0
LAYER
  2
CSLAYER13
 70
    64
 62
     7
  6
CONTINUOUS
  0
LAYER
  2
CSLAYER14
 70
    64
 62
     7
  6
CONTINUOUS
  0
LAYER
  2
CSLAYER15
 70
    64
 62
     7
  6
CONTINUOUS
  0
LAYER
  2
CSLAYER16
 70
    64
 62
     7
  6
CONTINUOUS
  0
ENDTAB
  0
TABLE
  2
STYLE
 70
     1
  0
STYLE
  2
EASYDRAW_FONT
 70
     0
 40
1.0
 41
1.0
 50
0.0
 71
     0
 42
1.0
  3
monotxt
  4
bigfont
  0
ENDTAB
  0
TABLE
  2
VIEW
 70
     0
  0
ENDTAB
  0
ENDSEC
  0
SECTION
  2
BLOCKS
  0
BLOCK
  8
CSLAYER1
  2
BLKF0000
 70
   64
 10
0.0
 20
0.0
 30
0.0
  0
LINE
  8
CSLAYER1
  6
CONTINUOUS
 62
     7
 10
771.986106
 20
301.665152
 11
771.985146
 21
301.666281
  0
LINE
  8
CSLAYER1
  6
CONTINUOUS
 62
     7
 10
771.985146
 20
301.666281
 11
771.984028
 21
301.667304
  0
LINE
  8
CSLAYER1
  6
CONTINUOUS
 62
     7
 10
771.984028
 20
301.667304
 11
771.982768
 21
301.668199
  0
LINE
  8
CSLAYER1
  6
CONTINUOUS
 62
     7
 10
771.982768
 20
301.668199
 11
771.981403
 21
301.668949
  0
LINE
  8
CSLAYER1
  6
CONTINUOUS
 62
     7
 10
771.981403
 20
301.668949
 11
771.979948
 21
301.669544
  0
LINE
  8
CSLAYER1
  6
CONTINUOUS
 62
     7
 10
771.979948
 20
301.669544
 11
771.978441
 21
301.669976
  0
LINE
  8
CSLAYER1
  6
CONTINUOUS
 62
     7
 10
771.978441
 20
301.669976
 11
771.976903
 21
301.670246
  0
LINE
  8
CSLAYER1
  6
CONTINUOUS
 62
     7
 10
771.976903
 20
301.670246
 11
771.975036
 21
301.670361
  0
ENDBLK
  8
0
  0
BLOCK
  8
CSLAYER1
  2
BLKF0001
 70
   64
 10
0.0
 20
0.0
 30
0.0
  0
LINE
  8
CSLAYER1
  6
CONTINUOUS
 62
     7
 10
129.499998
 20
51.000000
 11
23.999998
 21
51.000000
  0
LINE
  8
CSLAYER1
  6
CONTINUOUS
 62
     7
 10
127.624998
 20
763.500000
 11
23.999998
 21
763.500000
  0
LINE
  8
CSLAYER1
  6
CONTINUOUS
 62
     7
 10
24.999998
 20
51.000000
 11
24.999998
 21
763.500000
  0
LINE
  8
CSLAYER1
  6
CONTINUOUS
 62
     7
 10
24.999998
 20
51.000000
 11
24.223541
 21
53.897778
  0
LINE
  8
CSLAYER1
  6
CONTINUOUS
 62
     7
 10
24.999998
 20
51.000000
 11
25.776455
 21
53.897778
  0
LINE
  8
CSLAYER1
  6
CONTINUOUS
 62
     7
 10
24.999998
 20
763.500000
 11
24.223541
 21
760.602223
  0
LINE
  8
CSLAYER1
  6
CONTINUOUS
 62
     7
 10
24.999998
 20
763.500000
 11
25.776455
 21
760.602223
  0
TEXT
  8
CSLAYER1
 62
     7
 10
24.000000
 20
402.750000
 40
4.000000
 41
0.843750
  1
950
 50
90.000000
 51
0.000000
  7
EASYDRAW_FONT
 72
     5
 11
24.000000
 21
411.750000
  0
ENDBLK
  8
0
  0
BLOCK
  8
CSLAYER1
  2
BLKF0002
 70
   64
 10
0.0
 20
0.0
 30
0.0
  0
LINE
  8
CSLAYER1
  6
CONTINUOUS
 62
     7
 10
361.874998
 20
35.000000
 11
361.874998
 21
20.000000
  0
LINE
  8
CSLAYER1
  6
CONTINUOUS
 62
     7
 10
761.999998
 20
124.750000
 11
761.999998
 21
20.000000
  0
LINE
  8
CSLAYER1
  6
CONTINUOUS
 62
     7
 10
361.874998
 20
21.000000
 11
761.999998
 21
21.000000
  0
LINE
  8
CSLAYER1
  6
CONTINUOUS
 62
     7
 10
361.874998
 20
21.000000
 11
364.772776
 21
21.776457
  0
LINE
  8
CSLAYER1
  6
CONTINUOUS
 62
     7
 10
361.874998
 20
21.000000
 11
364.772776
 21
20.223543
  0
LINE
  8
CSLAYER1
  6
CONTINUOUS
 62
     7
 10
761.999998
 20
21.000000
 11
759.102221
 21
21.776457
  0
LINE
  8
CSLAYER1
  6
CONTINUOUS
 62
     7
 10
761.999998
 20
21.000000
 11
759.102221
 21
20.223543
  0
TEXT
  8
CSLAYER1
 62
     7
 10
557.437500
 20
22.000000
 40
4.000000
 41
0.843750
  1
534
 50
0.000000
 51
0.000000
  7
EASYDRAW_FONT
 72
     5
 11
566.437500
 21
22.000000
  0
ENDBLK
  8
0
  0
BLOCK
  8
CSLAYER1
  2
BLKF0003
 70
   64
 10
0.0
 20
0.0
 30
0.0
  0
LINE
  8
CSLAYER1
  6
CONTINUOUS
 62
     7
 10
1411.492797
 20
51.000000
 11
1536.992797
 21
51.000000
  0
LINE
  8
CSLAYER1
  6
CONTINUOUS
 62
     7
 10
1245.742797
 20
297.375000
 11
1536.992797
 21
297.375000
  0
LINE
  8
CSLAYER1
  6
CONTINUOUS
 62
     7
 10
1535.992797
 20
51.000000
 11
1535.992797
 21
297.375000
  0
LINE
  8
CSLAYER1
  6
CONTINUOUS
 62
     7
 10
1535.992797
 20
51.000000
 11
1535.216340
 21
53.897778
  0
LINE
  8
CSLAYER1
  6
CONTINUOUS
 62
     7
 10
1535.992797
 20
51.000000
 11
1536.769254
 21
53.897778
  0
LINE
  8
CSLAYER1
  6
CONTINUOUS
 62
     7
 10
1535.992797
 20
297.375000
 11
1535.216340
 21
294.477223
  0
LINE
  8
CSLAYER1
  6
CONTINUOUS
 62
     7
 10
1535.992797
 20
297.375000
 11
1536.769254
 21
294.477223
  0
TEXT
  8
CSLAYER1
 62
     7
 10
1534.992798
 20
169.687500
 40
4.000000
 41
0.843750
  1
328
 50
90.000000
 51
0.000000
  7
EASYDRAW_FONT
 72
     5
 11
1534.992798
 21
178.687500
  0
ENDBLK
  8
0
  0
BLOCK
  8
CSLAYER1
  2
BLKF0004
 70
   64
 10
0.0
 20
0.0
 30
0.0
  0
LINE
  8
CSLAYER1
  6
CONTINUOUS
 62
     7
 10
1413.367797
 20
763.500000
 11
1536.992797
 21
763.500000
  0
LINE
  8
CSLAYER1
  6
CONTINUOUS
 62
     7
 10
1535.992797
 20
297.375000
 11
1535.992797
 21
763.500000
  0
LINE
  8
CSLAYER1
  6
CONTINUOUS
 62
     7
 10
1535.992797
 20
297.375000
 11
1535.216340
 21
300.272778
  0
LINE
  8
CSLAYER1
  6
CONTINUOUS
 62
     7
 10
1535.992797
 20
297.375000
 11
1536.769254
 21
300.272778
  0
LINE
  8
CSLAYER1
  6
CONTINUOUS
 62
     7
 10
1535.992797
 20
763.500000
 11
1535.216340
 21
760.602223
  0
LINE
  8
CSLAYER1
  6
CONTINUOUS
 62
     7
 10
1535.992797
 20
763.500000
 11
1536.769254
 21
760.602223
  0
TEXT
  8
CSLAYER1
 62
     7
 10
1534.992798
 20
525.937500
 40
4.000000
 41
0.843750
  1
622
 50
90.000000
 51
0.000000
  7
EASYDRAW_FONT
 72
     5
 11
1534.992798
 21
534.937500
  0
ENDBLK
  8
0
  0
ENDSEC
  0
SECTION
  2
ENTITIES
  0
TEXT
  8
CSLAYER1
 62
     7
 10
1257.675049
 20
1350.003662
 40
12.000000
 41
0.846774
  1
SMOLENSKY CHECK VALVE
 50
0.000000
 51
0.000000
  7
EASYDRAW_FONT
 72
     5
 11
1467.675049
 21
1350.003662
  0
TEXT
  8
CSLAYER1
 62
     7
 10
1257.841309
 20
1310.003662
 40
12.000000
 41
0.865385
  1
株式会社　イシザキ
 50
0.000000
 51
0.000000
  7
EASYDRAW_FONT
 72
     5
 11
1347.841309
 21
1310.003662
  0
TEXT
  8
CSLAYER1
 62
     7
 10
1257.693359
 20
1330.003662
 40
12.000000
 41
0.859375
  1
SM 10K 450A
 50
0.000000
 51
0.000000
  7
EASYDRAW_FONT
 72
     5
 11
1367.693359
 21
1330.003662
  0
TEXT
  8
CSLAYER1
 62
     7
 10
1401.880371
 20
1289.884766
 40
12.000000
 41
0.882353
  1
縮尺　３／４
 50
0.000000
 51
0.000000
  7
EASYDRAW_FONT
 72
     5
 11
1461.880371
 21
1289.884766
  0
LINE
  8
CSLAYER1
  6
CENTER
 62
     2
 10
361.874998
 20
36.000000
 11
361.874998
 21
778.500000
  0
LINE
  8
CSLAYER1
  6
CONTINUOUS
 62
     7
 10
131.624998
 20
79.500000
 11
361.874998
 21
79.500000
  0
LINE
  8
CSLAYER1
  6
CONTINUOUS
 62
     7
 10
174.562498
 20
86.625000
 11
174.562498
 21
204.750000
  0
ARC
  8
CSLAYER1
  6
CONTINUOUS
 62
     7
 10
167.062498
 20
87.000000
 40
7.500000
 50
270.000000
 51
360.000000
  0
ARC
  8
CSLAYER1
  6
CONTINUOUS
 62
     7
 10
156.562498
 20
204.750000
 40
18.000000
 50
0.000000
 51
90.000000
  0
LINE
  8
CSLAYER1
  6
CONTINUOUS
 62
     7
 10
361.874998
 20
264.750000
 11
47.249998
 21
264.750000
  0
LINE
  8
CSLAYER1
  6
CONTINUOUS
 62
     7
 10
361.874998
 20
222.750000
 11
136.124998
 21
222.750000
  0
ARC
  8
CSLAYER1
  6
CONTINUOUS
 62
     7
 10
136.124998
 20
264.750000
 40
42.000000
 50
206.572523
 51
270.000000
  0
LINE
  8
CSLAYER1
  6
CONTINUOUS
 62
     7
 10
129.374998
 20
52.125000
 11
129.374998
 21
77.250000
  0
LINE
  8
CSLAYER1
  6
CONTINUOUS
 62
     7
 10
130.499998
 20
51.000000
 11
361.874998
 21
51.000000
  0
LINE
  8
CSLAYER1
  6
CONTINUOUS
 62
     7
 10
44.999998
 20
267.000000
 11
44.999998
 21
289.875000
  0
LINE
  8
CSLAYER1
  6
CONTINUOUS
 62
     7
 10
44.999998
 20
267.000000
 11
47.249998
 21
264.750000
  0
LINE
  8
CSLAYER1
  6
CONTINUOUS
 62
     7
 10
129.374998
 20
77.250000
 11
131.624998
 21
79.500000
  0
LINE
  8
CSLAYER1
  6
CONTINUOUS
 62
     7
 10
129.374998
 20
52.125000
 11
130.499998
 21
51.000000
  0
LINE
  8
CSLAYER1
  6
CONTINUOUS
 62
     7
 10
44.999998
 20
289.875000
 11
46.124998
 21
291.000000
  0
LINE
  8
CSLAYER1
  6
CENTER
 62
     2
 10
149.999998
 20
38.250000
 11
149.999998
 21
94.500000
  0
ARC
  8
CSLAYER1
  6
CONTINUOUS
 62
     7
 10
149.249998
 20
615.750000
 40
59.250000
 50
89.737174
 51
180.000000
  0
LINE
  8
CSLAYER1
  6
CONTINUOUS
 62
     7
 10
89.999998
 20
615.750000
 11
89.999998
 21
606.000000
  0
LINE
  8
CSLAYER1
  6
CONTINUOUS
 62
     7
 10
47.249998
 20
594.750000
 11
361.874998
 21
594.750000
  0
LINE
  8
CSLAYER1
  6
CONTINUOUS
 62
     7
 10
127.499998
 20
737.250000
 11
127.499998
 21
762.375000
  0
LINE
  8
CSLAYER1
  6
CONTINUOUS
 62
     7
 10
172.124998
 20
727.500000
 11
172.124998
 21
697.499140
  0
ARC
  8
CSLAYER1
  6
CONTINUOUS
 62
     7
 10
149.624998
 20
697.499140
 40
22.500000
 50
269.737174
 51
360.000000
  0
LINE
  8
CSLAYER1
  6
CONTINUOUS
 62
     7
 10
129.749998
 20
735.000000
 11
361.874998
 21
735.000000
  0
ARC
  8
CSLAYER1
  6
CONTINUOUS
 62
     7
 10
164.624998
 20
727.500000
 40
7.500000
 50
0.000000
 51
90.000000
  0
LINE
  8
CSLAYER1
  6
CONTINUOUS
 62
     7
 10
46.124998
 20
568.500000
 11
361.874998
 21
568.500000
  0
LINE
  8
CSLAYER1
  6
CONTINUOUS
 62
     7
 10
44.999998
 20
592.500000
 11
44.999998
 21
569.625000
  0
LINE
  8
CSLAYER1
  6
CONTINUOUS
 62
     7
 10
44.999998
 20
592.500000
 11
47.249998
 21
594.750000
  0
LINE
  8
CSLAYER1
  6
CONTINUOUS
 62
     7
 10
44.999998
 20
569.625000
 11
46.124998
 21
568.500000
  0
LINE
  8
CSLAYER1
  6
CONTINUOUS
 62
     7
 10
80.624998
 20
568.500000
 11
80.624998
 21
567.000000
  0
LINE
  8
CSLAYER1
  6
CONTINUOUS
 62
     7
 10
128.624998
 20
763.500000
 11
361.874998
 21
763.500000
  0
LINE
  8
CSLAYER1
  6
CONTINUOUS
 62
     7
 10
127.499998
 20
762.375000
 11
128.624998
 21
763.500000
  0
LINE
  8
CSLAYER1
  6
CONTINUOUS
 62
     7
 10
127.499998
 20
737.250000
 11
129.749998
 21
735.000000
  0
LINE
  8
CSLAYER1
  6
CENTER
 62
     2
 10
149.999998
 20
776.250000
 11
149.999998
 21
720.000000
  0
LINE
  8
CSLAYER1
  6
CONTINUOUS
 62
     7
 10
361.874998
 20
316.500000
 11
46.499998
 21
316.500000
  0
LINE
  8
CSLAYER1
  6
CONTINUOUS
 62
     7
 10
361.874998
 20
543.375000
 11
46.499998
 21
543.375000
  0
LINE
  8
CSLAYER1
  6
CONTINUOUS
 62
     7
 10
90.749998
 20
327.750000
 11
90.749998
 21
521.250000
  0
LINE
  8
CSLAYER1
  6
CONTINUOUS
 62
     7
 10
44.999998
 20
565.875000
 11
44.999998
 21
544.875000
  0
LINE
  8
CSLAYER1
  6
CONTINUOUS
 62
     7
 10
44.999998
 20
315.000000
 11
44.999998
 21
293.625000
  0
LINE
  8
CSLAYER1
  6
CONTINUOUS
 62
     7
 10
80.624998
 20
292.500000
 11
80.624998
 21
291.000000
  0
LINE
  8
CSLAYER1
  6
CONTINUOUS
 62
     7
 10
44.999998
 20
544.875000
 11
46.499998
 21
543.375000
  0
LINE
  8
CSLAYER1
  6
CONTINUOUS
 62
     7
 10
44.999998
 20
315.000000
 11
46.499998
 21
316.500000
  0
LINE
  8
CSLAYER1
  6
CONTINUOUS
 62
     7
 10
44.999998
 20
293.625000
 11
46.124998
 21
292.500000
  0
LINE
  8
CSLAYER1
  6
CONTINUOUS
 62
     7
 10
44.999998
 20
565.875000
 11
46.124998
 21
567.000000
  0
LINE
  8
CSLAYER1
  6
CONTINUOUS
 62
     7
 10
632.999998
 20
327.750000
 11
632.999998
 21
429.750000
  0
ARC
  8
CSLAYER1
  6
CONTINUOUS
 62
     7
 10
567.187498
 20
204.750000
 40
18.000000
 50
90.000000
 51
180.000000
  0
LINE
  8
CSLAYER1
  6
CONTINUOUS
 62
     7
 10
567.187498
 20
222.750000
 11
587.624998
 21
222.750000
  0
ARC
  8
CSLAYER1
  6
CONTINUOUS
 62
     7
 10
587.624998
 20
264.750000
 40
42.000000
 50
270.000000
 51
333.427477
  0
LINE
  8
CSLAYER1
  6
CENTER
 62
     2
 10
517.687498
 20
165.000000
 11
799.499998
 21
165.000000
  0
LINE
  8
CSLAYER1
  6
CONTINUOUS
 62
     7
 10
662.062498
 20
371.625000
 11
677.999998
 21
371.625000
  0
LINE
  8
CSLAYER1
  6
CENTER
 62
     2
 10
601.499998
 20
429.750000
 11
799.499998
 21
429.750000
  0
LINE
  8
CSLAYER1
  6
CONTINUOUS
 62
     7
 10
662.062498
 20
371.625000
 11
662.062498
 21
429.750000
  0
LINE
  8
CSLAYER1
  6
CONTINUOUS
 62
     7
 10
678.749998
 20
429.750000
 11
678.749998
 21
371.625000
  0
LINE
  8
CSLAYER1
  6
CONTINUOUS
 62
     7
 10
632.999998
 20
429.750000
 11
632.999998
 21
521.250000
  0
LINE
  8
CSLAYER1
  6
CONTINUOUS
 62
     7
 10
641.249998
 20
397.500000
 11
646.500001
 21
397.500000
  0
ARC
  8
CSLAYER1
  6
CONTINUOUS
 62
     7
 10
641.249998
 20
389.250000
 40
8.250000
 50
90.000000
 51
180.000000
  0
LINE
  8
CSLAYER1
  6
CONTINUOUS
 62
     7
 10
677.999998
 20
371.625000
 11
678.749998
 21
372.375000
  0
LINE
  8
CSLAYER1
  6
CONTINUOUS
 62
     7
 10
662.062498
 20
487.875000
 11
677.999998
 21
487.875000
  0
LINE
  8
CSLAYER1
  6
CONTINUOUS
 62
     7
 10
662.062498
 20
487.875000
 11
662.062498
 21
486.750000
  0
LINE
  8
CSLAYER1
  6
CONTINUOUS
 62
     7
 10
678.749998
 20
429.750000
 11
678.749998
 21
487.875000
  0
LINE
  8
CSLAYER1
  6
CONTINUOUS
 62
     7
 10
641.249998
 20
462.000000
 11
646.500001
 21
462.000000
  0
ARC
  8
CSLAYER1
  6
CONTINUOUS
 62
     7
 10
641.249998
 20
470.250000
 40
8.250000
 50
180.000000
 51
270.000000
  0
LINE
  8
CSLAYER1
  6
CONTINUOUS
 62
     7
 10
677.999998
 20
487.875000
 11
678.749998
 21
487.125000
  0
LINE
  8
CSLAYER1
  6
CONTINUOUS
 62
     7
 10
636.749998
 20
106.875000
 11
636.749998
 21
223.125000
  0
LINE
  8
CSLAYER1
  6
CONTINUOUS
 62
     7
 10
636.749998
 20
223.125000
 11
652.499998
 21
223.125000
  0
LINE
  8
CSLAYER1
  6
CONTINUOUS
 62
     7
 10
552.937498
 20
196.875000
 11
621.000001
 21
196.875000
  0
LINE
  8
CSLAYER1
  6
CONTINUOUS
 62
     7
 10
549.187498
 20
165.000000
 11
549.187498
 21
204.750000
  0
LINE
  8
CSLAYER1
  6
CONTINUOUS
 62
     7
 10
652.499998
 20
223.125000
 11
653.249998
 21
222.375000
  0
LINE
  8
CSLAYER1
  6
CONTINUOUS
 62
     7
 10
555.562498
 20
133.125000
 11
621.000001
 21
133.125000
  0
ARC
  8
CSLAYER1
  6
CONTINUOUS
 62
     7
 10
555.562498
 20
126.750000
 40
6.375000
 50
90.000000
 51
180.000000
  0
LINE
  8
CSLAYER1
  6
CONTINUOUS
 62
     7
 10
593.624998
 20
204.375000
 11
593.624998
 21
223.180781
  0
ARC
  8
CSLAYER1
  6
CONTINUOUS
 62
     7
 10
601.124998
 20
204.375000
 40
7.500000
 50
180.000000
 51
270.000000
  0
ARC
  8
CSLAYER1
  6
CONTINUOUS
 62
     7
 10
552.937498
 20
200.625000
 40
3.750000
 50
180.000000
 51
270.000000
  0
LINE
  8
CSLAYER1
  6
CENTER
 62
     2
 10
709.499998
 20
461.569805
 11
642.750001
 21
461.569805
  0
LINE
  8
CSLAYER1
  6
CENTER
 62
     2
 10
696.374998
 20
297.375000
 11
827.624998
 21
297.375000
  0
LINE
  8
CSLAYER1
  6
CONTINUOUS
 62
     7
 10
680.249998
 20
487.875000
 11
678.749998
 21
487.875000
  0
LINE
  8
CSLAYER1
  6
CONTINUOUS
 62
     7
 10
680.249998
 20
371.625000
 11
678.749998
 21
371.625000
  0
LINE
  8
CSLAYER1
  6
CONTINUOUS
 62
     7
 10
680.249998
 20
371.625000
 11
680.249998
 21
487.875000
  0
LINE
  8
CSLAYER1
  6
CONTINUOUS
 62
     7
 10
653.249998
 20
223.125000
 11
653.249998
 21
106.875000
  0
LINE
  8
CSLAYER1
  6
CONTINUOUS
 62
     7
 10
654.749998
 20
223.125000
 11
653.249998
 21
223.125000
  0
LINE
  8
CSLAYER1
  6
CONTINUOUS
 62
     7
 10
695.249998
 20
471.957305
 11
695.249998
 21
451.069805
  0
LINE
  8
CSLAYER1
  6
CONTINUOUS
 62
     7
 10
681.749998
 20
487.500000
 11
681.749998
 21
372.000000
  0
LINE
  8
CSLAYER1
  6
CONTINUOUS
 62
     7
 10
682.124998
 20
371.625000
 11
693.749998
 21
371.625000
  0
LINE
  8
CSLAYER1
  6
CONTINUOUS
 62
     7
 10
695.249998
 20
373.125000
 11
695.249998
 21
486.375000
  0
LINE
  8
CSLAYER1
  6
CONTINUOUS
 62
     7
 10
693.749998
 20
487.875000
 11
682.124998
 21
487.875000
  0
LINE
  8
CSLAYER1
  6
CONTINUOUS
 62
     7
 10
681.749998
 20
465.750000
 11
680.249998
 21
465.750000
  0
LINE
  8
CSLAYER1
  6
CONTINUOUS
 62
     7
 10
680.249998
 20
393.750000
 11
681.749998
 21
393.750000
  0
LINE
  8
CSLAYER1
  6
CONTINUOUS
 62
     7
 10
701.999998
 20
451.270767
 11
701.999998
 21
408.229233
  0
ARC
  8
CSLAYER1
  6
CONTINUOUS
 62
     7
 10
693.749998
 20
486.375000
 40
1.500000
 50
0.000000
 51
90.000000
  0
ARC
  8
CSLAYER1
  6
CONTINUOUS
 62
     7
 10
693.749998
 20
373.125000
 40
1.500000
 50
270.000000
 51
360.000000
  0
LINE
  8
CSLAYER1
  6
CONTINUOUS
 62
     7
 10
682.124998
 20
487.875000
 11
681.749998
 21
487.500000
  0
LINE
  8
CSLAYER1
  6
CONTINUOUS
 62
     7
 10
681.749998
 20
372.000000
 11
682.124998
 21
371.625000
  0
LINE
  8
CSLAYER1
  6
CONTINUOUS
 62
     7
 10
736.124998
 20
387.000000
 11
787.874998
 21
387.000000
  0
LINE
  8
CSLAYER1
  6
CONTINUOUS
 62
     7
 10
719.249998
 20
455.625000
 11
719.249998
 21
403.875000
  0
LINE
  8
CSLAYER1
  6
CONTINUOUS
 62
     7
 10
719.249998
 20
403.875000
 11
728.624998
 21
403.875000
  0
LINE
  8
CSLAYER1
  6
CONTINUOUS
 62
     7
 10
736.124998
 20
396.375000
 11
736.124998
 21
387.000000
  0
LINE
  8
CSLAYER1
  6
CONTINUOUS
 62
     7
 10
719.249998
 20
455.625000
 11
739.124998
 21
455.625000
  0
LINE
  8
CSLAYER1
  6
CONTINUOUS
 62
     7
 10
787.874998
 20
406.875000
 11
787.874998
 21
387.000000
  0
ARC
  8
CSLAYER1
  6
CONTINUOUS
 62
     7
 10
728.624998
 20
396.375000
 40
7.500000
 50
0.000000
 51
90.000000
  0
ARC
  8
CSLAYER1
  6
CONTINUOUS
 62
     7
 10
739.124998
 20
406.875000
 40
48.750000
 50
0.000000
 51
90.000000
  0
LINE
  8
CSLAYER1
  6
CENTER
 62
     2
 10
761.999998
 20
469.000000
 11
761.999998
 21
297.375000
  0
LINE
  8
CSLAYER1
  6
CONTINUOUS
 62
     7
 10
736.124998
 20
207.750000
 11
787.874998
 21
207.750000
  0
LINE
  8
CSLAYER1
  6
CONTINUOUS
 62
     7
 10
719.249998
 20
139.125000
 11
719.249998
 21
190.875000
  0
LINE
  8
CSLAYER1
  6
CONTINUOUS
 62
     7
 10
719.249998
 20
190.875000
 11
728.624998
 21
190.875000
  0
LINE
  8
CSLAYER1
  6
CONTINUOUS
 62
     7
 10
736.124998
 20
198.375000
 11
736.124998
 21
207.750000
  0
LINE
  8
CSLAYER1
  6
CONTINUOUS
 62
     7
 10
719.249998
 20
139.125000
 11
739.124998
 21
139.125000
  0
LINE
  8
CSLAYER1
  6
CONTINUOUS
 62
     7
 10
787.874998
 20
187.875000
 11
787.874998
 21
207.750000
  0
ARC
  8
CSLAYER1
  6
CONTINUOUS
 62
     7
 10
728.624998
 20
198.375000
 40
7.500000
 50
270.000000
 51
360.000000
  0
ARC
  8
CSLAYER1
  6
CONTINUOUS
 62
     7
 10
739.124998
 20
187.875000
 40
48.750000
 50
270.000000
 51
360.000000
  0
LINE
  8
CSLAYER1
  6
CONTINUOUS
 62
     7
 10
656.249998
 20
222.750000
 11
656.249998
 21
107.250000
  0
LINE
  8
CSLAYER1
  6
CONTINUOUS
 62
     7
 10
669.749998
 20
108.375000
 11
669.749998
 21
221.625000
  0
LINE
  8
CSLAYER1
  6
CONTINUOUS
 62
     7
 10
668.249998
 20
223.125000
 11
656.624998
 21
223.125000
  0
LINE
  8
CSLAYER1
  6
CONTINUOUS
 62
     7
 10
656.249998
 20
201.000000
 11
654.749998
 21
201.000000
  0
LINE
  8
CSLAYER1
  6
CONTINUOUS
 62
     7
 10
676.499998
 20
186.508842
 11
676.499998
 21
143.479233
  0
ARC
  8
CSLAYER1
  6
CONTINUOUS
 62
     7
 10
668.249998
 20
221.625000
 40
1.500000
 50
0.000000
 51
90.000000
  0
LINE
  8
CSLAYER1
  6
CONTINUOUS
 62
     7
 10
656.624998
 20
223.125000
 11
656.249998
 21
222.750000
  0
LINE
  8
CSLAYER1
  6
CONTINUOUS
 62
     7
 10
739.644748
 20
355.410000
 11
740.736250
 21
349.875000
  0
LINE
  8
CSLAYER1
  6
CONTINUOUS
 62
     7
 10
739.644748
 20
387.000000
 11
739.644748
 21
349.875000
  0
LINE
  8
CSLAYER1
  6
CONTINUOUS
 62
     7
 10
739.644748
 20
381.465000
 11
740.736250
 21
387.000000
  0
LINE
  8
CSLAYER1
  6
CONTINUOUS
 62
     7
 10
784.355248
 20
355.410000
 11
783.263746
 21
349.875000
  0
LINE
  8
CSLAYER1
  6
CONTINUOUS
 62
     7
 10
784.355248
 20
387.000000
 11
784.355248
 21
349.875000
  0
LINE
  8
CSLAYER1
  6
CONTINUOUS
 62
     7
 10
784.355248
 20
381.465000
 11
783.263746
 21
387.000000
  0
LINE
  8
CSLAYER1
  6
CONTINUOUS
 62
     7
 10
739.644748
 20
213.285000
 11
740.736250
 21
207.750000
  0
LINE
  8
CSLAYER1
  6
CONTINUOUS
 62
     7
 10
739.644748
 20
244.875000
 11
739.644748
 21
207.750000
  0
LINE
  8
CSLAYER1
  6
CONTINUOUS
 62
     7
 10
739.644748
 20
239.340000
 11
740.736250
 21
244.875000
  0
LINE
  8
CSLAYER1
  6
CONTINUOUS
 62
     7
 10
784.355248
 20
213.285000
 11
783.263746
 21
207.750000
  0
LINE
  8
CSLAYER1
  6
CONTINUOUS
 62
     7
 10
784.355248
 20
244.875000
 11
784.355248
 21
207.750000
  0
LINE
  8
CSLAYER1
  6
CONTINUOUS
 62
     7
 10
784.355248
 20
239.340000
 11
783.263746
 21
244.875000
  0
LINE
  8
CSLAYER1
  6
CONTINUOUS
 62
     7
 10
713.714998
 20
407.394750
 11
719.249998
 21
408.486252
  0
LINE
  8
CSLAYER1
  6
CONTINUOUS
 62
     7
 10
702.481787
 20
407.394750
 11
719.249998
 21
407.394750
  0
LINE
  8
CSLAYER1
  6
CONTINUOUS
 62
     7
 10
707.534998
 20
407.394750
 11
701.999998
 21
408.486252
  0
LINE
  8
CSLAYER1
  6
CONTINUOUS
 62
     7
 10
713.714998
 20
452.105250
 11
719.249998
 21
451.013748
  0
LINE
  8
CSLAYER1
  6
CONTINUOUS
 62
     7
 10
702.481787
 20
452.105250
 11
719.249998
 21
452.105250
  0
LINE
  8
CSLAYER1
  6
CONTINUOUS
 62
     7
 10
707.534998
 20
452.105250
 11
701.999998
 21
451.013748
  0
LINE
  8
CSLAYER1
  6
CONTINUOUS
 62
     7
 10
713.714998
 20
142.644750
 11
719.249998
 21
143.736252
  0
LINE
  8
CSLAYER1
  6
CONTINUOUS
 62
     7
 10
676.981787
 20
142.644750
 11
719.249998
 21
142.644750
  0
LINE
  8
CSLAYER1
  6
CONTINUOUS
 62
     7
 10
682.034998
 20
142.644750
 11
676.499998
 21
143.736252
  0
LINE
  8
CSLAYER1
  6
CONTINUOUS
 62
     7
 10
713.714998
 20
187.355250
 11
719.249998
 21
186.263748
  0
LINE
  8
CSLAYER1
  6
CONTINUOUS
 62
     7
 10
676.981787
 20
187.355250
 11
719.249998
 21
187.355250
  0
LINE
  8
CSLAYER1
  6
CONTINUOUS
 62
     7
 10
682.034998
 20
187.355250
 11
676.499998
 21
186.263748
  0
LINE
  8
CSLAYER1
  6
CENTER
 62
     2
 10
761.999998
 20
125.750000
 11
761.999998
 21
297.375000
  0
LINE
  8
CSLAYER1
  6
CONTINUOUS
 62
     7
 10
654.749998
 20
106.875000
 11
654.749998
 21
223.125000
  0
LINE
  8
CSLAYER1
  6
CONTINUOUS
 62
     7
 10
702.749998
 20
452.569805
 11
701.948925
 21
451.182305
  0
LINE
  8
CSLAYER1
  6
CONTINUOUS
 62
     7
 10
702.749998
 20
470.569805
 11
701.948925
 21
471.957305
  0
LINE
  8
CSLAYER1
  6
CONTINUOUS
 62
     7
 10
701.948925
 20
471.957305
 11
695.249998
 21
471.957305
  0
LINE
  8
CSLAYER1
  6
CONTINUOUS
 62
     7
 10
695.249998
 20
471.957305
 11
695.249998
 21
451.069805
  0
LINE
  8
CSLAYER1
  6
CONTINUOUS
 62
     7
 10
695.249998
 20
451.182305
 11
701.948925
 21
451.182305
  0
LINE
  8
CSLAYER1
  6
CONTINUOUS
 62
     7
 10
702.749998
 20
452.569805
 11
702.749998
 21
470.569805
  0
ARC
  8
CSLAYER1
  6
CONTINUOUS
 62
     7
 10
698.140260
 20
453.779180
 40
4.609738
 50
-34.287473
 51
34.287473
  0
ARC
  8
CSLAYER1
  6
CONTINUOUS
 62
     7
 10
685.512655
 20
461.569805
 40
17.237343
 50
-17.536184
 51
17.536184
  0
ARC
  8
CSLAYER1
  6
CONTINUOUS
 62
     7
 10
698.140260
 20
469.360430
 40
4.609738
 50
-34.287473
 51
34.287473
  0
LINE
  8
CSLAYER1
  6
CONTINUOUS
 62
     7
 10
701.948925
 20
456.376055
 11
695.249998
 21
456.376055
  0
LINE
  8
CSLAYER1
  6
CONTINUOUS
 62
     7
 10
701.948925
 20
466.763555
 11
695.249998
 21
466.763555
  0
LINE
  8
CSLAYER1
  6
CONTINUOUS
 62
     7
 10
647.400001
 20
467.569805
 11
652.312501
 21
467.569805
  0
LINE
  8
CSLAYER1
  6
CONTINUOUS
 62
     7
 10
646.500001
 20
456.469805
 11
646.500001
 21
466.669805
  0
LINE
  8
CSLAYER1
  6
CONTINUOUS
 62
     7
 10
647.400001
 20
467.569805
 11
646.500001
 21
466.669805
  0
LINE
  8
CSLAYER1
  6
CONTINUOUS
 62
     7
 10
647.400001
 20
455.569805
 11
646.500001
 21
456.469805
  0
LINE
  8
CSLAYER1
  6
CONTINUOUS
 62
     7
 10
647.400001
 20
467.569805
 11
647.400001
 21
455.569805
  0
LINE
  8
CSLAYER1
  6
CONTINUOUS
 62
     7
 10
662.062501
 20
451.177496
 11
662.062495
 21
471.957307
  0
LINE
  8
CSLAYER1
  6
CONTINUOUS
 62
     7
 10
662.062501
 20
451.177496
 11
653.116352
 21
451.177496
  0
LINE
  8
CSLAYER1
  6
CONTINUOUS
 62
     7
 10
652.312501
 20
452.569807
 11
652.312501
 21
470.569807
  0
LINE
  8
CSLAYER1
  6
CONTINUOUS
 62
     7
 10
662.062495
 20
471.957307
 11
653.113575
 21
471.957307
  0
LINE
  8
CSLAYER1
  6
CONTINUOUS
 62
     7
 10
652.312501
 20
470.569807
 11
653.113575
 21
471.957307
  0
LINE
  8
CSLAYER1
  6
CONTINUOUS
 62
     7
 10
652.312501
 20
452.569807
 11
653.113575
 21
451.182307
  0
ARC
  8
CSLAYER1
  6
CONTINUOUS
 62
     7
 10
655.716844
 20
469.763557
 40
3.404343
 50
139.879485
 51
220.120515
  0
ARC
  8
CSLAYER1
  6
CONTINUOUS
 62
     7
 10
675.182886
 20
461.569807
 40
22.870385
 50
164.790570
 51
195.209430
  0
ARC
  8
CSLAYER1
  6
CONTINUOUS
 62
     7
 10
655.716844
 20
453.376057
 40
3.404343
 50
139.879485
 51
220.120515
  0
LINE
  8
CSLAYER1
  6
CONTINUOUS
 62
     7
 10
653.113575
 20
467.569807
 11
662.062497
 21
467.569807
  0
LINE
  8
CSLAYER1
  6
CONTINUOUS
 62
     7
 10
653.113575
 20
455.569807
 11
662.062500
 21
455.569807
  0
LINE
  8
CSLAYER1
  6
CONTINUOUS
 62
     7
 10
652.312501
 20
466.756055
 11
646.586251
 21
466.756055
  0
LINE
  8
CSLAYER1
  6
CONTINUOUS
 62
     7
 10
652.312501
 20
456.383555
 11
646.586251
 21
456.383555
  0
LINE
  8
CSLAYER1
  6
CONTINUOUS
 62
     7
 10
652.312501
 20
455.569805
 11
647.400001
 21
455.569805
  0
LINE
  8
CSLAYER1
  6
CONTINUOUS
 62
     7
 10
662.062498
 20
486.750000
 11
662.062498
 21
429.750000
  0
LINE
  8
CSLAYER1
  6
CONTINUOUS
 62
     7
 10
361.874998
 20
292.500000
 11
46.124998
 21
292.500000
  0
LINE
  8
CSLAYER1
  6
CONTINUOUS
 62
     7
 10
361.874998
 20
291.000000
 11
46.124998
 21
291.000000
  0
LINE
  8
CSLAYER1
  6
CONTINUOUS
 62
     7
 10
53.624998
 20
606.000000
 11
51.524998
 21
604.787565
  0
LINE
  8
CSLAYER1
  6
CONTINUOUS
 62
     7
 10
51.524998
 20
604.787565
 11
51.524998
 21
594.750000
  0
LINE
  8
CSLAYER1
  6
CONTINUOUS
 62
     7
 10
53.624998
 20
606.000000
 11
80.624998
 21
606.000000
  0
LINE
  8
CSLAYER1
  6
CONTINUOUS
 62
     7
 10
51.524998
 20
594.750000
 11
82.724998
 21
594.750000
  0
ARC
  8
CSLAYER1
  6
CONTINUOUS
 62
     7
 10
54.824998
 20
600.902822
 40
5.097178
 50
49.652860
 51
130.347140
  0
ARC
  8
CSLAYER1
  6
CONTINUOUS
 62
     7
 10
67.124998
 20
571.989946
 40
34.010055
 50
77.277230
 51
105.344827
  0
LINE
  8
CSLAYER1
  6
CONTINUOUS
 62
     7
 10
58.124998
 20
604.787565
 11
58.124998
 21
594.750000
  0
LINE
  8
CSLAYER1
  6
CONTINUOUS
 62
     7
 10
53.624998
 20
529.125000
 11
80.624998
 21
529.125000
  0
ARC
  8
CSLAYER1
  6
CONTINUOUS
 62
     7
 10
54.824998
 20
534.222178
 40
5.097178
 50
229.652860
 51
310.347140
  0
ARC
  8
CSLAYER1
  6
CONTINUOUS
 62
     7
 10
67.124998
 20
563.135055
 40
34.010055
 50
254.655173
 51
282.722770
  0
LINE
  8
CSLAYER1
  6
CONTINUOUS
 62
     7
 10
58.124998
 20
543.375000
 11
58.124998
 21
530.337436
  0
LINE
  8
CSLAYER1
  6
CONTINUOUS
 62
     7
 10
51.524998
 20
543.375000
 11
51.524998
 21
530.337436
  0
LINE
  8
CSLAYER1
  6
CONTINUOUS
 62
     7
 10
53.624998
 20
529.125000
 11
51.524998
 21
530.337436
  0
LINE
  8
CSLAYER1
  6
CONTINUOUS
 62
     7
 10
58.124998
 20
529.125000
 11
58.124998
 21
522.750000
  0
LINE
  8
CSLAYER1
  6
CONTINUOUS
 62
     7
 10
58.124998
 20
522.750000
 11
59.624998
 21
521.250000
  0
LINE
  8
CSLAYER1
  6
CONTINUOUS
 62
     7
 10
59.249998
 20
529.125000
 11
59.249998
 21
521.625000
  0
LINE
  8
CSLAYER1
  6
CONTINUOUS
 62
     7
 10
58.124998
 20
522.750000
 11
76.124998
 21
522.750000
  0
LINE
  8
CSLAYER1
  6
CONTINUOUS
 62
     7
 10
59.624998
 20
521.250000
 11
74.624998
 21
521.250000
  0
LINE
  8
CSLAYER1
  6
CONTINUOUS
 62
     7
 10
74.624998
 20
521.250000
 11
76.124998
 21
522.750000
  0
LINE
  8
CSLAYER1
  6
CONTINUOUS
 62
     7
 10
76.124998
 20
522.750000
 11
76.124998
 21
529.125000
  0
LINE
  8
CSLAYER1
  6
CONTINUOUS
 62
     7
 10
74.999998
 20
521.625000
 11
74.999998
 21
529.125000
  0
LINE
  8
CSLAYER1
  6
CENTER
 62
     2
 10
67.124998
 20
508.500000
 11
67.124998
 21
613.500000
  0
LINE
  8
CSLAYER1
  6
CONTINUOUS
 62
     7
 10
361.874998
 20
567.000000
 11
46.124998
 21
567.000000
  0
LINE
  8
CSLAYER1
  6
CONTINUOUS
 62
     7
 10
149.521787
 20
674.999377
 11
361.874998
 21
674.999377
  0
ARC
  8
CSLAYER1
  6
CONTINUOUS
 62
     7
 10
574.499998
 20
615.750000
 40
59.250000
 50
0.000000
 51
90.262826
  0
LINE
  8
CSLAYER1
  6
CONTINUOUS
 62
     7
 10
633.749998
 20
615.750000
 11
633.749998
 21
606.000000
  0
LINE
  8
CSLAYER1
  6
CONTINUOUS
 62
     7
 10
676.499998
 20
594.750000
 11
361.874998
 21
594.750000
  0
LINE
  8
CSLAYER1
  6
CONTINUOUS
 62
     7
 10
596.249998
 20
737.250000
 11
596.249998
 21
762.375000
  0
LINE
  8
CSLAYER1
  6
CONTINUOUS
 62
     7
 10
551.624998
 20
727.500000
 11
551.624998
 21
697.499140
  0
ARC
  8
CSLAYER1
  6
CONTINUOUS
 62
     7
 10
574.124998
 20
697.499140
 40
22.500000
 50
180.000000
 51
270.262826
  0
LINE
  8
CSLAYER1
  6
CONTINUOUS
 62
     7
 10
593.999998
 20
735.000000
 11
361.874998
 21
735.000000
  0
ARC
  8
CSLAYER1
  6
CONTINUOUS
 62
     7
 10
559.124998
 20
727.500000
 40
7.500000
 50
90.000000
 51
180.000000
  0
LINE
  8
CSLAYER1
  6
CONTINUOUS
 62
     7
 10
677.624998
 20
568.500000
 11
361.874998
 21
568.500000
  0
LINE
  8
CSLAYER1
  6
CONTINUOUS
 62
     7
 10
678.749998
 20
592.500000
 11
678.749998
 21
569.625000
  0
LINE
  8
CSLAYER1
  6
CONTINUOUS
 62
     7
 10
678.749998
 20
592.500000
 11
676.499998
 21
594.750000
  0
LINE
  8
CSLAYER1
  6
CONTINUOUS
 62
     7
 10
678.749998
 20
569.625000
 11
677.624998
 21
568.500000
  0
LINE
  8
CSLAYER1
  6
CONTINUOUS
 62
     7
 10
643.124998
 20
568.500000
 11
643.124998
 21
567.000000
  0
LINE
  8
CSLAYER1
  6
CONTINUOUS
 62
     7
 10
595.124998
 20
763.500000
 11
361.874998
 21
763.500000
  0
LINE
  8
CSLAYER1
  6
CONTINUOUS
 62
     7
 10
596.249998
 20
762.375000
 11
595.124998
 21
763.500000
  0
LINE
  8
CSLAYER1
  6
CONTINUOUS
 62
     7
 10
596.249998
 20
737.250000
 11
593.999998
 21
735.000000
  0
LINE
  8
CSLAYER1
  6
CENTER
 62
     2
 10
573.749998
 20
776.250000
 11
573.749998
 21
720.000000
  0
LINE
  8
CSLAYER1
  6
CONTINUOUS
 62
     7
 10
361.874998
 20
543.375000
 11
677.249998
 21
543.375000
  0
LINE
  8
CSLAYER1
  6
CONTINUOUS
 62
     7
 10
678.749998
 20
565.875000
 11
678.749998
 21
544.875000
  0
LINE
  8
CSLAYER1
  6
CONTINUOUS
 62
     7
 10
678.749998
 20
544.875000
 11
677.249998
 21
543.375000
  0
LINE
  8
CSLAYER1
  6
CONTINUOUS
 62
     7
 10
678.749998
 20
565.875000
 11
677.624998
 21
567.000000
  0
LINE
  8
CSLAYER1
  6
CONTINUOUS
 62
     7
 10
670.124998
 20
606.000000
 11
672.224998
 21
604.787565
  0
LINE
  8
CSLAYER1
  6
CONTINUOUS
 62
     7
 10
672.224998
 20
604.787565
 11
672.224998
 21
594.750000
  0
LINE
  8
CSLAYER1
  6
CONTINUOUS
 62
     7
 10
670.124998
 20
606.000000
 11
643.124998
 21
606.000000
  0
LINE
  8
CSLAYER1
  6
CONTINUOUS
 62
     7
 10
672.224998
 20
594.750000
 11
641.024998
 21
594.750000
  0
ARC
  8
CSLAYER1
  6
CONTINUOUS
 62
     7
 10
668.924998
 20
600.902822
 40
5.097178
 50
49.652860
 51
130.347140
  0
ARC
  8
CSLAYER1
  6
CONTINUOUS
 62
     7
 10
656.624998
 20
571.989946
 40
34.010055
 50
74.655173
 51
102.722770
  0
LINE
  8
CSLAYER1
  6
CONTINUOUS
 62
     7
 10
665.624998
 20
604.787565
 11
665.624998
 21
594.750000
  0
LINE
  8
CSLAYER1
  6
CONTINUOUS
 62
     7
 10
670.124998
 20
529.125000
 11
643.124998
 21
529.125000
  0
ARC
  8
CSLAYER1
  6
CONTINUOUS
 62
     7
 10
668.924998
 20
534.222178
 40
5.097178
 50
229.652860
 51
310.347140
  0
ARC
  8
CSLAYER1
  6
CONTINUOUS
 62
     7
 10
656.624998
 20
563.135055
 40
34.010055
 50
257.277230
 51
285.344827
  0
LINE
  8
CSLAYER1
  6
CONTINUOUS
 62
     7
 10
665.624998
 20
543.375000
 11
665.624998
 21
530.337436
  0
LINE
  8
CSLAYER1
  6
CONTINUOUS
 62
     7
 10
672.224998
 20
543.375000
 11
672.224998
 21
530.337436
  0
LINE
  8
CSLAYER1
  6
CONTINUOUS
 62
     7
 10
670.124998
 20
529.125000
 11
672.224998
 21
530.337436
  0
LINE
  8
CSLAYER1
  6
CONTINUOUS
 62
     7
 10
665.624998
 20
529.125000
 11
665.624998
 21
522.750000
  0
LINE
  8
CSLAYER1
  6
CONTINUOUS
 62
     7
 10
665.624998
 20
522.750000
 11
664.124998
 21
521.250000
  0
LINE
  8
CSLAYER1
  6
CONTINUOUS
 62
     7
 10
664.499998
 20
529.125000
 11
664.499998
 21
521.625000
  0
LINE
  8
CSLAYER1
  6
CONTINUOUS
 62
     7
 10
665.624998
 20
522.750000
 11
647.624998
 21
522.750000
  0
LINE
  8
CSLAYER1
  6
CONTINUOUS
 62
     7
 10
664.124998
 20
521.250000
 11
649.124998
 21
521.250000
  0
LINE
  8
CSLAYER1
  6
CONTINUOUS
 62
     7
 10
649.124998
 20
521.250000
 11
647.624998
 21
522.750000
  0
LINE
  8
CSLAYER1
  6
CONTINUOUS
 62
     7
 10
647.624998
 20
522.750000
 11
647.624998
 21
529.125000
  0
LINE
  8
CSLAYER1
  6
CONTINUOUS
 62
     7
 10
648.749998
 20
521.625000
 11
648.749998
 21
529.125000
  0
LINE
  8
CSLAYER1
  6
CENTER
 62
     2
 10
656.624998
 20
508.500000
 11
656.624998
 21
613.500000
  0
LINE
  8
CSLAYER1
  6
CONTINUOUS
 62
     7
 10
361.874998
 20
567.000000
 11
677.624998
 21
567.000000
  0
LINE
  8
CSLAYER1
  6
CONTINUOUS
 62
     7
 10
574.228209
 20
674.999377
 11
361.874998
 21
674.999377
  0
LINE
  8
CSLAYER1
  6
CONTINUOUS
 62
     7
 10
592.124998
 20
79.500000
 11
361.874998
 21
79.500000
  0
ARC
  8
CSLAYER1
  6
CONTINUOUS
 62
     7
 10
556.687498
 20
87.000000
 40
7.500000
 50
180.000000
 51
270.000000
  0
LINE
  8
CSLAYER1
  6
CONTINUOUS
 62
     7
 10
594.374998
 20
52.125000
 11
594.374998
 21
77.250000
  0
LINE
  8
CSLAYER1
  6
CONTINUOUS
 62
     7
 10
593.249998
 20
51.000000
 11
361.874998
 21
51.000000
  0
LINE
  8
CSLAYER1
  6
CONTINUOUS
 62
     7
 10
594.374998
 20
77.250000
 11
592.124998
 21
79.500000
  0
LINE
  8
CSLAYER1
  6
CONTINUOUS
 62
     7
 10
594.374998
 20
52.125000
 11
593.249998
 21
51.000000
  0
LINE
  8
CSLAYER1
  6
CENTER
 62
     2
 10
573.749998
 20
38.250000
 11
573.749998
 21
94.500000
  0
LINE
  8
CSLAYER1
  6
CONTINUOUS
 62
     7
 10
549.187498
 20
165.000000
 11
549.187498
 21
87.000000
  0
LINE
  8
CSLAYER1
  6
CONTINUOUS
 62
     7
 10
361.874998
 20
264.750000
 11
676.499998
 21
264.750000
  0
LINE
  8
CSLAYER1
  6
CONTINUOUS
 62
     7
 10
678.749998
 20
267.000000
 11
678.749998
 21
289.875000
  0
LINE
  8
CSLAYER1
  6
CONTINUOUS
 62
     7
 10
678.749998
 20
267.000000
 11
676.499998
 21
264.750000
  0
LINE
  8
CSLAYER1
  6
CONTINUOUS
 62
     7
 10
678.749998
 20
289.875000
 11
677.624998
 21
291.000000
  0
LINE
  8
CSLAYER1
  6
CONTINUOUS
 62
     7
 10
361.874998
 20
316.500000
 11
677.249998
 21
316.500000
  0
LINE
  8
CSLAYER1
  6
CONTINUOUS
 62
     7
 10
678.749998
 20
315.000000
 11
678.749998
 21
293.625000
  0
LINE
  8
CSLAYER1
  6
CONTINUOUS
 62
     7
 10
643.124998
 20
292.500000
 11
643.124998
 21
291.000000
  0
LINE
  8
CSLAYER1
  6
CONTINUOUS
 62
     7
 10
678.749998
 20
315.000000
 11
677.249998
 21
316.500000
  0
LINE
  8
CSLAYER1
  6
CONTINUOUS
 62
     7
 10
678.749998
 20
293.625000
 11
677.624998
 21
292.500000
  0
LINE
  8
CSLAYER1
  6
CONTINUOUS
 62
     7
 10
361.874998
 20
292.500000
 11
677.624998
 21
292.500000
  0
LINE
  8
CSLAYER1
  6
CONTINUOUS
 62
     7
 10
361.874998
 20
291.000000
 11
677.624998
 21
291.000000
  0
LINE
  8
CSLAYER1
  6
CONTINUOUS
 62
     7
 10
361.874998
 20
222.750000
 11
587.624998
 21
222.750000
  0
LINE
  8
CSLAYER1
  6
CONTINUOUS
 62
     7
 10
636.749998
 20
106.875000
 11
652.499998
 21
106.875000
  0
LINE
  8
CSLAYER1
  6
CONTINUOUS
 62
     7
 10
652.499998
 20
106.875000
 11
653.249998
 21
107.625000
  0
LINE
  8
CSLAYER1
  6
CONTINUOUS
 62
     7
 10
654.749998
 20
106.875000
 11
653.249998
 21
106.875000
  0
LINE
  8
CSLAYER1
  6
CONTINUOUS
 62
     7
 10
668.249998
 20
106.875000
 11
656.624998
 21
106.875000
  0
LINE
  8
CSLAYER1
  6
CONTINUOUS
 62
     7
 10
656.249998
 20
129.000000
 11
654.749998
 21
129.000000
  0
ARC
  8
CSLAYER1
  6
CONTINUOUS
 62
     7
 10
668.249998
 20
108.375000
 40
1.500000
 50
270.000000
 51
360.000000
  0
LINE
  8
CSLAYER1
  6
CONTINUOUS
 62
     7
 10
656.624998
 20
106.875000
 11
656.249998
 21
107.250000
  0
LINE
  8
CSLAYER1
  6
CONTINUOUS
 62
     7
 10
768.374998
 20
257.724472
 11
768.374998
 21
255.178860
  0
LINE
  8
CSLAYER1
  6
CONTINUOUS
 62
     7
 10
780.148333
 20
261.549852
 11
781.644628
 21
259.490388
  0
LINE
  8
CSLAYER1
  6
CONTINUOUS
 62
     7
 10
790.463353
 20
269.044104
 11
791.959618
 21
266.984662
  0
LINE
  8
CSLAYER1
  6
CONTINUOUS
 62
     7
 10
797.739441
 20
279.059338
 11
800.160388
 21
278.272725
  0
LINE
  8
CSLAYER1
  6
CONTINUOUS
 62
     7
 10
801.679476
 20
291.185471
 11
804.100408
 21
290.398859
  0
LINE
  8
CSLAYER1
  6
CONTINUOUS
 62
     7
 10
801.679476
 20
303.564519
 11
804.100408
 21
304.351131
  0
LINE
  8
CSLAYER1
  6
CONTINUOUS
 62
     7
 10
797.739463
 20
315.690653
 11
800.160388
 21
316.477266
  0
LINE
  8
CSLAYER1
  6
CONTINUOUS
 62
     7
 10
790.463353
 20
325.705885
 11
791.959573
 21
327.765267
  0
LINE
  8
CSLAYER1
  6
CONTINUOUS
 62
     7
 10
780.148356
 20
333.200163
 11
781.644583
 21
335.259542
  0
LINE
  8
CSLAYER1
  6
CONTINUOUS
 62
     7
 10
768.374998
 20
337.025508
 11
768.374998
 21
339.571041
  0
LINE
  8
CSLAYER1
  6
CONTINUOUS
 62
     7
 10
755.624998
 20
337.025508
 11
755.624998
 21
339.571041
  0
LINE
  8
CSLAYER1
  6
CONTINUOUS
 62
     7
 10
743.851386
 20
333.199989
 11
742.355136
 21
335.259367
  0
LINE
  8
CSLAYER1
  6
CONTINUOUS
 62
     7
 10
733.536448
 20
325.705754
 11
732.040213
 21
327.765132
  0
LINE
  8
CSLAYER1
  6
CONTINUOUS
 62
     7
 10
726.260061
 20
315.690721
 11
723.839113
 21
316.477334
  0
LINE
  8
CSLAYER1
  6
CONTINUOUS
 62
     7
 10
722.320071
 20
303.564664
 11
719.899116
 21
304.351276
  0
LINE
  8
CSLAYER1
  6
CONTINUOUS
 62
     7
 10
722.320048
 20
291.185402
 11
719.899108
 21
290.398789
  0
LINE
  8
CSLAYER1
  6
CONTINUOUS
 62
     7
 10
726.260038
 20
279.059345
 11
723.839098
 21
278.272731
  0
LINE
  8
CSLAYER1
  6
CONTINUOUS
 62
     7
 10
733.536388
 20
269.044287
 11
732.040168
 21
266.984908
  0
LINE
  8
CSLAYER1
  6
CONTINUOUS
 62
     7
 10
743.851386
 20
261.550012
 11
742.355136
 21
259.490634
  0
LINE
  8
CSLAYER1
  6
CONTINUOUS
 62
     7
 10
755.624998
 20
257.724486
 11
755.624998
 21
255.178954
  0
LINE
  8
CSLAYER1
  6
CONTINUOUS
 62
     7
 10
768.456178
 20
285.947620
 11
767.121231
 21
264.566967
  0
LINE
  8
CSLAYER1
  6
CONTINUOUS
 62
     7
 10
755.543976
 20
285.947664
 11
756.878923
 21
264.566921
  0
LINE
  8
CSLAYER1
  6
CONTINUOUS
 62
     7
 10
773.427493
 20
303.831037
 11
794.807916
 21
302.496097
  0
LINE
  8
CSLAYER1
  6
CONTINUOUS
 62
     7
 10
773.427516
 20
290.918895
 11
794.807916
 21
292.253835
  0
LINE
  8
CSLAYER1
  6
CONTINUOUS
 62
     7
 10
755.543976
 20
308.802360
 11
756.878923
 21
330.183080
  0
LINE
  8
CSLAYER1
  6
CONTINUOUS
 62
     7
 10
768.456178
 20
308.802404
 11
767.121231
 21
330.183034
  0
LINE
  8
CSLAYER1
  6
CONTINUOUS
 62
     7
 10
750.572638
 20
290.918850
 11
729.191788
 21
292.253816
  0
LINE
  8
CSLAYER1
  6
CONTINUOUS
 62
     7
 10
750.572661
 20
303.831081
 11
729.191803
 21
302.496114
  0
LINE
  8
CSLAYER1
  6
CONTINUOUS
 62
     7
 10
755.999998
 20
300.839102
 11
755.999998
 21
293.910899
  0
LINE
  8
CSLAYER1
  6
CONTINUOUS
 62
     7
 10
767.999998
 20
300.839102
 11
767.999998
 21
293.910899
  0
LINE
  8
CSLAYER1
  6
CONTINUOUS
 62
     7
 10
756.000223
 20
293.910726
 11
762.000246
 21
290.446611
  0
LINE
  8
CSLAYER1
  6
CONTINUOUS
 62
     7
 10
762.000223
 20
304.303030
 11
768.000246
 21
300.838916
  0
LINE
  8
CSLAYER1
  6
CONTINUOUS
 62
     7
 10
762.000223
 20
290.446970
 11
768.000246
 21
293.911085
  0
LINE
  8
CSLAYER1
  6
CONTINUOUS
 62
     7
 10
756.000223
 20
300.839275
 11
762.000246
 21
304.303390
  0
LINE
  8
CSLAYER1
  6
CONTINUOUS
 62
     7
 10
776.249998
 20
291.095113
 11
776.249998
 21
289.147759
  0
LINE
  8
CSLAYER1
  6
CONTINUOUS
 62
     7
 10
776.250246
 20
289.147907
 11
768.371953
 21
284.599367
  0
LINE
  8
CSLAYER1
  6
CONTINUOUS
 62
     7
 10
747.749998
 20
291.095113
 11
747.749998
 21
289.147759
  0
LINE
  8
CSLAYER1
  6
CONTINUOUS
 62
     7
 10
747.750043
 20
289.147734
 11
755.628403
 21
284.599158
  0
LINE
  8
CSLAYER1
  6
CONTINUOUS
 62
     7
 10
776.249998
 20
303.654888
 11
776.249998
 21
305.602242
  0
LINE
  8
CSLAYER1
  6
CONTINUOUS
 62
     7
 10
776.250246
 20
305.602094
 11
768.371953
 21
310.150634
  0
LINE
  8
CSLAYER1
  6
CONTINUOUS
 62
     7
 10
747.749998
 20
303.654888
 11
747.749998
 21
305.602242
  0
LINE
  8
CSLAYER1
  6
CONTINUOUS
 62
     7
 10
747.750043
 20
305.602267
 11
755.628403
 21
310.150842
  0
LINE
  8
CSLAYER1
  6
CONTINUOUS
 62
     7
 10
789.749998
 20
244.875000
 11
734.249998
 21
244.875000
  0
LINE
  8
CSLAYER1
  6
CONTINUOUS
 62
     7
 10
734.249998
 20
255.379303
 11
734.249998
 21
244.875000
  0
LINE
  8
CSLAYER1
  6
CONTINUOUS
 62
     7
 10
734.249998
 20
339.370698
 11
734.249998
 21
349.875000
  0
LINE
  8
CSLAYER1
  6
CONTINUOUS
 62
     7
 10
789.749998
 20
255.379303
 11
789.749998
 21
244.875000
  0
LINE
  8
CSLAYER1
  6
CONTINUOUS
 62
     7
 10
789.749998
 20
339.370698
 11
789.749998
 21
349.875000
  0
LINE
  8
CSLAYER1
  6
CONTINUOUS
 62
     7
 10
744.749998
 20
291.282402
 11
744.749998
 21
287.415708
  0
LINE
  8
CSLAYER1
  6
CONTINUOUS
 62
     7
 10
744.749931
 20
287.415746
 11
755.852436
 21
281.005704
  0
LINE
  8
CSLAYER1
  6
CONTINUOUS
 62
     7
 10
744.749998
 20
303.467599
 11
744.749998
 21
307.334293
  0
LINE
  8
CSLAYER1
  6
CONTINUOUS
 62
     7
 10
744.749931
 20
307.334255
 11
755.852436
 21
313.744297
  0
LINE
  8
CSLAYER1
  6
CONTINUOUS
 62
     7
 10
779.249998
 20
291.282402
 11
779.249998
 21
287.415708
  0
LINE
  8
CSLAYER1
  6
CONTINUOUS
 62
     7
 10
779.250201
 20
287.415828
 11
768.147741
 21
281.005821
  0
LINE
  8
CSLAYER1
  6
CONTINUOUS
 62
     7
 10
779.249998
 20
303.467599
 11
779.249998
 21
307.334293
  0
LINE
  8
CSLAYER1
  6
CONTINUOUS
 62
     7
 10
779.250201
 20
307.334172
 11
768.147741
 21
313.744180
  0
LINE
  8
CSLAYER1
  6
CONTINUOUS
 62
     7
 10
789.749998
 20
349.875000
 11
734.249998
 21
349.875000
  0
LINE
  8
CSLAYER1
  6
CONTINUOUS
 62
     7
 10
761.999998
 20
349.875000
 11
761.999998
 21
348.000024
  0
LINE
  8
CSLAYER1
  6
CONTINUOUS
 62
     7
 10
761.999998
 20
246.750000
 11
761.999998
 21
244.875000
  0
LINE
  8
CSLAYER1
  6
CONTINUOUS
 62
     7
 10
755.589838
 20
258.046406
 11
745.434448
 21
258.046406
  0
LINE
  8
CSLAYER1
  6
CONTINUOUS
 62
     7
 10
768.410151
 20
258.046406
 11
778.565548
 21
258.046406
  0
LINE
  8
CSLAYER1
  6
CONTINUOUS
 62
     7
 10
755.589838
 20
336.703595
 11
745.434448
 21
336.703595
  0
LINE
  8
CSLAYER1
  6
CONTINUOUS
 62
     7
 10
768.410151
 20
336.703595
 11
778.565548
 21
336.703595
  0
LINE
  8
CSLAYER1
  6
CONTINUOUS
 62
     7
 10
772.978453
 20
302.296875
 11
770.971431
 21
302.296875
  0
LINE
  8
CSLAYER1
  6
CONTINUOUS
 62
     7
 10
772.978453
 20
301.678876
 11
770.971431
 21
301.678876
  0
LINE
  8
CSLAYER1
  6
CONTINUOUS
 62
     7
 10
771.964206
 20
301.665550
 11
770.761933
 21
300.186377
  0
LINE
  8
CSLAYER1
  6
CONTINUOUS
 62
     7
 10
771.985723
 20
301.665558
 11
773.223171
 21
300.143082
  0
LINE
  8
CSLAYER1
  6
CONTINUOUS
 62
     7
 10
772.194786
 20
300.867323
 11
771.291501
 21
299.755969
  0
LINE
  8
CSLAYER1
  6
CONTINUOUS
 62
     7
 10
772.194808
 20
300.867294
 11
772.712076
 21
300.230879
  0
LINE
  8
CSLAYER1
  6
CONTINUOUS
 62
     7
 10
773.287536
 20
294.686554
 11
773.287536
 21
292.825690
  0
LINE
  8
CSLAYER1
  6
CONTINUOUS
 62
     7
 10
772.969821
 20
293.215579
 11
771.307431
 21
295.029480
  0
LINE
  8
CSLAYER1
  6
CONTINUOUS
 62
     7
 10
772.640256
 20
292.573958
 11
771.407158
 21
293.919427
  0
LINE
  8
CSLAYER1
  6
CONTINUOUS
 62
     7
 10
771.384336
 20
292.814054
 11
771.384336
 21
293.910567
  0
LINE
  8
CSLAYER1
  6
CONTINUOUS
 62
     7
 10
770.662536
 20
294.775114
 11
770.662536
 21
292.814054
  0
LINE
  8
CSLAYER1
  6
CONTINUOUS
 62
     7
 10
772.992553
 20
294.418552
 11
772.992553
 21
293.224436
  0
LINE
  8
CSLAYER1
  6
CONTINUOUS
 62
     7
 10
773.287348
 20
297.807625
 11
773.287348
 21
295.835463
  0
LINE
  8
CSLAYER1
  6
CONTINUOUS
 62
     7
 10
772.992553
 20
297.074536
 11
770.971431
 21
297.074536
  0
LINE
  8
CSLAYER1
  6
CONTINUOUS
 62
     7
 10
772.565548
 20
296.456498
 11
770.971431
 21
296.456498
  0
LINE
  8
CSLAYER1
  6
CONTINUOUS
 62
     7
 10
772.565548
 20
296.456498
 11
772.565548
 21
295.835463
  0
LINE
  8
CSLAYER1
  6
CONTINUOUS
 62
     7
 10
772.992553
 20
297.539624
 11
772.992553
 21
297.074536
  0
LINE
  8
CSLAYER1
  6
CONTINUOUS
 62
     7
 10
750.133986
 20
300.418142
 11
750.769656
 21
300.255116
  0
LINE
  8
CSLAYER1
  6
CONTINUOUS
 62
     7
 10
751.692966
 20
301.644310
 11
750.134008
 21
300.418157
  0
LINE
  8
CSLAYER1
  6
CONTINUOUS
 62
     7
 10
752.252923
 20
299.874726
 11
751.692943
 21
301.644301
  0
LINE
  8
CSLAYER1
  6
CONTINUOUS
 62
     7
 10
751.617298
 20
300.037732
 11
752.252976
 21
299.874706
  0
LINE
  8
CSLAYER1
  6
CONTINUOUS
 62
     7
 10
750.133986
 20
294.331837
 11
750.769656
 21
294.494863
  0
LINE
  8
CSLAYER1
  6
CONTINUOUS
 62
     7
 10
751.692966
 20
293.105691
 11
750.134008
 21
294.331844
  0
LINE
  8
CSLAYER1
  6
CONTINUOUS
 62
     7
 10
752.252923
 20
294.875264
 11
751.692943
 21
293.105689
  0
LINE
  8
CSLAYER1
  6
CONTINUOUS
 62
     7
 10
751.617298
 20
294.712246
 11
752.252976
 21
294.875272
  0
LINE
  8
CSLAYER1
  6
CONTINUOUS
 62
     7
 10
757.793128
 20
307.470519
 11
756.507268
 21
307.110896
  0
LINE
  8
CSLAYER1
  6
CONTINUOUS
 62
     7
 10
757.722448
 20
307.723302
 11
756.436566
 21
307.363677
  0
LINE
  8
CSLAYER1
  6
CONTINUOUS
 62
     7
 10
755.445688
 20
307.580235
 11
756.617706
 21
306.045930
  0
LINE
  8
CSLAYER1
  6
CONTINUOUS
 62
     7
 10
753.878098
 20
306.382805
 11
755.050093
 21
304.848500
  0
LINE
  8
CSLAYER1
  6
CONTINUOUS
 62
     7
 10
755.882668
 20
306.575703
 11
754.732311
 21
305.696982
  0
LINE
  8
CSLAYER1
  6
CONTINUOUS
 62
     7
 10
755.723323
 20
306.784300
 11
754.572988
 21
305.905580
  0
LINE
  8
CSLAYER1
  6
CONTINUOUS
 62
     7
 10
755.237068
 20
307.420880
 11
755.723323
 21
306.784300
  0
LINE
  8
CSLAYER1
  6
CONTINUOUS
 62
     7
 10
754.086703
 20
306.542160
 11
754.572988
 21
305.905580
  0
LINE
  8
CSLAYER1
  6
CONTINUOUS
 62
     7
 10
754.732311
 20
305.696982
 11
755.258721
 21
305.007855
  0
LINE
  8
CSLAYER1
  6
CONTINUOUS
 62
     7
 10
755.882668
 20
306.575703
 11
756.409078
 21
305.886575
  0
LINE
  8
CSLAYER1
  6
CONTINUOUS
 62
     7
 10
753.634273
 20
303.034425
 11
752.785326
 21
301.510727
  0
LINE
  8
CSLAYER1
  6
CONTINUOUS
 62
     7
 10
753.404983
 20
303.162190
 11
753.044376
 21
302.514988
  0
LINE
  8
CSLAYER1
  6
CONTINUOUS
 62
     7
 10
751.349691
 20
303.158735
 11
752.916613
 21
302.285694
  0
LINE
  8
CSLAYER1
  6
CONTINUOUS
 62
     7
 10
751.477453
 20
303.388028
 11
753.044376
 21
302.514987
  0
LINE
  8
CSLAYER1
  6
CONTINUOUS
 62
     7
 10
752.916613
 20
302.285694
 11
752.556013
 21
301.638492
  0
LINE
  8
CSLAYER1
  6
CONTINUOUS
 62
     7
 10
754.128523
 20
305.491857
 11
754.964698
 21
304.768174
  0
LINE
  8
CSLAYER1
  6
CONTINUOUS
 62
     7
 10
752.837631
 20
304.000292
 11
753.673798
 21
303.276609
  0
LINE
  8
CSLAYER1
  6
CONTINUOUS
 62
     7
 10
753.009426
 20
304.198790
 11
753.845601
 21
303.475108
  0
LINE
  8
CSLAYER1
  6
CONTINUOUS
 62
     7
 10
753.956721
 20
305.293359
 11
754.792918
 21
304.569676
  0
LINE
  8
CSLAYER1
  6
CONTINUOUS
 62
     7
 10
752.213946
 20
290.209897
 11
753.745903
 21
291.535752
  0
LINE
  8
CSLAYER1
  6
CONTINUOUS
 62
     7
 10
753.090658
 20
290.621502
 11
753.810673
 21
289.789572
  0
LINE
  8
CSLAYER1
  6
CONTINUOUS
 62
     7
 10
753.745903
 20
291.535752
 11
754.637691
 21
290.505331
  0
LINE
  8
CSLAYER1
  6
CONTINUOUS
 62
     7
 10
752.385726
 20
290.011407
 11
752.892171
 21
290.449716
  0
LINE
  8
CSLAYER1
  6
CONTINUOUS
 62
     7
 10
753.719188
 20
291.165475
 11
754.439203
 21
290.333545
  0
LINE
  8
CSLAYER1
  6
CONTINUOUS
 62
     7
 10
752.892171
 20
290.449716
 11
753.612163
 21
289.617786
  0
LINE
  8
CSLAYER1
  6
CONTINUOUS
 62
     7
 10
753.090658
 20
290.621502
 11
753.719188
 21
291.165475
  0
LINE
  8
CSLAYER1
  6
CONTINUOUS
 62
     7
 10
755.107978
 20
289.977234
 11
756.571243
 21
288.859491
  0
LINE
  8
CSLAYER1
  6
CONTINUOUS
 62
     7
 10
753.815916
 20
288.285741
 11
755.279181
 21
287.168000
  0
LINE
  8
CSLAYER1
  6
CONTINUOUS
 62
     7
 10
753.815916
 20
288.285741
 11
755.107978
 21
289.977234
  0
LINE
  8
CSLAYER1
  6
CONTINUOUS
 62
     7
 10
755.157253
 20
289.609288
 11
756.411913
 21
288.650894
  0
LINE
  8
CSLAYER1
  6
CONTINUOUS
 62
     7
 10
754.183866
 20
288.335019
 11
754.590883
 21
288.867859
  0
LINE
  8
CSLAYER1
  6
CONTINUOUS
 62
     7
 10
754.183866
 20
288.335019
 11
755.438526
 21
287.376625
  0
LINE
  8
CSLAYER1
  6
CONTINUOUS
 62
     7
 10
754.750236
 20
289.076448
 11
755.796291
 21
288.277395
  0
LINE
  8
CSLAYER1
  6
CONTINUOUS
 62
     7
 10
754.590883
 20
288.867859
 11
755.636968
 21
288.068806
  0
LINE
  8
CSLAYER1
  6
CONTINUOUS
 62
     7
 10
754.750236
 20
289.076448
 11
755.157253
 21
289.609288
  0
LINE
  8
CSLAYER1
  6
CONTINUOUS
 62
     7
 10
757.661316
 20
286.048854
 11
758.496298
 21
287.789676
  0
LINE
  8
CSLAYER1
  6
CONTINUOUS
 62
     7
 10
755.882721
 20
286.901960
 11
756.717726
 21
288.642783
  0
LINE
  8
CSLAYER1
  6
CONTINUOUS
 62
     7
 10
756.119316
 20
286.788482
 11
756.804606
 21
288.217221
  0
LINE
  8
CSLAYER1
  6
CONTINUOUS
 62
     7
 10
757.574248
 20
286.474504
 11
758.259561
 21
287.903234
  0
LINE
  8
CSLAYER1
  6
CONTINUOUS
 62
     7
 10
756.962308
 20
288.622053
 11
757.574338
 21
286.474512
  0
LINE
  8
CSLAYER1
  6
CONTINUOUS
 62
     7
 10
756.804651
 20
288.217192
 11
757.416681
 21
286.069674
  0
LINE
  8
CSLAYER1
  6
CONTINUOUS
 62
     7
 10
772.937436
 20
299.658097
 11
772.915828
 21
299.658097
  0
LINE
  8
CSLAYER1
  6
CONTINUOUS
 62
     7
 10
772.978453
 20
299.217975
 11
770.971431
 21
299.217975
  0
LINE
  8
CSLAYER1
  6
CONTINUOUS
 62
     7
 10
772.978453
 20
298.599976
 11
770.971431
 21
298.599976
  0
LINE
  8
CSLAYER1
  6
CONTINUOUS
 62
     7
 10
772.937436
 20
298.157624
 11
772.889278
 21
298.157624
  0
LINE
  8
CSLAYER1
  6
CONTINUOUS
 62
     7
 10
772.992553
 20
297.539624
 11
772.915461
 21
297.539624
  0
LINE
  8
CSLAYER1
  6
CONTINUOUS
 62
     7
 10
772.992553
 20
294.418552
 11
772.915648
 21
294.418552
  0
LINE
  8
CSLAYER1
  6
CONTINUOUS
 62
     7
 10
772.937436
 20
295.036553
 11
772.889278
 21
295.036553
  0
ARC
  8
CSLAYER1
  6
CONTINUOUS
 62
     7
 10
761.999998
 20
254.287503
 40
7.537500
 50
234.685580
 51
305.195726
  0
ARC
  8
CSLAYER1
  6
CONTINUOUS
 62
     7
 10
787.958308
 20
217.483418
 40
37.500000
 50
90.804200
 51
125.195780
  0
ARC
  8
CSLAYER1
  6
CONTINUOUS
 62
     7
 10
761.999998
 20
297.375000
 40
42.674996
 50
278.591282
 51
297.408596
  0
ARC
  8
CSLAYER1
  6
CONTINUOUS
 62
     7
 10
761.999998
 20
297.375000
 40
38.924996
 50
281.233346
 51
294.766488
  0
ARC
  8
CSLAYER1
  6
CONTINUOUS
 62
     7
 10
778.934871
 20
260.668202
 40
1.500000
 50
36.000760
 51
114.767490
  0
ARC
  8
CSLAYER1
  6
CONTINUOUS
 62
     7
 10
769.874998
 20
257.724472
 40
1.500000
 50
101.233350
 51
179.999850
  0
ARC
  8
CSLAYER1
  6
CONTINUOUS
 62
     7
 10
787.326231
 20
262.516480
 40
7.537500
 50
270.685583
 51
341.195706
  0
ARC
  8
CSLAYER1
  6
CONTINUOUS
 62
     7
 10
829.959771
 20
247.999260
 40
37.500000
 50
126.804210
 51
161.195800
  0
ARC
  8
CSLAYER1
  6
CONTINUOUS
 62
     7
 10
761.999998
 20
297.375000
 40
42.674996
 50
314.591283
 51
333.408580
  0
ARC
  8
CSLAYER1
  6
CONTINUOUS
 62
     7
 10
761.999998
 20
297.375000
 40
38.924996
 50
317.233347
 51
330.766499
  0
ARC
  8
CSLAYER1
  6
CONTINUOUS
 62
     7
 10
797.276361
 20
277.632649
 40
1.500000
 50
72.000780
 51
150.767500
  0
ARC
  8
CSLAYER1
  6
CONTINUOUS
 62
     7
 10
791.676996
 20
269.925854
 40
1.500000
 50
137.233360
 51
215.999860
  0
ARC
  8
CSLAYER1
  6
CONTINUOUS
 62
     7
 10
802.978633
 20
284.060246
 40
7.537500
 50
-53.314419
 51
17.195720
  0
ARC
  8
CSLAYER1
  6
CONTINUOUS
 62
     7
 10
846.002743
 20
297.374943
 40
37.500000
 50
162.804220
 51
197.195810
  0
ARC
  8
CSLAYER1
  6
CONTINUOUS
 62
     7
 10
761.999998
 20
297.375000
 40
42.674996
 50
-9.408740
 51
9.408595
  0
ARC
  8
CSLAYER1
  6
CONTINUOUS
 62
     7
 10
761.999998
 20
297.375000
 40
38.924996
 50
-6.766659
 51
6.766514
  0
ARC
  8
CSLAYER1
  6
CONTINUOUS
 62
     7
 10
802.143493
 20
302.138031
 40
1.500000
 50
108.000750
 51
186.767480
  0
ARC
  8
CSLAYER1
  6
CONTINUOUS
 62
     7
 10
802.143493
 20
292.611879
 40
1.500000
 50
173.233380
 51
251.999860
  0
ARC
  8
CSLAYER1
  6
CONTINUOUS
 62
     7
 10
802.978633
 20
310.689777
 40
7.537500
 50
-17.314438
 51
53.195740
  0
ARC
  8
CSLAYER1
  6
CONTINUOUS
 62
     7
 10
829.959771
 20
346.750638
 40
37.500000
 50
198.804240
 51
233.195810
  0
ARC
  8
CSLAYER1
  6
CONTINUOUS
 62
     7
 10
761.999998
 20
297.375000
 40
42.674996
 50
26.591270
 51
45.408610
  0
ARC
  8
CSLAYER1
  6
CONTINUOUS
 62
     7
 10
761.999998
 20
297.375000
 40
38.924996
 50
29.233360
 51
42.766530
  0
ARC
  8
CSLAYER1
  6
CONTINUOUS
 62
     7
 10
791.677183
 20
324.824124
 40
1.500000
 50
144.000770
 51
222.767480
  0
ARC
  8
CSLAYER1
  6
CONTINUOUS
 62
     7
 10
797.276548
 20
317.117306
 40
1.500000
 50
209.233390
 51
287.999857
  0
ARC
  8
CSLAYER1
  6
CONTINUOUS
 62
     7
 10
787.326231
 20
332.233521
 40
7.537500
 50
18.685580
 51
89.195750
  0
ARC
  8
CSLAYER1
  6
CONTINUOUS
 62
     7
 10
787.958308
 20
377.266478
 40
37.500000
 50
234.804240
 51
269.195810
  0
ARC
  8
CSLAYER1
  6
CONTINUOUS
 62
     7
 10
761.999998
 20
297.375000
 40
42.674996
 50
62.591290
 51
81.408620
  0
ARC
  8
CSLAYER1
  6
CONTINUOUS
 62
     7
 10
761.999998
 20
297.375000
 40
38.924996
 50
65.233370
 51
78.766540
  0
ARC
  8
CSLAYER1
  6
CONTINUOUS
 62
     7
 10
769.875178
 20
337.025620
 40
1.500000
 50
180.000780
 51
258.767480
  0
ARC
  8
CSLAYER1
  6
CONTINUOUS
 62
     7
 10
778.935058
 20
334.081902
 40
1.500000
 50
245.233390
 51
323.999858
  0
ARC
  8
CSLAYER1
  6
CONTINUOUS
 62
     7
 10
761.999998
 20
340.462521
 40
7.537500
 50
54.685590
 51
125.195760
  0
ARC
  8
CSLAYER1
  6
CONTINUOUS
 62
     7
 10
736.041681
 20
377.266478
 40
37.500000
 50
270.804240
 51
305.195811
  0
ARC
  8
CSLAYER1
  6
CONTINUOUS
 62
     7
 10
761.999998
 20
297.375000
 40
42.674996
 50
98.591270
 51
117.408600
  0
ARC
  8
CSLAYER1
  6
CONTINUOUS
 62
     7
 10
761.999998
 20
297.375000
 40
38.924996
 50
101.233350
 51
114.766520
  0
ARC
  8
CSLAYER1
  6
CONTINUOUS
 62
     7
 10
745.065118
 20
334.081936
 40
1.500000
 50
216.000780
 51
294.767482
  0
ARC
  8
CSLAYER1
  6
CONTINUOUS
 62
     7
 10
754.124998
 20
337.025688
 40
1.500000
 50
281.233394
 51
359.999873
  0
ARC
  8
CSLAYER1
  6
CONTINUOUS
 62
     7
 10
736.673766
 20
332.233533
 40
7.537500
 50
90.685570
 51
161.195740
  0
ARC
  8
CSLAYER1
  6
CONTINUOUS
 62
     7
 10
694.040158
 20
346.750649
 40
37.500000
 50
306.804239
 51
341.195816
  0
ARC
  8
CSLAYER1
  6
CONTINUOUS
 62
     7
 10
761.999998
 20
297.375000
 40
42.674996
 50
134.591280
 51
153.408620
  0
ARC
  8
CSLAYER1
  6
CONTINUOUS
 62
     7
 10
761.999998
 20
297.375000
 40
38.924996
 50
137.233360
 51
150.766540
  0
ARC
  8
CSLAYER1
  6
CONTINUOUS
 62
     7
 10
726.723628
 20
317.117466
 40
1.500000
 50
252.000780
 51
330.767483
  0
ARC
  8
CSLAYER1
  6
CONTINUOUS
 62
     7
 10
732.322813
 20
324.824273
 40
1.500000
 50
-42.766605
 51
35.999890
  0
ARC
  8
CSLAYER1
  6
CONTINUOUS
 62
     7
 10
721.021356
 20
310.689755
 40
7.537500
 50
126.685580
 51
197.195760
  0
ARC
  8
CSLAYER1
  6
CONTINUOUS
 62
     7
 10
677.997043
 20
297.374997
 40
37.500000
 50
-17.195757
 51
17.195830
  0
ARC
  8
CSLAYER1
  6
CONTINUOUS
 62
     7
 10
761.999998
 20
297.375000
 40
42.674996
 50
170.591300
 51
189.408630
  0
ARC
  8
CSLAYER1
  6
CONTINUOUS
 62
     7
 10
761.999998
 20
297.375000
 40
38.924996
 50
173.233380
 51
186.766550
  0
ARC
  8
CSLAYER1
  6
CONTINUOUS
 62
     7
 10
721.856503
 20
292.612062
 40
1.500000
 50
-71.999214
 51
6.767497
  0
ARC
  8
CSLAYER1
  6
CONTINUOUS
 62
     7
 10
721.856323
 20
302.138116
 40
1.500000
 50
-6.766604
 51
71.999900
  0
ARC
  8
CSLAYER1
  6
CONTINUOUS
 62
     7
 10
721.021356
 20
284.060223
 40
7.537500
 50
162.685600
 51
233.195760
  0
ARC
  8
CSLAYER1
  6
CONTINUOUS
 62
     7
 10
694.040158
 20
247.999352
 40
37.500000
 50
18.804260
 51
53.195840
  0
ARC
  8
CSLAYER1
  6
CONTINUOUS
 62
     7
 10
761.999998
 20
297.375000
 40
42.674996
 50
206.591310
 51
225.408630
  0
ARC
  8
CSLAYER1
  6
CONTINUOUS
 62
     7
 10
761.999998
 20
297.375000
 40
38.924996
 50
209.233390
 51
222.766550
  0
ARC
  8
CSLAYER1
  6
CONTINUOUS
 62
     7
 10
732.322813
 20
269.925945
 40
1.500000
 50
-35.999213
 51
42.767510
  0
ARC
  8
CSLAYER1
  6
CONTINUOUS
 62
     7
 10
726.723448
 20
277.632580
 40
1.500000
 50
29.233410
 51
107.999920
  0
ARC
  8
CSLAYER1
  6
CONTINUOUS
 62
     7
 10
736.673766
 20
262.516480
 40
7.537500
 50
198.685610
 51
269.195760
  0
ARC
  8
CSLAYER1
  6
CONTINUOUS
 62
     7
 10
736.041681
 20
217.483523
 40
37.500000
 50
54.804270
 51
89.195860
  0
ARC
  8
CSLAYER1
  6
CONTINUOUS
 62
     7
 10
761.999998
 20
297.375000
 40
42.674996
 50
242.591310
 51
261.408630
  0
ARC
  8
CSLAYER1
  6
CONTINUOUS
 62
     7
 10
761.999998
 20
297.375000
 40
38.924996
 50
245.233390
 51
258.766550
  0
ARC
  8
CSLAYER1
  6
CONTINUOUS
 62
     7
 10
754.124811
 20
257.724438
 40
1.500000
 50
0.000802
 51
78.767530
  0
ARC
  8
CSLAYER1
  6
CONTINUOUS
 62
     7
 10
745.064938
 20
260.668008
 40
1.500000
 50
65.233420
 51
143.999930
  0
ARC
  8
CSLAYER1
  6
CONTINUOUS
 62
     7
 10
761.999998
 20
297.375000
 40
34.125000
 50
280.129556
 51
349.870648
  0
CIRCLE
  8
CSLAYER1
  6
CONTINUOUS
 62
     7
 10
761.999998
 20
297.375000
 40
3.750000
  0
CIRCLE
  8
CSLAYER1
  6
CONTINUOUS
 62
     7
 10
761.999998
 20
297.375000
 40
3.000000
  0
ARC
  8
CSLAYER1
  6
CONTINUOUS
 62
     7
 10
761.999998
 20
297.375000
 40
34.125000
 50
10.129260
 51
79.870470
  0
ARC
  8
CSLAYER1
  6
CONTINUOUS
 62
     7
 10
761.999998
 20
297.375000
 40
34.125000
 50
100.128930
 51
169.870740
  0
ARC
  8
CSLAYER1
  6
CONTINUOUS
 62
     7
 10
761.999998
 20
297.375000
 40
34.125000
 50
190.129410
 51
259.871080
  0
ARC
  8
CSLAYER1
  6
CONTINUOUS
 62
     7
 10
767.869806
 20
264.520237
 40
0.750000
 50
176.427880
 51
280.124523
  0
ARC
  8
CSLAYER1
  6
CONTINUOUS
 62
     7
 10
794.854791
 20
291.505291
 40
0.750000
 50
-10.129298
 51
93.572150
  0
ARC
  8
CSLAYER1
  6
CONTINUOUS
 62
     7
 10
794.854791
 20
303.244640
 40
0.750000
 50
-93.573070
 51
10.129320
  0
ARC
  8
CSLAYER1
  6
CONTINUOUS
 62
     7
 10
767.869806
 20
330.229764
 40
0.750000
 50
79.875490
 51
183.572130
  0
ARC
  8
CSLAYER1
  6
CONTINUOUS
 62
     7
 10
756.130551
 20
330.229821
 40
0.750000
 50
-3.572753
 51
100.124000
  0
ARC
  8
CSLAYER1
  6
CONTINUOUS
 62
     7
 10
729.145198
 20
303.244660
 40
0.750000
 50
169.870740
 51
273.572800
  0
ARC
  8
CSLAYER1
  6
CONTINUOUS
 62
     7
 10
729.145198
 20
291.505270
 40
0.750000
 50
86.427280
 51
190.129390
  0
ARC
  8
CSLAYER1
  6
CONTINUOUS
 62
     7
 10
756.130551
 20
264.520180
 40
0.750000
 50
-100.123990
 51
3.572772
  0
ARC
  8
CSLAYER1
  6
CONTINUOUS
 62
     7
 10
761.999998
 20
297.375000
 40
25.875000
 50
282.481351
 51
347.518440
  0
ARC
  8
CSLAYER1
  6
CONTINUOUS
 62
     7
 10
761.999998
 20
297.375000
 40
25.875000
 50
192.481560
 51
257.518650
  0
ARC
  8
CSLAYER1
  6
CONTINUOUS
 62
     7
 10
761.999998
 20
297.375000
 40
25.875000
 50
12.481580
 51
77.518640
  0
ARC
  8
CSLAYER1
  6
CONTINUOUS
 62
     7
 10
761.999998
 20
297.375000
 40
25.875000
 50
102.481360
 51
167.518420
  0
ARC
  8
CSLAYER1
  6
CONTINUOUS
 62
     7
 10
838.874998
 20
297.375000
 40
109.125000
 50
182.712200
 51
186.982980
  0
ARC
  8
CSLAYER1
  6
CONTINUOUS
 62
     7
 10
838.874998
 20
297.375000
 40
109.125000
 50
193.667450
 51
195.071730
  0
ARC
  8
CSLAYER1
  6
CONTINUOUS
 62
     7
 10
685.124998
 20
297.375000
 40
109.125000
 50
353.017015
 51
357.287796
  0
ARC
  8
CSLAYER1
  6
CONTINUOUS
 62
     7
 10
685.124998
 20
297.375000
 40
109.125000
 50
344.928268
 51
346.332555
  0
ARC
  8
CSLAYER1
  6
CONTINUOUS
 62
     7
 10
838.874998
 20
297.375000
 40
109.125000
 50
173.017000
 51
177.287780
  0
ARC
  8
CSLAYER1
  6
CONTINUOUS
 62
     7
 10
838.874998
 20
297.375000
 40
109.125000
 50
164.928250
 51
166.332540
  0
ARC
  8
CSLAYER1
  6
CONTINUOUS
 62
     7
 10
685.124998
 20
297.375000
 40
109.125000
 50
2.712223
 51
6.983003
  0
ARC
  8
CSLAYER1
  6
CONTINUOUS
 62
     7
 10
685.124998
 20
297.375000
 40
109.125000
 50
13.667460
 51
15.071750
  0
CIRCLE
  8
CSLAYER1
  6
CONTINUOUS
 62
     7
 10
761.999998
 20
297.375000
 40
13.125000
  0
CIRCLE
  8
CSLAYER1
  6
CONTINUOUS
 62
     7
 10
761.999998
 20
297.375000
 40
7.875001
  0
ARC
  8
CSLAYER1
  6
CONTINUOUS
 62
     7
 10
761.999998
 20
297.375000
 40
10.718747
 50
165.615910
 51
194.384070
  0
ARC
  8
CSLAYER1
  6
CONTINUOUS
 62
     7
 10
761.999998
 20
297.375000
 40
11.593744
 50
165.615910
 51
194.384070
  0
ARC
  8
CSLAYER1
  6
CONTINUOUS
 62
     7
 10
756.702208
 20
308.420130
 40
2.187502
 50
269.910900
 51
314.093478
  0
ARC
  8
CSLAYER1
  6
CONTINUOUS
 62
     7
 10
757.648131
 20
306.447780
 40
2.187502
 50
85.428440
 51
138.357320
  0
ARC
  8
CSLAYER1
  6
CONTINUOUS
 62
     7
 10
757.648131
 20
306.447780
 40
1.925000
 50
85.428440
 51
138.357320
  0
ARC
  8
CSLAYER1
  6
CONTINUOUS
 62
     7
 10
756.702208
 20
308.420130
 40
1.925000
 50
269.910900
 51
314.093478
  0
ARC
  8
CSLAYER1
  6
CONTINUOUS
 62
     7
 10
757.862361
 20
307.222506
 40
0.519990
 50
-45.906556
 51
105.624980
  0
ARC
  8
CSLAYER1
  6
CONTINUOUS
 62
     7
 10
756.376461
 20
307.578610
 40
0.485689
 50
138.357340
 51
285.624976
  0
ARC
  8
CSLAYER1
  6
CONTINUOUS
 62
     7
 10
756.376461
 20
307.578610
 40
0.223189
 50
138.357340
 51
285.624976
  0
ARC
  8
CSLAYER1
  6
CONTINUOUS
 62
     7
 10
757.862361
 20
307.222506
 40
0.257490
 50
-45.906556
 51
105.624980
  0
ARC
  8
CSLAYER1
  6
CONTINUOUS
 62
     7
 10
756.698908
 20
306.363876
 40
0.131250
 50
89.910900
 51
270.000010
  0
ARC
  8
CSLAYER1
  6
CONTINUOUS
 62
     7
 10
757.812006
 20
308.497494
 40
0.131250
 50
-94.571570
 51
85.428440
  0
ARC
  8
CSLAYER1
  6
CONTINUOUS
 62
     7
 10
755.341363
 20
307.500561
 40
0.131250
 50
37.375050
 51
217.375010
  0
ARC
  8
CSLAYER1
  6
CONTINUOUS
 62
     7
 10
755.154418
 20
304.928179
 40
0.131250
 50
-142.625010
 51
37.375050
  0
ARC
  8
CSLAYER1
  6
CONTINUOUS
 62
     7
 10
753.982356
 20
306.462486
 40
0.131250
 50
37.375050
 51
217.375010
  0
ARC
  8
CSLAYER1
  6
CONTINUOUS
 62
     7
 10
756.513426
 20
305.966252
 40
0.131250
 50
-142.625010
 51
37.375050
  0
ARC
  8
CSLAYER1
  6
CONTINUOUS
 62
     7
 10
753.519651
 20
303.098303
 40
0.131250
 50
-29.124928
 51
150.875040
  0
ARC
  8
CSLAYER1
  6
CONTINUOUS
 62
     7
 10
752.670591
 20
301.574620
 40
0.131250
 50
150.875050
 51
330.875072
  0
ARC
  8
CSLAYER1
  6
CONTINUOUS
 62
     7
 10
751.413568
 20
303.273400
 40
0.131250
 50
60.875050
 51
240.875070
  0
ARC
  8
CSLAYER1
  6
CONTINUOUS
 62
     7
 10
753.483028
 20
304.746083
 40
0.986297
 50
49.125050
 51
229.125070
  0
ARC
  8
CSLAYER1
  6
CONTINUOUS
 62
     7
 10
753.483028
 20
304.746083
 40
0.723797
 50
49.125050
 51
229.125070
  0
ARC
  8
CSLAYER1
  6
CONTINUOUS
 62
     7
 10
754.878838
 20
304.668913
 40
0.131250
 50
-130.875000
 51
49.125050
  0
ARC
  8
CSLAYER1
  6
CONTINUOUS
 62
     7
 10
753.759703
 20
303.375843
 40
0.131250
 50
-130.875000
 51
49.125050
  0
ARC
  8
CSLAYER1
  6
CONTINUOUS
 62
     7
 10
754.124998
 20
290.061558
 40
0.678125
 50
-139.125000
 51
40.874950
  0
ARC
  8
CSLAYER1
  6
CONTINUOUS
 62
     7
 10
754.124998
 20
290.061558
 40
0.415625
 50
-139.125000
 51
40.874950
  0
ARC
  8
CSLAYER1
  6
CONTINUOUS
 62
     7
 10
752.299798
 20
290.110653
 40
0.131250
 50
130.874950
 51
310.874984
  0
ARC
  8
CSLAYER1
  6
CONTINUOUS
 62
     7
 10
756.491638
 20
288.755196
 40
0.131250
 50
-127.375000
 51
52.624950
  0
ARC
  8
CSLAYER1
  6
CONTINUOUS
 62
     7
 10
755.716551
 20
288.173092
 40
0.131250
 50
-127.375000
 51
52.624950
  0
ARC
  8
CSLAYER1
  6
CONTINUOUS
 62
     7
 10
755.358943
 20
287.272309
 40
0.131250
 50
-127.375000
 51
52.624950
  0
ARC
  8
CSLAYER1
  6
CONTINUOUS
 62
     7
 10
756.836053
 20
288.586032
 40
0.131250
 50
15.907270
 51
154.374990
  0
ARC
  8
CSLAYER1
  6
CONTINUOUS
 62
     7
 10
757.542846
 20
286.105638
 40
0.131250
 50
195.907260
 51
334.375025
  0
ARC
  8
CSLAYER1
  6
CONTINUOUS
 62
     7
 10
758.377986
 20
287.846457
 40
0.131250
 50
-25.624975
 51
154.374990
  0
ARC
  8
CSLAYER1
  6
CONTINUOUS
 62
     7
 10
756.000913
 20
286.845220
 40
0.131250
 50
154.375010
 51
334.375025
  0
ARC
  8
CSLAYER1
  6
CONTINUOUS
 62
     7
 10
770.971431
 20
301.987866
 40
0.309000
 50
89.999960
 51
270.000010
  0
ARC
  8
CSLAYER1
  6
CONTINUOUS
 62
     7
 10
772.978453
 20
301.987866
 40
0.309000
 50
-90.000000
 51
90.000020
  0
ARC
  8
CSLAYER1
  6
CONTINUOUS
 62
     7
 10
771.026728
 20
299.971170
 40
0.341203
 50
140.896200
 51
320.896220
  0
ARC
  8
CSLAYER1
  6
CONTINUOUS
 62
     7
 10
772.937436
 20
300.008096
 40
0.350000
 50
270.000000
 51
339.540724
  0
ARC
  8
CSLAYER1
  6
CONTINUOUS
 62
     7
 10
772.915828
 20
300.008096
 40
0.350000
 50
183.248890
 51
270.000000
  0
ARC
  8
CSLAYER1
  6
CONTINUOUS
 62
     7
 10
772.872066
 20
299.969719
 40
0.306250
 50
121.487860
 51
176.528700
  0
ARC
  8
CSLAYER1
  6
CONTINUOUS
 62
     7
 10
773.019463
 20
299.977520
 40
0.262500
 50
-20.459331
 51
39.103800
  0
ARC
  8
CSLAYER1
  6
CONTINUOUS
 62
     7
 10
770.971431
 20
298.908966
 40
0.309000
 50
89.999960
 51
270.000010
  0
ARC
  8
CSLAYER1
  6
CONTINUOUS
 62
     7
 10
772.978453
 20
298.908966
 40
0.309000
 50
-90.000000
 51
90.000020
  0
ARC
  8
CSLAYER1
  6
CONTINUOUS
 62
     7
 10
772.926448
 20
295.835463
 40
0.360916
 50
180.000020
 51
359.999982
  0
ARC
  8
CSLAYER1
  6
CONTINUOUS
 62
     7
 10
770.971431
 20
296.765507
 40
0.309022
 50
90.000040
 51
269.999980
  0
ARC
  8
CSLAYER1
  6
CONTINUOUS
 62
     7
 10
772.889278
 20
297.833870
 40
0.323750
 50
90.000040
 51
175.157140
  0
ARC
  8
CSLAYER1
  6
CONTINUOUS
 62
     7
 10
772.915461
 20
297.889622
 40
0.350000
 50
184.658040
 51
270.000000
  0
ARC
  8
CSLAYER1
  6
CONTINUOUS
 62
     7
 10
772.937436
 20
297.807625
 40
0.350000
 50
-0.000018
 51
90.000020
  0
ARC
  8
CSLAYER1
  6
CONTINUOUS
 62
     7
 10
771.023436
 20
292.814054
 40
0.360939
 50
180.000020
 51
359.999982
  0
ARC
  8
CSLAYER1
  6
CONTINUOUS
 62
     7
 10
771.035151
 20
294.775114
 40
0.372619
 50
42.504470
 51
180.000000
  0
ARC
  8
CSLAYER1
  6
CONTINUOUS
 62
     7
 10
771.397521
 20
293.910567
 40
0.013125
 50
42.505510
 51
179.998630
  0
ARC
  8
CSLAYER1
  6
CONTINUOUS
 62
     7
 10
772.914913
 20
292.825690
 40
0.372566
 50
222.504460
 51
359.999982
  0
ARC
  8
CSLAYER1
  6
CONTINUOUS
 62
     7
 10
772.979548
 20
293.224436
 40
0.013125
 50
222.505720
 51
359.998288
  0
ARC
  8
CSLAYER1
  6
CONTINUOUS
 62
     7
 10
772.889278
 20
294.712800
 40
0.323750
 50
90.000040
 51
175.157140
  0
ARC
  8
CSLAYER1
  6
CONTINUOUS
 62
     7
 10
772.915648
 20
294.768551
 40
0.350000
 50
184.658040
 51
270.000000
  0
ARC
  8
CSLAYER1
  6
CONTINUOUS
 62
     7
 10
772.937436
 20
294.686554
 40
0.350000
 50
-0.000018
 51
90.000020
  0
CIRCLE
  8
CSLAYER1
  6
CONTINUOUS
 62
     7
 10
752.254393
 20
291.945065
 40
0.831250
  0
CIRCLE
  8
CSLAYER1
  6
CONTINUOUS
 62
     7
 10
752.254393
 20
291.945065
 40
1.093749
  0
INSERT
  8
CSLAYER1
  2
BLKF0000
 10
0.0
 20
0.0
 30
0.0
  0
LINE
  8
CSLAYER1
  6
CENTER
 62
     2
 10
1179.117797
 20
36.000000
 11
1179.117797
 21
778.500000
  0
LINE
  8
CSLAYER1
  6
CONTINUOUS
 62
     7
 10
948.867797
 20
79.500000
 11
1179.117797
 21
79.500000
  0
LINE
  8
CSLAYER1
  6
CONTINUOUS
 62
     7
 10
991.805297
 20
86.625000
 11
991.805297
 21
204.750000
  0
ARC
  8
CSLAYER1
  6
CONTINUOUS
 62
     7
 10
984.305297
 20
87.000000
 40
7.500000
 50
270.000000
 51
360.000000
  0
ARC
  8
CSLAYER1
  6
CONTINUOUS
 62
     7
 10
973.805297
 20
204.750000
 40
18.000000
 50
0.000000
 51
90.000000
  0
LINE
  8
CSLAYER1
  6
CONTINUOUS
 62
     7
 10
1151.858869
 20
264.750000
 11
1063.668040
 21
264.750000
  0
LINE
  8
CSLAYER1
  6
CONTINUOUS
 62
     7
 10
1156.762547
 20
222.750000
 11
953.367797
 21
222.750000
  0
ARC
  8
CSLAYER1
  6
CONTINUOUS
 62
     7
 10
953.367797
 20
264.750000
 40
42.000000
 50
206.572523
 51
270.000000
  0
LINE
  8
CSLAYER1
  6
CONTINUOUS
 62
     7
 10
946.617797
 20
52.125000
 11
946.617797
 21
77.250000
  0
LINE
  8
CSLAYER1
  6
CONTINUOUS
 62
     7
 10
947.742797
 20
51.000000
 11
1179.117797
 21
51.000000
  0
LINE
  8
CSLAYER1
  6
CONTINUOUS
 62
     7
 10
862.242797
 20
267.000000
 11
862.242797
 21
289.875000
  0
LINE
  8
CSLAYER1
  6
CONTINUOUS
 62
     7
 10
862.242797
 20
267.000000
 11
864.492797
 21
264.750000
  0
LINE
  8
CSLAYER1
  6
CONTINUOUS
 62
     7
 10
946.617797
 20
77.250000
 11
948.867797
 21
79.500000
  0
LINE
  8
CSLAYER1
  6
CONTINUOUS
 62
     7
 10
946.617797
 20
52.125000
 11
947.742797
 21
51.000000
  0
LINE
  8
CSLAYER1
  6
CONTINUOUS
 62
     7
 10
862.242797
 20
289.875000
 11
863.367797
 21
291.000000
  0
LINE
  8
CSLAYER1
  6
CENTER
 62
     2
 10
967.242797
 20
38.250000
 11
967.242797
 21
94.500000
  0
ARC
  8
CSLAYER1
  6
CONTINUOUS
 62
     7
 10
966.492797
 20
615.750000
 40
59.250000
 50
89.737174
 51
180.000000
  0
LINE
  8
CSLAYER1
  6
CONTINUOUS
 62
     7
 10
864.492797
 20
594.750000
 11
1179.117797
 21
594.750000
  0
LINE
  8
CSLAYER1
  6
CONTINUOUS
 62
     7
 10
944.742797
 20
737.250000
 11
944.742797
 21
762.375000
  0
LINE
  8
CSLAYER1
  6
CONTINUOUS
 62
     7
 10
989.367797
 20
727.500000
 11
989.367797
 21
697.499140
  0
ARC
  8
CSLAYER1
  6
CONTINUOUS
 62
     7
 10
966.867797
 20
697.499140
 40
22.500000
 50
269.737174
 51
360.000000
  0
LINE
  8
CSLAYER1
  6
CONTINUOUS
 62
     7
 10
946.992797
 20
735.000000
 11
1179.117797
 21
735.000000
  0
ARC
  8
CSLAYER1
  6
CONTINUOUS
 62
     7
 10
981.867797
 20
727.500000
 40
7.500000
 50
0.000000
 51
90.000000
  0
LINE
  8
CSLAYER1
  6
CONTINUOUS
 62
     7
 10
863.367797
 20
568.500000
 11
1179.117797
 21
568.500000
  0
LINE
  8
CSLAYER1
  6
CONTINUOUS
 62
     7
 10
862.242797
 20
592.500000
 11
862.242797
 21
569.625000
  0
LINE
  8
CSLAYER1
  6
CONTINUOUS
 62
     7
 10
862.242797
 20
592.500000
 11
864.492797
 21
594.750000
  0
LINE
  8
CSLAYER1
  6
CONTINUOUS
 62
     7
 10
862.242797
 20
569.625000
 11
863.367797
 21
568.500000
  0
LINE
  8
CSLAYER1
  6
CONTINUOUS
 62
     7
 10
897.867797
 20
568.500000
 11
897.867797
 21
567.000000
  0
LINE
  8
CSLAYER1
  6
CONTINUOUS
 62
     7
 10
945.867797
 20
763.500000
 11
1179.117797
 21
763.500000
  0
LINE
  8
CSLAYER1
  6
CONTINUOUS
 62
     7
 10
944.742797
 20
762.375000
 11
945.867797
 21
763.500000
  0
LINE
  8
CSLAYER1
  6
CONTINUOUS
 62
     7
 10
944.742797
 20
737.250000
 11
946.992797
 21
735.000000
  0
LINE
  8
CSLAYER1
  6
CENTER
 62
     2
 10
967.242797
 20
776.250000
 11
967.242797
 21
720.000000
  0
LINE
  8
CSLAYER1
  6
CONTINUOUS
 62
     7
 10
1128.117797
 20
316.500000
 11
1066.140193
 21
316.500000
  0
LINE
  8
CSLAYER1
  6
CONTINUOUS
 62
     7
 10
1179.117797
 20
543.375000
 11
863.742797
 21
543.375000
  0
LINE
  8
CSLAYER1
  6
CONTINUOUS
 62
     7
 10
907.992797
 20
327.750000
 11
907.992797
 21
521.250000
  0
LINE
  8
CSLAYER1
  6
CONTINUOUS
 62
     7
 10
862.242797
 20
565.875000
 11
862.242797
 21
544.875000
  0
LINE
  8
CSLAYER1
  6
CONTINUOUS
 62
     7
 10
862.242797
 20
315.000000
 11
862.242797
 21
293.625000
  0
LINE
  8
CSLAYER1
  6
CONTINUOUS
 62
     7
 10
897.867797
 20
292.500000
 11
897.867797
 21
291.000000
  0
LINE
  8
CSLAYER1
  6
CONTINUOUS
 62
     7
 10
862.242797
 20
544.875000
 11
863.742797
 21
543.375000
  0
LINE
  8
CSLAYER1
  6
CONTINUOUS
 62
     7
 10
862.242797
 20
315.000000
 11
863.742797
 21
316.500000
  0
LINE
  8
CSLAYER1
  6
CONTINUOUS
 62
     7
 10
862.242797
 20
293.625000
 11
863.367797
 21
292.500000
  0
LINE
  8
CSLAYER1
  6
CONTINUOUS
 62
     7
 10
862.242797
 20
565.875000
 11
863.367797
 21
567.000000
  0
LINE
  8
CSLAYER1
  6
CONTINUOUS
 62
     7
 10
1050.655532
 20
292.500000
 11
863.367797
 21
292.500000
  0
LINE
  8
CSLAYER1
  6
CONTINUOUS
 62
     7
 10
1050.655532
 20
291.000000
 11
863.367797
 21
291.000000
  0
LINE
  8
CSLAYER1
  6
CONTINUOUS
 62
     7
 10
1179.117797
 20
567.000000
 11
863.367797
 21
567.000000
  0
LINE
  8
CSLAYER1
  6
CONTINUOUS
 62
     7
 10
966.764586
 20
674.999377
 11
1179.117797
 21
674.999377
  0
ARC
  8
CSLAYER1
  6
CONTINUOUS
 62
     7
 10
1391.742797
 20
615.750000
 40
59.250000
 50
0.000000
 51
90.262826
  0
LINE
  8
CSLAYER1
  6
CONTINUOUS
 62
     7
 10
1493.742797
 20
594.750000
 11
1179.117797
 21
594.750000
  0
LINE
  8
CSLAYER1
  6
CONTINUOUS
 62
     7
 10
1413.492797
 20
737.250000
 11
1413.492797
 21
762.375000
  0
LINE
  8
CSLAYER1
  6
CONTINUOUS
 62
     7
 10
1368.867797
 20
727.500000
 11
1368.867797
 21
697.499140
  0
ARC
  8
CSLAYER1
  6
CONTINUOUS
 62
     7
 10
1391.367797
 20
697.499140
 40
22.500000
 50
180.000000
 51
270.262826
  0
LINE
  8
CSLAYER1
  6
CONTINUOUS
 62
     7
 10
1411.242797
 20
735.000000
 11
1179.117797
 21
735.000000
  0
ARC
  8
CSLAYER1
  6
CONTINUOUS
 62
     7
 10
1376.367797
 20
727.500000
 40
7.500000
 50
90.000000
 51
180.000000
  0
LINE
  8
CSLAYER1
  6
CONTINUOUS
 62
     7
 10
1494.867797
 20
568.500000
 11
1179.117797
 21
568.500000
  0
LINE
  8
CSLAYER1
  6
CONTINUOUS
 62
     7
 10
1412.367797
 20
763.500000
 11
1179.117797
 21
763.500000
  0
LINE
  8
CSLAYER1
  6
CONTINUOUS
 62
     7
 10
1413.492797
 20
762.375000
 11
1412.367797
 21
763.500000
  0
LINE
  8
CSLAYER1
  6
CONTINUOUS
 62
     7
 10
1413.492797
 20
737.250000
 11
1411.242797
 21
735.000000
  0
LINE
  8
CSLAYER1
  6
CENTER
 62
     2
 10
1390.992797
 20
776.250000
 11
1390.992797
 21
720.000000
  0
LINE
  8
CSLAYER1
  6
CONTINUOUS
 62
     7
 10
1179.117797
 20
543.375000
 11
1494.492797
 21
543.375000
  0
LINE
  8
CSLAYER1
  6
CONTINUOUS
 62
     7
 10
1179.117797
 20
567.000000
 11
1494.867797
 21
567.000000
  0
LINE
  8
CSLAYER1
  6
CONTINUOUS
 62
     7
 10
1391.471008
 20
674.999377
 11
1179.117797
 21
674.999377
  0
LINE
  8
CSLAYER1
  6
CONTINUOUS
 62
     7
 10
1409.367797
 20
79.500000
 11
1179.117797
 21
79.500000
  0
LINE
  8
CSLAYER1
  6
CONTINUOUS
 62
     7
 10
1410.492797
 20
51.000000
 11
1179.117797
 21
51.000000
  0
LINE
  8
CSLAYER1
  6
CONTINUOUS
 62
     7
 10
1206.376725
 20
264.750000
 11
1493.742797
 21
264.750000
  0
LINE
  8
CSLAYER1
  6
CONTINUOUS
 62
     7
 10
1209.678825
 20
316.500000
 11
1494.492797
 21
316.500000
  0
LINE
  8
CSLAYER1
  6
CONTINUOUS
 62
     7
 10
1211.258851
 20
292.500000
 11
1494.867797
 21
292.500000
  0
LINE
  8
CSLAYER1
  6
CONTINUOUS
 62
     7
 10
1211.181427
 20
291.000000
 11
1494.867797
 21
291.000000
  0
LINE
  8
CSLAYER1
  6
CONTINUOUS
 62
     7
 10
1201.473047
 20
222.750000
 11
1404.867797
 21
222.750000
  0
LINE
  8
CSLAYER1
  6
CENTER
 62
     2
 10
1252.242797
 20
429.750000
 11
1105.992797
 21
429.750000
  0
LINE
  8
CSLAYER1
  6
CENTER
 62
     2
 10
1252.242797
 20
165.000000
 11
1105.992797
 21
165.000000
  0
LINE
  8
CSLAYER1
  6
CENTER
 62
     2
 10
1244.742797
 20
297.375000
 11
1032.117797
 21
297.375000
  0
LINE
  8
CSLAYER1
  6
CONTINUOUS
 62
     7
 10
1204.992797
 20
387.000000
 11
1153.242797
 21
387.000000
  0
LINE
  8
CSLAYER1
  6
CONTINUOUS
 62
     7
 10
1204.992797
 20
429.750000
 11
1204.992797
 21
387.000000
  0
LINE
  8
CSLAYER1
  6
CONTINUOUS
 62
     7
 10
1153.242797
 20
429.750000
 11
1153.242797
 21
387.000000
  0
LINE
  8
CSLAYER1
  6
CONTINUOUS
 62
     7
 10
1204.992797
 20
207.750000
 11
1153.242797
 21
207.750000
  0
LINE
  8
CSLAYER1
  6
CONTINUOUS
 62
     7
 10
1201.473047
 20
355.410000
 11
1200.381545
 21
349.875000
  0
LINE
  8
CSLAYER1
  6
CONTINUOUS
 62
     7
 10
1201.473047
 20
387.000000
 11
1201.473047
 21
349.875000
  0
LINE
  8
CSLAYER1
  6
CONTINUOUS
 62
     7
 10
1201.473047
 20
381.465000
 11
1200.381545
 21
387.000000
  0
LINE
  8
CSLAYER1
  6
CONTINUOUS
 62
     7
 10
1156.762547
 20
355.410000
 11
1157.854049
 21
349.875000
  0
LINE
  8
CSLAYER1
  6
CONTINUOUS
 62
     7
 10
1156.762547
 20
387.000000
 11
1156.762547
 21
349.875000
  0
LINE
  8
CSLAYER1
  6
CONTINUOUS
 62
     7
 10
1156.762547
 20
381.465000
 11
1157.854049
 21
387.000000
  0
LINE
  8
CSLAYER1
  6
CONTINUOUS
 62
     7
 10
1201.473047
 20
213.285000
 11
1200.381545
 21
207.750000
  0
LINE
  8
CSLAYER1
  6
CONTINUOUS
 62
     7
 10
1201.473047
 20
244.875000
 11
1201.473047
 21
207.750000
  0
LINE
  8
CSLAYER1
  6
CONTINUOUS
 62
     7
 10
1201.473047
 20
239.340000
 11
1200.381545
 21
244.875000
  0
LINE
  8
CSLAYER1
  6
CONTINUOUS
 62
     7
 10
1156.762547
 20
213.285000
 11
1157.854049
 21
207.750000
  0
LINE
  8
CSLAYER1
  6
CONTINUOUS
 62
     7
 10
1156.762547
 20
244.875000
 11
1156.762547
 21
207.750000
  0
LINE
  8
CSLAYER1
  6
CONTINUOUS
 62
     7
 10
1156.762547
 20
239.340000
 11
1157.854049
 21
244.875000
  0
ARC
  8
CSLAYER1
  6
CONTINUOUS
 62
     7
 10
1179.117797
 20
429.750000
 40
58.125000
 50
-67.380690
 51
247.380690
  0
ARC
  8
CSLAYER1
  6
CONTINUOUS
 62
     7
 10
1179.117797
 20
429.750000
 40
34.500000
 50
-41.409622
 51
221.409622
  0
ARC
  8
CSLAYER1
  6
CONTINUOUS
 62
     7
 10
1179.117797
 20
429.750000
 40
25.875000
 50
0.000000
 51
180.000000
  0
ARC
  8
CSLAYER1
  6
CONTINUOUS
 62
     7
 10
1179.117797
 20
429.750000
 40
30.000000
 50
-30.401548
 51
210.401548
  0
ARC
  8
CSLAYER1
  6
CONTINUOUS
 62
     7
 10
1179.117797
 20
429.750000
 40
30.750000
 50
-32.705023
 51
212.705023
  0
ARC
  8
CSLAYER1
  6
CONTINUOUS
 62
     7
 10
1179.117797
 20
429.750000
 40
56.625000
 50
-66.746829
 51
246.746829
  0
LINE
  8
CSLAYER1
  6
CONTINUOUS
 62
     7
 10
1204.992797
 20
165.000000
 11
1204.992797
 21
207.750000
  0
LINE
  8
CSLAYER1
  6
CONTINUOUS
 62
     7
 10
1153.242797
 20
165.000000
 11
1153.242797
 21
207.750000
  0
ARC
  8
CSLAYER1
  6
CONTINUOUS
 62
     7
 10
1179.117797
 20
165.000000
 40
58.125000
 50
-247.380690
 51
67.380690
  0
ARC
  8
CSLAYER1
  6
CONTINUOUS
 62
     7
 10
1179.117797
 20
165.000000
 40
34.500000
 50
-221.409622
 51
41.409622
  0
ARC
  8
CSLAYER1
  6
CONTINUOUS
 62
     7
 10
1179.117797
 20
165.000000
 40
25.875000
 50
180.000000
 51
360.000000
  0
ARC
  8
CSLAYER1
  6
CONTINUOUS
 62
     7
 10
1179.117797
 20
165.000000
 40
30.000000
 50
-210.401548
 51
30.401548
  0
ARC
  8
CSLAYER1
  6
CONTINUOUS
 62
     7
 10
1179.117797
 20
165.000000
 40
30.750000
 50
-212.705023
 51
32.705023
  0
ARC
  8
CSLAYER1
  6
CONTINUOUS
 62
     7
 10
1179.117797
 20
165.000000
 40
56.625000
 50
-246.746829
 51
66.746829
  0
LINE
  8
CSLAYER1
  6
CONTINUOUS
 62
     7
 10
1148.030299
 20
244.875000
 11
1210.205295
 21
244.875000
  0
LINE
  8
CSLAYER1
  6
CONTINUOUS
 62
     7
 10
1148.030299
 20
256.875000
 11
1210.205295
 21
256.875000
  0
LINE
  8
CSLAYER1
  6
CONTINUOUS
 62
     7
 10
1210.205295
 20
256.875000
 11
1210.205295
 21
244.875000
  0
LINE
  8
CSLAYER1
  6
CONTINUOUS
 62
     7
 10
1208.142494
 20
257.427727
 11
1210.205298
 21
256.875000
  0
LINE
  8
CSLAYER1
  6
CONTINUOUS
 62
     7
 10
1148.030299
 20
256.875000
 11
1148.030299
 21
244.875000
  0
LINE
  8
CSLAYER1
  6
CONTINUOUS
 62
     7
 10
1150.093100
 20
257.427727
 11
1148.030296
 21
256.875000
  0
LINE
  8
CSLAYER1
  6
CONTINUOUS
 62
     7
 10
1148.030299
 20
349.875000
 11
1210.205295
 21
349.875000
  0
LINE
  8
CSLAYER1
  6
CONTINUOUS
 62
     7
 10
1148.030299
 20
337.875000
 11
1210.205295
 21
337.875000
  0
LINE
  8
CSLAYER1
  6
CONTINUOUS
 62
     7
 10
1210.205295
 20
337.875000
 11
1210.205295
 21
349.875000
  0
LINE
  8
CSLAYER1
  6
CONTINUOUS
 62
     7
 10
1208.142494
 20
337.322274
 11
1210.205298
 21
337.875000
  0
LINE
  8
CSLAYER1
  6
CONTINUOUS
 62
     7
 10
1148.030299
 20
337.875000
 11
1148.030299
 21
349.875000
  0
LINE
  8
CSLAYER1
  6
CONTINUOUS
 62
     7
 10
1150.093100
 20
337.322274
 11
1148.030296
 21
337.875000
  0
LINE
  8
CSLAYER1
  6
CONTINUOUS
 62
     7
 10
1140.867797
 20
323.250000
 11
1140.867797
 21
271.500000
  0
LINE
  8
CSLAYER1
  6
CONTINUOUS
 62
     7
 10
1144.242797
 20
323.250000
 11
1144.242797
 21
271.500000
  0
LINE
  8
CSLAYER1
  6
CONTINUOUS
 62
     7
 10
1138.017131
 20
271.500000
 11
1144.242797
 21
271.500000
  0
LINE
  8
CSLAYER1
  6
CONTINUOUS
 62
     7
 10
1144.242797
 20
272.250000
 11
1147.452487
 21
272.250000
  0
LINE
  8
CSLAYER1
  6
CONTINUOUS
 62
     7
 10
1144.242797
 20
322.500000
 11
1147.452487
 21
322.500000
  0
LINE
  8
CSLAYER1
  6
CONTINUOUS
 62
     7
 10
1136.742797
 20
316.462498
 11
1136.742797
 21
278.287503
  0
LINE
  8
CSLAYER1
  6
CONTINUOUS
 62
     7
 10
1128.117797
 20
316.462498
 11
1128.117797
 21
278.287503
  0
LINE
  8
CSLAYER1
  6
CONTINUOUS
 62
     7
 10
1102.992797
 20
285.750000
 11
1120.508701
 21
285.750000
  0
LINE
  8
CSLAYER1
  6
CONTINUOUS
 62
     7
 10
1128.117797
 20
278.287503
 11
1136.742797
 21
278.287503
  0
LINE
  8
CSLAYER1
  6
CONTINUOUS
 62
     7
 10
1127.894763
 20
279.552364
 11
1128.117797
 21
278.287503
  0
LINE
  8
CSLAYER1
  6
CONTINUOUS
 62
     7
 10
1136.742797
 20
278.287503
 11
1138.017131
 21
271.500003
  0
LINE
  8
CSLAYER1
  6
CONTINUOUS
 62
     7
 10
1128.117797
 20
287.415708
 11
1136.742797
 21
287.415708
  0
LINE
  8
CSLAYER1
  6
CONTINUOUS
 62
     7
 10
1138.017131
 20
323.250000
 11
1144.242797
 21
323.250000
  0
LINE
  8
CSLAYER1
  6
CONTINUOUS
 62
     7
 10
1102.992797
 20
309.000000
 11
1120.508701
 21
309.000000
  0
LINE
  8
CSLAYER1
  6
CONTINUOUS
 62
     7
 10
1128.117797
 20
316.462498
 11
1136.742797
 21
316.462498
  0
LINE
  8
CSLAYER1
  6
CONTINUOUS
 62
     7
 10
1127.894763
 20
315.197637
 11
1128.117797
 21
316.462497
  0
LINE
  8
CSLAYER1
  6
CONTINUOUS
 62
     7
 10
1136.742797
 20
316.462497
 11
1138.017131
 21
323.249997
  0
LINE
  8
CSLAYER1
  6
CONTINUOUS
 62
     7
 10
1128.117797
 20
307.334293
 11
1136.742797
 21
307.334293
  0
LINE
  8
CSLAYER1
  6
CONTINUOUS
 62
     7
 10
1082.367797
 20
281.774998
 11
1099.242797
 21
281.774998
  0
LINE
  8
CSLAYER1
  6
CONTINUOUS
 62
     7
 10
1082.367797
 20
312.975003
 11
1082.367797
 21
281.774998
  0
LINE
  8
CSLAYER1
  6
CONTINUOUS
 62
     7
 10
1099.242797
 20
312.975003
 11
1099.242797
 21
281.774998
  0
LINE
  8
CSLAYER1
  6
CONTINUOUS
 62
     7
 10
1082.367797
 20
312.975003
 11
1099.242797
 21
312.975003
  0
LINE
  8
CSLAYER1
  6
CONTINUOUS
 62
     7
 10
1082.367797
 20
289.147759
 11
1099.242797
 21
289.147759
  0
LINE
  8
CSLAYER1
  6
CONTINUOUS
 62
     7
 10
1082.367797
 20
305.602242
 11
1099.242797
 21
305.602242
  0
LINE
  8
CSLAYER1
  6
CONTINUOUS
 62
     7
 10
1071.918040
 20
291.750000
 11
1082.367797
 21
291.750000
  0
LINE
  8
CSLAYER1
  6
CONTINUOUS
 62
     7
 10
1071.918040
 20
306.375000
 11
1071.918040
 21
288.375000
  0
LINE
  8
CSLAYER1
  6
CONTINUOUS
 62
     7
 10
1063.668040
 20
347.770341
 11
1063.668040
 21
246.979660
  0
LINE
  8
CSLAYER1
  6
CONTINUOUS
 62
     7
 10
1063.668040
 20
287.942636
 11
1071.918040
 21
288.375000
  0
LINE
  8
CSLAYER1
  6
CONTINUOUS
 62
     7
 10
1063.668040
 20
271.237499
 11
1069.668040
 21
288.257079
  0
LINE
  8
CSLAYER1
  6
CONTINUOUS
 62
     7
 10
1061.043040
 20
348.000000
 11
1061.043040
 21
246.750000
  0
LINE
  8
CSLAYER1
  6
CONTINUOUS
 62
     7
 10
1063.668040
 20
246.979672
 11
1061.043040
 21
246.750018
  0
LINE
  8
CSLAYER1
  6
CONTINUOUS
 62
     7
 10
1063.668040
 20
275.654235
 11
1061.043040
 21
275.424577
  0
LINE
  8
CSLAYER1
  6
CONTINUOUS
 62
     7
 10
1063.668040
 20
254.110500
 11
1061.043040
 21
253.880843
  0
LINE
  8
CSLAYER1
  6
CONTINUOUS
 62
     7
 10
1058.043040
 20
303.601152
 11
1058.043040
 21
291.148849
  0
LINE
  8
CSLAYER1
  6
CONTINUOUS
 62
     7
 10
1056.730540
 20
304.351152
 11
1056.730540
 21
290.398849
  0
LINE
  8
CSLAYER1
  6
CONTINUOUS
 62
     7
 10
1050.655532
 20
305.255511
 11
1050.655532
 21
289.494489
  0
LINE
  8
CSLAYER1
  6
CONTINUOUS
 62
     7
 10
1053.243040
 20
302.851152
 11
1053.243040
 21
291.898849
  0
LINE
  8
CSLAYER1
  6
CONTINUOUS
 62
     7
 10
1054.743040
 20
290.398849
 11
1057.293040
 21
290.398849
  0
LINE
  8
CSLAYER1
  6
CONTINUOUS
 62
     7
 10
1058.043040
 20
275.830147
 11
1058.043040
 21
267.734894
  0
LINE
  8
CSLAYER1
  6
CONTINUOUS
 62
     7
 10
1056.730540
 20
276.068722
 11
1056.730540
 21
266.984894
  0
LINE
  8
CSLAYER1
  6
CONTINUOUS
 62
     7
 10
1053.243040
 20
277.018845
 11
1053.243040
 21
268.484894
  0
LINE
  8
CSLAYER1
  6
CONTINUOUS
 62
     7
 10
1054.743040
 20
266.984894
 11
1057.293040
 21
266.984894
  0
LINE
  8
CSLAYER1
  6
CONTINUOUS
 62
     7
 10
1063.668040
 20
306.807365
 11
1071.918040
 21
306.375001
  0
LINE
  8
CSLAYER1
  6
CONTINUOUS
 62
     7
 10
1063.668040
 20
323.512502
 11
1069.668040
 21
306.492921
  0
LINE
  8
CSLAYER1
  6
CONTINUOUS
 62
     7
 10
1063.668040
 20
347.770329
 11
1061.043025
 21
347.999983
  0
LINE
  8
CSLAYER1
  6
CONTINUOUS
 62
     7
 10
1063.668040
 20
319.095766
 11
1061.043040
 21
319.325424
  0
LINE
  8
CSLAYER1
  6
CONTINUOUS
 62
     7
 10
1063.668040
 20
340.639501
 11
1061.043040
 21
340.869158
  0
LINE
  8
CSLAYER1
  6
CONTINUOUS
 62
     7
 10
1050.655532
 20
316.135323
 11
1050.655532
 21
326.799260
  0
LINE
  8
CSLAYER1
  6
CONTINUOUS
 62
     7
 10
1054.743040
 20
304.351152
 11
1057.293040
 21
304.351152
  0
LINE
  8
CSLAYER1
  6
CONTINUOUS
 62
     7
 10
1058.043040
 20
318.919854
 11
1058.043040
 21
327.015107
  0
LINE
  8
CSLAYER1
  6
CONTINUOUS
 62
     7
 10
1056.730540
 20
318.681279
 11
1056.730540
 21
327.765107
  0
LINE
  8
CSLAYER1
  6
CONTINUOUS
 62
     7
 10
1053.243040
 20
317.731156
 11
1053.243040
 21
326.265107
  0
LINE
  8
CSLAYER1
  6
CONTINUOUS
 62
     7
 10
1054.743040
 20
327.765107
 11
1057.293040
 21
327.765107
  0
LINE
  8
CSLAYER1
  6
CONTINUOUS
 62
     7
 10
1050.655532
 20
278.614678
 11
1050.655532
 21
267.950741
  0
LINE
  8
CSLAYER1
  6
CONTINUOUS
 62
     7
 10
1071.918040
 20
303.000000
 11
1082.367797
 21
303.000000
  0
LINE
  8
CSLAYER1
  6
CONTINUOUS
 62
     7
 10
1195.139263
 20
256.875000
 11
1195.139263
 21
244.875000
  0
LINE
  8
CSLAYER1
  6
CONTINUOUS
 62
     7
 10
1195.139263
 20
337.875000
 11
1195.139263
 21
349.875000
  0
LINE
  8
CSLAYER1
  6
CONTINUOUS
 62
     7
 10
1163.096332
 20
256.875000
 11
1163.096332
 21
244.875000
  0
LINE
  8
CSLAYER1
  6
CONTINUOUS
 62
     7
 10
1163.096332
 20
337.875000
 11
1163.096332
 21
349.875000
  0
LINE
  8
CSLAYER1
  6
CONTINUOUS
 62
     7
 10
1138.017131
 20
323.250000
 11
1138.017131
 21
271.500000
  0
LINE
  8
CSLAYER1
  6
CONTINUOUS
 62
     7
 10
1102.992797
 20
309.375000
 11
1102.992797
 21
285.375000
  0
LINE
  8
CSLAYER1
  6
CONTINUOUS
 62
     7
 10
1099.242797
 20
285.375000
 11
1102.992797
 21
285.375000
  0
LINE
  8
CSLAYER1
  6
CONTINUOUS
 62
     7
 10
1099.242797
 20
309.375000
 11
1102.992797
 21
309.375000
  0
LINE
  8
CSLAYER1
  6
CONTINUOUS
 62
     7
 10
1099.242797
 20
285.750000
 11
1102.992797
 21
285.750000
  0
LINE
  8
CSLAYER1
  6
CONTINUOUS
 62
     7
 10
1099.242797
 20
309.000000
 11
1102.992797
 21
309.000000
  0
ARC
  8
CSLAYER1
  6
CONTINUOUS
 62
     7
 10
1102.242797
 20
297.375000
 40
109.125000
 50
-18.772820
 51
18.774750
  0
ARC
  8
CSLAYER1
  6
CONTINUOUS
 62
     7
 10
1209.113071
 20
261.049942
 40
3.750000
 50
161.227220
 51
254.999993
  0
ARC
  8
CSLAYER1
  6
CONTINUOUS
 62
     7
 10
1255.992797
 20
297.375000
 40
109.125000
 50
194.527011
 51
198.772820
  0
ARC
  8
CSLAYER1
  6
CONTINUOUS
 62
     7
 10
1149.122524
 20
261.049942
 40
3.750000
 50
-74.999990
 51
18.772780
  0
ARC
  8
CSLAYER1
  6
CONTINUOUS
 62
     7
 10
1209.113071
 20
333.700059
 40
3.750000
 50
105.000010
 51
198.772766
  0
ARC
  8
CSLAYER1
  6
CONTINUOUS
 62
     7
 10
1149.122524
 20
333.700059
 40
3.750000
 50
-18.772770
 51
74.999990
  0
ARC
  8
CSLAYER1
  6
CONTINUOUS
 62
     7
 10
1147.452487
 20
269.250000
 40
3.000000
 50
14.526970
 51
89.999910
  0
ARC
  8
CSLAYER1
  6
CONTINUOUS
 62
     7
 10
1255.992797
 20
297.375000
 40
109.125000
 50
161.227160
 51
165.472970
  0
ARC
  8
CSLAYER1
  6
CONTINUOUS
 62
     7
 10
1147.452487
 20
325.500000
 40
3.000000
 50
270.000090
 51
345.473040
  0
ARC
  8
CSLAYER1
  6
CONTINUOUS
 62
     7
 10
1120.508701
 20
278.250000
 40
7.500000
 50
10.000000
 51
90.000040
  0
ARC
  8
CSLAYER1
  6
CONTINUOUS
 62
     7
 10
1120.508701
 20
316.500000
 40
7.500000
 50
269.999964
 51
349.999980
  0
ARC
  8
CSLAYER1
  6
CONTINUOUS
 62
     7
 10
1065.970555
 20
294.496409
 40
48.000000
 50
256.741927
 51
264.107831
  0
ARC
  8
CSLAYER1
  6
CONTINUOUS
 62
     7
 10
1057.363255
 20
257.920521
 40
10.425000
 50
226.103283
 51
256.685099
  0
ARC
  8
CSLAYER1
  6
CONTINUOUS
 62
     7
 10
1054.968032
 20
255.385655
 40
6.937500
 50
149.073800
 51
225.849702
  0
ARC
  8
CSLAYER1
  6
CONTINUOUS
 62
     7
 10
1065.970555
 20
323.170979
 40
48.000000
 50
256.741927
 51
264.107831
  0
ARC
  8
CSLAYER1
  6
CONTINUOUS
 62
     7
 10
1057.363255
 20
286.595089
 40
10.425000
 50
226.103283
 51
256.685099
  0
ARC
  8
CSLAYER1
  6
CONTINUOUS
 62
     7
 10
1054.968032
 20
284.060223
 40
6.937500
 50
128.434660
 51
225.849702
  0
ARC
  8
CSLAYER1
  6
CONTINUOUS
 62
     7
 10
1065.970555
 20
301.627236
 40
48.000000
 50
256.741927
 51
264.107831
  0
ARC
  8
CSLAYER1
  6
CONTINUOUS
 62
     7
 10
1057.363255
 20
265.051346
 40
10.425000
 50
226.103283
 51
256.685099
  0
ARC
  8
CSLAYER1
  6
CONTINUOUS
 62
     7
 10
1054.968032
 20
262.516480
 40
6.937500
 50
128.434660
 51
225.849702
  0
ARC
  8
CSLAYER1
  6
CONTINUOUS
 62
     7
 10
1054.743040
 20
291.898849
 40
1.500000
 50
180.000018
 51
270.000000
  0
ARC
  8
CSLAYER1
  6
CONTINUOUS
 62
     7
 10
1057.293040
 20
291.148849
 40
0.750000
 50
270.000000
 51
359.999980
  0
ARC
  8
CSLAYER1
  6
CONTINUOUS
 62
     7
 10
1054.743040
 20
268.484894
 40
1.500000
 50
180.000018
 51
270.000000
  0
ARC
  8
CSLAYER1
  6
CONTINUOUS
 62
     7
 10
1057.293040
 20
267.734894
 40
0.750000
 50
270.000000
 51
359.999980
  0
ARC
  8
CSLAYER1
  6
CONTINUOUS
 62
     7
 10
1065.970555
 20
300.253591
 40
48.000000
 50
95.892190
 51
103.258090
  0
ARC
  8
CSLAYER1
  6
CONTINUOUS
 62
     7
 10
1057.363255
 20
336.829479
 40
10.425000
 50
103.314920
 51
133.896730
  0
ARC
  8
CSLAYER1
  6
CONTINUOUS
 62
     7
 10
1054.968032
 20
339.364346
 40
6.937500
 50
134.150320
 51
210.926186
  0
ARC
  8
CSLAYER1
  6
CONTINUOUS
 62
     7
 10
1065.970555
 20
271.579022
 40
48.000000
 50
95.892190
 51
103.258090
  0
ARC
  8
CSLAYER1
  6
CONTINUOUS
 62
     7
 10
1057.363255
 20
308.154912
 40
10.425000
 50
103.314920
 51
133.896730
  0
ARC
  8
CSLAYER1
  6
CONTINUOUS
 62
     7
 10
1054.968032
 20
310.689777
 40
6.937500
 50
134.150320
 51
231.565351
  0
ARC
  8
CSLAYER1
  6
CONTINUOUS
 62
     7
 10
1065.970555
 20
293.122765
 40
48.000000
 50
95.892190
 51
103.258090
  0
ARC
  8
CSLAYER1
  6
CONTINUOUS
 62
     7
 10
1057.363255
 20
329.698655
 40
10.425000
 50
103.314920
 51
133.896730
  0
ARC
  8
CSLAYER1
  6
CONTINUOUS
 62
     7
 10
1054.968032
 20
332.233521
 40
6.937500
 50
134.150320
 51
231.565341
  0
ARC
  8
CSLAYER1
  6
CONTINUOUS
 62
     7
 10
1054.743040
 20
302.851152
 40
1.500000
 50
89.999980
 51
179.999963
  0
ARC
  8
CSLAYER1
  6
CONTINUOUS
 62
     7
 10
1057.293040
 20
303.601152
 40
0.750000
 50
0.000000
 51
89.999980
  0
ARC
  8
CSLAYER1
  6
CONTINUOUS
 62
     7
 10
1054.743040
 20
326.265107
 40
1.500000
 50
89.999980
 51
179.999963
  0
ARC
  8
CSLAYER1
  6
CONTINUOUS
 62
     7
 10
1057.293040
 20
327.015107
 40
0.750000
 50
0.000000
 51
89.999980
  0
ARC
  8
CSLAYER1
  6
CONTINUOUS
 62
     7
 10
1119.662479
 20
297.375000
 40
39.236595
 50
-39.817650
 51
39.817640
  0
LINE
  8
CSLAYER1
  6
CONTINUOUS
 62
     7
 10
1157.690297
 20
461.569805
 11
1152.494144
 21
470.569805
  0
LINE
  8
CSLAYER1
  6
CONTINUOUS
 62
     7
 10
1152.494144
 20
470.569805
 11
1142.101839
 21
470.569805
  0
LINE
  8
CSLAYER1
  6
CONTINUOUS
 62
     7
 10
1142.101839
 20
470.569805
 11
1136.905687
 21
461.569805
  0
LINE
  8
CSLAYER1
  6
CONTINUOUS
 62
     7
 10
1136.905687
 20
461.569805
 11
1142.101839
 21
452.569805
  0
LINE
  8
CSLAYER1
  6
CONTINUOUS
 62
     7
 10
1142.101839
 20
452.569805
 11
1152.494144
 21
452.569805
  0
LINE
  8
CSLAYER1
  6
CONTINUOUS
 62
     7
 10
1152.494144
 20
452.569805
 11
1157.690297
 21
461.569805
  0
CIRCLE
  8
CSLAYER1
  6
CONTINUOUS
 62
     7
 10
1147.297992
 20
461.569805
 40
9.000000
  0
LINE
  8
CSLAYER1
  6
CONTINUOUS
 62
     7
 10
1153.242797
 20
405.633491
 11
1152.494144
 21
406.930195
  0
LINE
  8
CSLAYER1
  6
CONTINUOUS
 62
     7
 10
1152.494144
 20
406.930195
 11
1142.101839
 21
406.930195
  0
LINE
  8
CSLAYER1
  6
CONTINUOUS
 62
     7
 10
1142.101839
 20
406.930195
 11
1136.905687
 21
397.930195
  0
LINE
  8
CSLAYER1
  6
CONTINUOUS
 62
     7
 10
1136.905687
 20
397.930195
 11
1142.101839
 21
388.930195
  0
LINE
  8
CSLAYER1
  6
CONTINUOUS
 62
     7
 10
1142.101839
 20
388.930195
 11
1152.494144
 21
388.930195
  0
LINE
  8
CSLAYER1
  6
CONTINUOUS
 62
     7
 10
1152.494144
 20
388.930195
 11
1153.242797
 21
390.226900
  0
ARC
  8
CSLAYER1
  6
CONTINUOUS
 62
     7
 10
1147.297992
 20
397.930195
 40
9.000000
 50
48.659396
 51
311.340604
  0
LINE
  8
CSLAYER1
  6
CONTINUOUS
 62
     7
 10
1221.329907
 20
397.930195
 11
1216.133755
 21
406.930195
  0
LINE
  8
CSLAYER1
  6
CONTINUOUS
 62
     7
 10
1216.133755
 20
406.930195
 11
1205.741450
 21
406.930195
  0
LINE
  8
CSLAYER1
  6
CONTINUOUS
 62
     7
 10
1205.741450
 20
406.930195
 11
1204.992797
 21
405.633491
  0
LINE
  8
CSLAYER1
  6
CONTINUOUS
 62
     7
 10
1204.992797
 20
390.226900
 11
1205.741450
 21
388.930195
  0
LINE
  8
CSLAYER1
  6
CONTINUOUS
 62
     7
 10
1205.741450
 20
388.930195
 11
1216.133755
 21
388.930195
  0
LINE
  8
CSLAYER1
  6
CONTINUOUS
 62
     7
 10
1216.133755
 20
388.930195
 11
1221.329907
 21
397.930195
  0
ARC
  8
CSLAYER1
  6
CONTINUOUS
 62
     7
 10
1210.937602
 20
397.930195
 40
9.000000
 50
-131.340604
 51
131.340604
  0
LINE
  8
CSLAYER1
  6
CONTINUOUS
 62
     7
 10
1221.329907
 20
461.569805
 11
1216.133755
 21
470.569805
  0
LINE
  8
CSLAYER1
  6
CONTINUOUS
 62
     7
 10
1216.133755
 20
470.569805
 11
1205.741450
 21
470.569805
  0
LINE
  8
CSLAYER1
  6
CONTINUOUS
 62
     7
 10
1205.741450
 20
470.569805
 11
1200.545297
 21
461.569805
  0
LINE
  8
CSLAYER1
  6
CONTINUOUS
 62
     7
 10
1200.545297
 20
461.569805
 11
1205.741450
 21
452.569805
  0
LINE
  8
CSLAYER1
  6
CONTINUOUS
 62
     7
 10
1205.741450
 20
452.569805
 11
1216.133755
 21
452.569805
  0
LINE
  8
CSLAYER1
  6
CONTINUOUS
 62
     7
 10
1216.133755
 20
452.569805
 11
1221.329907
 21
461.569805
  0
CIRCLE
  8
CSLAYER1
  6
CONTINUOUS
 62
     7
 10
1210.937602
 20
461.569805
 40
9.000000
  0
LINE
  8
CSLAYER1
  6
CONTINUOUS
 62
     7
 10
1153.242797
 20
204.523101
 11
1152.494144
 21
205.819805
  0
LINE
  8
CSLAYER1
  6
CONTINUOUS
 62
     7
 10
1152.494144
 20
205.819805
 11
1142.101839
 21
205.819805
  0
LINE
  8
CSLAYER1
  6
CONTINUOUS
 62
     7
 10
1142.101839
 20
205.819805
 11
1136.905687
 21
196.819805
  0
LINE
  8
CSLAYER1
  6
CONTINUOUS
 62
     7
 10
1136.905687
 20
196.819805
 11
1142.101839
 21
187.819805
  0
LINE
  8
CSLAYER1
  6
CONTINUOUS
 62
     7
 10
1142.101839
 20
187.819805
 11
1152.494144
 21
187.819805
  0
LINE
  8
CSLAYER1
  6
CONTINUOUS
 62
     7
 10
1152.494144
 20
187.819805
 11
1153.242797
 21
189.116510
  0
ARC
  8
CSLAYER1
  6
CONTINUOUS
 62
     7
 10
1147.297992
 20
196.819805
 40
9.000000
 50
48.659396
 51
311.340604
  0
LINE
  8
CSLAYER1
  6
CONTINUOUS
 62
     7
 10
1221.329907
 20
196.819805
 11
1216.133755
 21
205.819805
  0
LINE
  8
CSLAYER1
  6
CONTINUOUS
 62
     7
 10
1216.133755
 20
205.819805
 11
1205.741450
 21
205.819805
  0
LINE
  8
CSLAYER1
  6
CONTINUOUS
 62
     7
 10
1205.741450
 20
205.819805
 11
1204.992797
 21
204.523101
  0
LINE
  8
CSLAYER1
  6
CONTINUOUS
 62
     7
 10
1204.992797
 20
189.116510
 11
1205.741450
 21
187.819805
  0
LINE
  8
CSLAYER1
  6
CONTINUOUS
 62
     7
 10
1205.741450
 20
187.819805
 11
1216.133755
 21
187.819805
  0
LINE
  8
CSLAYER1
  6
CONTINUOUS
 62
     7
 10
1216.133755
 20
187.819805
 11
1221.329907
 21
196.819805
  0
ARC
  8
CSLAYER1
  6
CONTINUOUS
 62
     7
 10
1210.937602
 20
196.819805
 40
9.000000
 50
-131.340604
 51
131.340604
  0
LINE
  8
CSLAYER1
  6
CONTINUOUS
 62
     7
 10
1221.329907
 20
133.180195
 11
1216.133755
 21
142.180195
  0
LINE
  8
CSLAYER1
  6
CONTINUOUS
 62
     7
 10
1216.133755
 20
142.180195
 11
1205.741450
 21
142.180195
  0
LINE
  8
CSLAYER1
  6
CONTINUOUS
 62
     7
 10
1205.741450
 20
142.180195
 11
1200.545297
 21
133.180195
  0
LINE
  8
CSLAYER1
  6
CONTINUOUS
 62
     7
 10
1200.545297
 20
133.180195
 11
1205.741450
 21
124.180195
  0
LINE
  8
CSLAYER1
  6
CONTINUOUS
 62
     7
 10
1205.741450
 20
124.180195
 11
1216.133755
 21
124.180195
  0
LINE
  8
CSLAYER1
  6
CONTINUOUS
 62
     7
 10
1216.133755
 20
124.180195
 11
1221.329907
 21
133.180195
  0
CIRCLE
  8
CSLAYER1
  6
CONTINUOUS
 62
     7
 10
1210.937602
 20
133.180195
 40
9.000000
  0
LINE
  8
CSLAYER1
  6
CONTINUOUS
 62
     7
 10
1157.690297
 20
133.180195
 11
1152.494144
 21
142.180195
  0
LINE
  8
CSLAYER1
  6
CONTINUOUS
 62
     7
 10
1152.494144
 20
142.180195
 11
1142.101839
 21
142.180195
  0
LINE
  8
CSLAYER1
  6
CONTINUOUS
 62
     7
 10
1142.101839
 20
142.180195
 11
1136.905687
 21
133.180195
  0
LINE
  8
CSLAYER1
  6
CONTINUOUS
 62
     7
 10
1136.905687
 20
133.180195
 11
1142.101839
 21
124.180195
  0
LINE
  8
CSLAYER1
  6
CONTINUOUS
 62
     7
 10
1142.101839
 20
124.180195
 11
1152.494144
 21
124.180195
  0
LINE
  8
CSLAYER1
  6
CONTINUOUS
 62
     7
 10
1152.494144
 20
124.180195
 11
1157.690297
 21
133.180195
  0
CIRCLE
  8
CSLAYER1
  6
CONTINUOUS
 62
     7
 10
1147.297992
 20
133.180195
 40
9.000000
  0
LINE
  8
CSLAYER1
  6
CONTINUOUS
 62
     7
 10
1366.430297
 20
86.625000
 11
1366.430297
 21
204.750000
  0
ARC
  8
CSLAYER1
  6
CONTINUOUS
 62
     7
 10
1373.930297
 20
87.000000
 40
7.500000
 50
180.000000
 51
270.000000
  0
ARC
  8
CSLAYER1
  6
CONTINUOUS
 62
     7
 10
1384.430297
 20
204.750000
 40
18.000000
 50
90.000000
 51
180.000000
  0
ARC
  8
CSLAYER1
  6
CONTINUOUS
 62
     7
 10
1404.867797
 20
264.750000
 40
42.000000
 50
270.000000
 51
333.427477
  0
LINE
  8
CSLAYER1
  6
CONTINUOUS
 62
     7
 10
1411.617797
 20
52.125000
 11
1411.617797
 21
77.250000
  0
LINE
  8
CSLAYER1
  6
CONTINUOUS
 62
     7
 10
1495.992797
 20
267.000000
 11
1495.992797
 21
289.875000
  0
LINE
  8
CSLAYER1
  6
CONTINUOUS
 62
     7
 10
1495.992797
 20
267.000000
 11
1493.742797
 21
264.750000
  0
LINE
  8
CSLAYER1
  6
CONTINUOUS
 62
     7
 10
1411.617797
 20
77.250000
 11
1409.367797
 21
79.500000
  0
LINE
  8
CSLAYER1
  6
CONTINUOUS
 62
     7
 10
1411.617797
 20
52.125000
 11
1410.492797
 21
51.000000
  0
LINE
  8
CSLAYER1
  6
CONTINUOUS
 62
     7
 10
1495.992797
 20
289.875000
 11
1494.867797
 21
291.000000
  0
LINE
  8
CSLAYER1
  6
CENTER
 62
     2
 10
1390.992797
 20
38.250000
 11
1390.992797
 21
94.500000
  0
LINE
  8
CSLAYER1
  6
CONTINUOUS
 62
     7
 10
1495.992797
 20
592.500000
 11
1495.992797
 21
569.625000
  0
LINE
  8
CSLAYER1
  6
CONTINUOUS
 62
     7
 10
1495.992797
 20
592.500000
 11
1493.742797
 21
594.750000
  0
LINE
  8
CSLAYER1
  6
CONTINUOUS
 62
     7
 10
1495.992797
 20
569.625000
 11
1494.867797
 21
568.500000
  0
LINE
  8
CSLAYER1
  6
CONTINUOUS
 62
     7
 10
1460.367797
 20
568.500000
 11
1460.367797
 21
567.000000
  0
LINE
  8
CSLAYER1
  6
CONTINUOUS
 62
     7
 10
1450.242797
 20
327.750000
 11
1450.242797
 21
521.250000
  0
LINE
  8
CSLAYER1
  6
CONTINUOUS
 62
     7
 10
1495.992797
 20
565.875000
 11
1495.992797
 21
544.875000
  0
LINE
  8
CSLAYER1
  6
CONTINUOUS
 62
     7
 10
1495.992797
 20
315.000000
 11
1495.992797
 21
293.625000
  0
LINE
  8
CSLAYER1
  6
CONTINUOUS
 62
     7
 10
1460.367797
 20
292.500000
 11
1460.367797
 21
291.000000
  0
LINE
  8
CSLAYER1
  6
CONTINUOUS
 62
     7
 10
1495.992797
 20
544.875000
 11
1494.492797
 21
543.375000
  0
LINE
  8
CSLAYER1
  6
CONTINUOUS
 62
     7
 10
1495.992797
 20
315.000000
 11
1494.492797
 21
316.500000
  0
LINE
  8
CSLAYER1
  6
CONTINUOUS
 62
     7
 10
1495.992797
 20
293.625000
 11
1494.867797
 21
292.500000
  0
LINE
  8
CSLAYER1
  6
CONTINUOUS
 62
     7
 10
1495.992797
 20
565.875000
 11
1494.867797
 21
567.000000
  0
LINE
  8
CSLAYER1
  6
CONTINUOUS
 62
     7
 10
1048.399905
 20
264.750000
 11
864.492797
 21
264.750000
  0
LINE
  8
CSLAYER1
  6
CONTINUOUS
 62
     7
 10
1050.655532
 20
316.500000
 11
863.742797
 21
316.500000
  0
LINE
  8
CSLAYER1
  6
CONTINUOUS
 62
     7
 10
695.249998
 20
387.542695
 11
695.249998
 21
408.430195
  0
LINE
  8
CSLAYER1
  6
CONTINUOUS
 62
     7
 10
702.749998
 20
406.930195
 11
701.948925
 21
408.317695
  0
LINE
  8
CSLAYER1
  6
CONTINUOUS
 62
     7
 10
702.749998
 20
388.930195
 11
701.948925
 21
387.542695
  0
LINE
  8
CSLAYER1
  6
CONTINUOUS
 62
     7
 10
701.948925
 20
387.542695
 11
695.249998
 21
387.542695
  0
LINE
  8
CSLAYER1
  6
CONTINUOUS
 62
     7
 10
695.249998
 20
387.542695
 11
695.249998
 21
408.430195
  0
LINE
  8
CSLAYER1
  6
CONTINUOUS
 62
     7
 10
695.249998
 20
408.317695
 11
701.948925
 21
408.317695
  0
LINE
  8
CSLAYER1
  6
CONTINUOUS
 62
     7
 10
702.749998
 20
406.930195
 11
702.749998
 21
388.930195
  0
ARC
  8
CSLAYER1
  6
CONTINUOUS
 62
     7
 10
698.140260
 20
405.720820
 40
4.609738
 50
-34.287473
 51
34.287473
  0
ARC
  8
CSLAYER1
  6
CONTINUOUS
 62
     7
 10
685.512655
 20
397.930195
 40
17.237343
 50
-17.536184
 51
17.536184
  0
ARC
  8
CSLAYER1
  6
CONTINUOUS
 62
     7
 10
698.140260
 20
390.139570
 40
4.609738
 50
-34.287473
 51
34.287473
  0
LINE
  8
CSLAYER1
  6
CONTINUOUS
 62
     7
 10
701.948925
 20
403.123945
 11
695.249998
 21
403.123945
  0
LINE
  8
CSLAYER1
  6
CONTINUOUS
 62
     7
 10
701.948925
 20
392.736445
 11
695.249998
 21
392.736445
  0
LINE
  8
CSLAYER1
  6
CONTINUOUS
 62
     7
 10
647.400001
 20
391.930195
 11
652.312501
 21
391.930195
  0
LINE
  8
CSLAYER1
  6
CONTINUOUS
 62
     7
 10
646.500001
 20
403.030195
 11
646.500001
 21
392.830195
  0
LINE
  8
CSLAYER1
  6
CONTINUOUS
 62
     7
 10
647.400001
 20
391.930195
 11
646.500001
 21
392.830195
  0
LINE
  8
CSLAYER1
  6
CONTINUOUS
 62
     7
 10
647.400001
 20
403.930195
 11
646.500001
 21
403.030195
  0
LINE
  8
CSLAYER1
  6
CONTINUOUS
 62
     7
 10
647.400001
 20
391.930195
 11
647.400001
 21
403.930195
  0
LINE
  8
CSLAYER1
  6
CONTINUOUS
 62
     7
 10
662.062501
 20
408.322504
 11
662.062495
 21
387.542693
  0
LINE
  8
CSLAYER1
  6
CONTINUOUS
 62
     7
 10
662.062501
 20
408.322504
 11
653.116352
 21
408.322504
  0
LINE
  8
CSLAYER1
  6
CONTINUOUS
 62
     7
 10
652.312501
 20
406.930193
 11
652.312501
 21
388.930193
  0
LINE
  8
CSLAYER1
  6
CONTINUOUS
 62
     7
 10
662.062495
 20
387.542693
 11
653.113575
 21
387.542693
  0
LINE
  8
CSLAYER1
  6
CONTINUOUS
 62
     7
 10
652.312501
 20
388.930193
 11
653.113575
 21
387.542693
  0
LINE
  8
CSLAYER1
  6
CONTINUOUS
 62
     7
 10
652.312501
 20
406.930193
 11
653.113575
 21
408.317693
  0
ARC
  8
CSLAYER1
  6
CONTINUOUS
 62
     7
 10
655.716844
 20
389.736443
 40
3.404343
 50
139.879485
 51
220.120515
  0
ARC
  8
CSLAYER1
  6
CONTINUOUS
 62
     7
 10
675.182886
 20
397.930193
 40
22.870385
 50
164.790570
 51
195.209430
  0
ARC
  8
CSLAYER1
  6
CONTINUOUS
 62
     7
 10
655.716844
 20
406.123943
 40
3.404343
 50
139.879485
 51
220.120515
  0
LINE
  8
CSLAYER1
  6
CONTINUOUS
 62
     7
 10
653.113575
 20
391.930193
 11
662.062497
 21
391.930193
  0
LINE
  8
CSLAYER1
  6
CONTINUOUS
 62
     7
 10
653.113575
 20
403.930193
 11
662.062500
 21
403.930193
  0
LINE
  8
CSLAYER1
  6
CONTINUOUS
 62
     7
 10
652.312501
 20
392.743945
 11
646.586251
 21
392.743945
  0
LINE
  8
CSLAYER1
  6
CONTINUOUS
 62
     7
 10
652.312501
 20
403.116445
 11
646.586251
 21
403.116445
  0
LINE
  8
CSLAYER1
  6
CONTINUOUS
 62
     7
 10
652.312501
 20
403.930195
 11
647.400001
 21
403.930195
  0
LINE
  8
CSLAYER1
  6
CENTER
 62
     2
 10
709.499998
 20
397.930195
 11
642.750001
 21
397.930195
  0
LINE
  8
CSLAYER1
  6
CONTINUOUS
 62
     7
 10
669.749998
 20
207.207305
 11
669.749998
 21
186.319805
  0
LINE
  8
CSLAYER1
  6
CONTINUOUS
 62
     7
 10
677.249998
 20
187.819805
 11
676.448925
 21
186.432305
  0
LINE
  8
CSLAYER1
  6
CONTINUOUS
 62
     7
 10
677.249998
 20
205.819805
 11
676.448925
 21
207.207305
  0
LINE
  8
CSLAYER1
  6
CONTINUOUS
 62
     7
 10
676.448925
 20
207.207305
 11
669.749998
 21
207.207305
  0
LINE
  8
CSLAYER1
  6
CONTINUOUS
 62
     7
 10
669.749998
 20
207.207305
 11
669.749998
 21
186.319805
  0
LINE
  8
CSLAYER1
  6
CONTINUOUS
 62
     7
 10
669.749998
 20
186.432305
 11
676.448925
 21
186.432305
  0
LINE
  8
CSLAYER1
  6
CONTINUOUS
 62
     7
 10
677.249998
 20
187.819805
 11
677.249998
 21
205.819805
  0
ARC
  8
CSLAYER1
  6
CONTINUOUS
 62
     7
 10
672.640260
 20
189.029180
 40
4.609738
 50
-34.287473
 51
34.287473
  0
ARC
  8
CSLAYER1
  6
CONTINUOUS
 62
     7
 10
660.012655
 20
196.819805
 40
17.237343
 50
-17.536184
 51
17.536184
  0
ARC
  8
CSLAYER1
  6
CONTINUOUS
 62
     7
 10
672.640260
 20
204.610430
 40
4.609738
 50
-34.287473
 51
34.287473
  0
LINE
  8
CSLAYER1
  6
CONTINUOUS
 62
     7
 10
676.448925
 20
191.626055
 11
669.749998
 21
191.626055
  0
LINE
  8
CSLAYER1
  6
CONTINUOUS
 62
     7
 10
676.448925
 20
202.013555
 11
669.749998
 21
202.013555
  0
LINE
  8
CSLAYER1
  6
CONTINUOUS
 62
     7
 10
621.900001
 20
202.819805
 11
626.812501
 21
202.819805
  0
LINE
  8
CSLAYER1
  6
CONTINUOUS
 62
     7
 10
621.000001
 20
191.719805
 11
621.000001
 21
201.919805
  0
LINE
  8
CSLAYER1
  6
CONTINUOUS
 62
     7
 10
621.900001
 20
202.819805
 11
621.000001
 21
201.919805
  0
LINE
  8
CSLAYER1
  6
CONTINUOUS
 62
     7
 10
621.900001
 20
190.819805
 11
621.000001
 21
191.719805
  0
LINE
  8
CSLAYER1
  6
CONTINUOUS
 62
     7
 10
621.900001
 20
202.819805
 11
621.900001
 21
190.819805
  0
LINE
  8
CSLAYER1
  6
CONTINUOUS
 62
     7
 10
636.562501
 20
186.427496
 11
636.562495
 21
207.207307
  0
LINE
  8
CSLAYER1
  6
CONTINUOUS
 62
     7
 10
636.562501
 20
186.427496
 11
627.616352
 21
186.427496
  0
LINE
  8
CSLAYER1
  6
CONTINUOUS
 62
     7
 10
626.812501
 20
187.819807
 11
626.812501
 21
205.819807
  0
LINE
  8
CSLAYER1
  6
CONTINUOUS
 62
     7
 10
636.562495
 20
207.207307
 11
627.613575
 21
207.207307
  0
LINE
  8
CSLAYER1
  6
CONTINUOUS
 62
     7
 10
626.812501
 20
205.819807
 11
627.613575
 21
207.207307
  0
LINE
  8
CSLAYER1
  6
CONTINUOUS
 62
     7
 10
626.812501
 20
187.819807
 11
627.613575
 21
186.432307
  0
ARC
  8
CSLAYER1
  6
CONTINUOUS
 62
     7
 10
630.216844
 20
205.013557
 40
3.404343
 50
139.879485
 51
220.120515
  0
ARC
  8
CSLAYER1
  6
CONTINUOUS
 62
     7
 10
649.682886
 20
196.819807
 40
22.870385
 50
164.790570
 51
195.209430
  0
ARC
  8
CSLAYER1
  6
CONTINUOUS
 62
     7
 10
630.216844
 20
188.626057
 40
3.404343
 50
139.879485
 51
220.120515
  0
LINE
  8
CSLAYER1
  6
CONTINUOUS
 62
     7
 10
627.613575
 20
202.819807
 11
636.562497
 21
202.819807
  0
LINE
  8
CSLAYER1
  6
CONTINUOUS
 62
     7
 10
627.613575
 20
190.819807
 11
636.562500
 21
190.819807
  0
LINE
  8
CSLAYER1
  6
CONTINUOUS
 62
     7
 10
626.812501
 20
202.006055
 11
621.086251
 21
202.006055
  0
LINE
  8
CSLAYER1
  6
CONTINUOUS
 62
     7
 10
626.812501
 20
191.633555
 11
621.086251
 21
191.633555
  0
LINE
  8
CSLAYER1
  6
CONTINUOUS
 62
     7
 10
626.812501
 20
190.819805
 11
621.900001
 21
190.819805
  0
LINE
  8
CSLAYER1
  6
CENTER
 62
     2
 10
683.999998
 20
196.819805
 11
617.250001
 21
196.819805
  0
LINE
  8
CSLAYER1
  6
CONTINUOUS
 62
     7
 10
669.749998
 20
122.792695
 11
669.749998
 21
143.680195
  0
LINE
  8
CSLAYER1
  6
CONTINUOUS
 62
     7
 10
677.249998
 20
142.180195
 11
676.448925
 21
143.567695
  0
LINE
  8
CSLAYER1
  6
CONTINUOUS
 62
     7
 10
677.249998
 20
124.180195
 11
676.448925
 21
122.792695
  0
LINE
  8
CSLAYER1
  6
CONTINUOUS
 62
     7
 10
676.448925
 20
122.792695
 11
669.749998
 21
122.792695
  0
LINE
  8
CSLAYER1
  6
CONTINUOUS
 62
     7
 10
669.749998
 20
122.792695
 11
669.749998
 21
143.680195
  0
LINE
  8
CSLAYER1
  6
CONTINUOUS
 62
     7
 10
669.749998
 20
143.567695
 11
676.448925
 21
143.567695
  0
LINE
  8
CSLAYER1
  6
CONTINUOUS
 62
     7
 10
677.249998
 20
142.180195
 11
677.249998
 21
124.180195
  0
ARC
  8
CSLAYER1
  6
CONTINUOUS
 62
     7
 10
672.640260
 20
140.970820
 40
4.609738
 50
-34.287473
 51
34.287473
  0
ARC
  8
CSLAYER1
  6
CONTINUOUS
 62
     7
 10
660.012655
 20
133.180195
 40
17.237343
 50
-17.536184
 51
17.536184
  0
ARC
  8
CSLAYER1
  6
CONTINUOUS
 62
     7
 10
672.640260
 20
125.389570
 40
4.609738
 50
-34.287473
 51
34.287473
  0
LINE
  8
CSLAYER1
  6
CONTINUOUS
 62
     7
 10
676.448925
 20
138.373945
 11
669.749998
 21
138.373945
  0
LINE
  8
CSLAYER1
  6
CONTINUOUS
 62
     7
 10
676.448925
 20
127.986445
 11
669.749998
 21
127.986445
  0
LINE
  8
CSLAYER1
  6
CONTINUOUS
 62
     7
 10
621.900001
 20
127.180195
 11
626.812501
 21
127.180195
  0
LINE
  8
CSLAYER1
  6
CONTINUOUS
 62
     7
 10
621.000001
 20
138.280195
 11
621.000001
 21
128.080195
  0
LINE
  8
CSLAYER1
  6
CONTINUOUS
 62
     7
 10
621.900001
 20
127.180195
 11
621.000001
 21
128.080195
  0
LINE
  8
CSLAYER1
  6
CONTINUOUS
 62
     7
 10
621.900001
 20
139.180195
 11
621.000001
 21
138.280195
  0
LINE
  8
CSLAYER1
  6
CONTINUOUS
 62
     7
 10
621.900001
 20
127.180195
 11
621.900001
 21
139.180195
  0
LINE
  8
CSLAYER1
  6
CONTINUOUS
 62
     7
 10
636.562501
 20
143.572504
 11
636.562495
 21
122.792693
  0
LINE
  8
CSLAYER1
  6
CONTINUOUS
 62
     7
 10
636.562501
 20
143.572504
 11
627.616352
 21
143.572504
  0
LINE
  8
CSLAYER1
  6
CONTINUOUS
 62
     7
 10
626.812501
 20
142.180193
 11
626.812501
 21
124.180193
  0
LINE
  8
CSLAYER1
  6
CONTINUOUS
 62
     7
 10
636.562495
 20
122.792693
 11
627.613575
 21
122.792693
  0
LINE
  8
CSLAYER1
  6
CONTINUOUS
 62
     7
 10
626.812501
 20
124.180193
 11
627.613575
 21
122.792693
  0
LINE
  8
CSLAYER1
  6
CONTINUOUS
 62
     7
 10
626.812501
 20
142.180193
 11
627.613575
 21
143.567693
  0
ARC
  8
CSLAYER1
  6
CONTINUOUS
 62
     7
 10
630.216844
 20
124.986443
 40
3.404343
 50
139.879485
 51
220.120515
  0
ARC
  8
CSLAYER1
  6
CONTINUOUS
 62
     7
 10
649.682886
 20
133.180193
 40
22.870385
 50
164.790570
 51
195.209430
  0
ARC
  8
CSLAYER1
  6
CONTINUOUS
 62
     7
 10
630.216844
 20
141.373943
 40
3.404343
 50
139.879485
 51
220.120515
  0
LINE
  8
CSLAYER1
  6
CONTINUOUS
 62
     7
 10
627.613575
 20
127.180193
 11
636.562497
 21
127.180193
  0
LINE
  8
CSLAYER1
  6
CONTINUOUS
 62
     7
 10
627.613575
 20
139.180193
 11
636.562500
 21
139.180193
  0
LINE
  8
CSLAYER1
  6
CONTINUOUS
 62
     7
 10
626.812501
 20
127.993945
 11
621.086251
 21
127.993945
  0
LINE
  8
CSLAYER1
  6
CONTINUOUS
 62
     7
 10
626.812501
 20
138.366445
 11
621.086251
 21
138.366445
  0
LINE
  8
CSLAYER1
  6
CONTINUOUS
 62
     7
 10
626.812501
 20
139.180195
 11
621.900001
 21
139.180195
  0
LINE
  8
CSLAYER1
  6
CENTER
 62
     2
 10
683.999998
 20
133.180195
 11
617.250001
 21
133.180195
  0
LINE
  8
CSLAYER1
  6
CENTER
 62
     2
 10
361.874998
 20
778.500000
 11
361.874998
 21
1442.250000
  0
LINE
  8
CSLAYER1
  6
CENTER
 62
     2
 10
29.999998
 20
1110.375000
 11
802.874998
 21
1110.375000
  0
CIRCLE
  8
CSLAYER1
  6
CONTINUOUS
 62
     7
 10
361.874998
 20
1110.375000
 40
234.375000
  0
CIRCLE
  8
CSLAYER1
  6
CONTINUOUS
 62
     7
 10
361.874998
 20
1110.375000
 40
271.875000
  0
ARC
  8
CSLAYER1
  6
CONTINUOUS
 62
     7
 10
361.874998
 20
1110.375000
 40
316.875000
 50
10.569726
 51
349.430274
  0
CIRCLE
  8
CSLAYER1
  6
CENTER
 62
     2
 10
361.874998
 20
1110.375000
 40
211.875000
  0
CIRCLE
  8
CSLAYER1
  6
CENTER
 62
     2
 10
361.874998
 20
1110.375000
 40
294.750000
  0
CIRCLE
  8
CSLAYER1
  6
CONTINUOUS
 62
     7
 10
361.874998
 20
1110.375000
 40
168.750000
  0
LINE
  8
CSLAYER1
  6
CONTINUOUS
 62
     7
 10
662.062498
 20
1052.250000
 11
677.999998
 21
1052.250000
  0
LINE
  8
CSLAYER1
  6
CONTINUOUS
 62
     7
 10
662.062498
 20
1052.250000
 11
662.062498
 21
1110.375000
  0
LINE
  8
CSLAYER1
  6
CONTINUOUS
 62
     7
 10
678.749998
 20
1110.375000
 11
678.749998
 21
1052.250000
  0
LINE
  8
CSLAYER1
  6
CONTINUOUS
 62
     7
 10
639.056826
 20
1078.125000
 11
646.500001
 21
1078.125000
  0
LINE
  8
CSLAYER1
  6
CONTINUOUS
 62
     7
 10
677.999998
 20
1052.250000
 11
678.749998
 21
1053.000000
  0
LINE
  8
CSLAYER1
  6
CONTINUOUS
 62
     7
 10
662.062498
 20
1168.500000
 11
677.999998
 21
1168.500000
  0
LINE
  8
CSLAYER1
  6
CONTINUOUS
 62
     7
 10
662.062498
 20
1168.500000
 11
662.062498
 21
1167.375000
  0
LINE
  8
CSLAYER1
  6
CONTINUOUS
 62
     7
 10
678.749998
 20
1110.375000
 11
678.749998
 21
1168.500000
  0
LINE
  8
CSLAYER1
  6
CONTINUOUS
 62
     7
 10
639.056826
 20
1142.625000
 11
646.500001
 21
1142.625000
  0
LINE
  8
CSLAYER1
  6
CONTINUOUS
 62
     7
 10
677.999998
 20
1168.500000
 11
678.749998
 21
1167.750000
  0
LINE
  8
CSLAYER1
  6
CENTER
 62
     2
 10
709.499998
 20
1142.194805
 11
642.750001
 21
1142.194805
  0
LINE
  8
CSLAYER1
  6
CONTINUOUS
 62
     7
 10
680.249998
 20
1168.500000
 11
678.749998
 21
1168.500000
  0
LINE
  8
CSLAYER1
  6
CONTINUOUS
 62
     7
 10
680.249998
 20
1052.250000
 11
678.749998
 21
1052.250000
  0
LINE
  8
CSLAYER1
  6
CONTINUOUS
 62
     7
 10
680.249998
 20
1052.250000
 11
680.249998
 21
1168.500000
  0
LINE
  8
CSLAYER1
  6
CONTINUOUS
 62
     7
 10
695.249998
 20
1152.582305
 11
695.249998
 21
1131.694805
  0
LINE
  8
CSLAYER1
  6
CONTINUOUS
 62
     7
 10
681.749998
 20
1168.125000
 11
681.749998
 21
1052.625000
  0
LINE
  8
CSLAYER1
  6
CONTINUOUS
 62
     7
 10
682.124998
 20
1052.250000
 11
693.749998
 21
1052.250000
  0
LINE
  8
CSLAYER1
  6
CONTINUOUS
 62
     7
 10
695.249998
 20
1053.750000
 11
695.249998
 21
1167.000000
  0
LINE
  8
CSLAYER1
  6
CONTINUOUS
 62
     7
 10
693.749998
 20
1168.500000
 11
682.124998
 21
1168.500000
  0
LINE
  8
CSLAYER1
  6
CONTINUOUS
 62
     7
 10
681.749998
 20
1146.375000
 11
680.249998
 21
1146.375000
  0
LINE
  8
CSLAYER1
  6
CONTINUOUS
 62
     7
 10
680.249998
 20
1074.375000
 11
681.749998
 21
1074.375000
  0
LINE
  8
CSLAYER1
  6
CONTINUOUS
 62
     7
 10
701.999998
 20
1131.895767
 11
701.999998
 21
1088.854233
  0
ARC
  8
CSLAYER1
  6
CONTINUOUS
 62
     7
 10
693.749998
 20
1167.000000
 40
1.500000
 50
0.000000
 51
90.000000
  0
ARC
  8
CSLAYER1
  6
CONTINUOUS
 62
     7
 10
693.749998
 20
1053.750000
 40
1.500000
 50
270.000000
 51
360.000000
  0
LINE
  8
CSLAYER1
  6
CONTINUOUS
 62
     7
 10
682.124998
 20
1168.500000
 11
681.749998
 21
1168.125000
  0
LINE
  8
CSLAYER1
  6
CONTINUOUS
 62
     7
 10
681.749998
 20
1052.625000
 11
682.124998
 21
1052.250000
  0
LINE
  8
CSLAYER1
  6
CONTINUOUS
 62
     7
 10
719.249998
 20
1136.250000
 11
719.249998
 21
1084.500000
  0
LINE
  8
CSLAYER1
  6
CONTINUOUS
 62
     7
 10
719.249998
 20
1084.500000
 11
761.999998
 21
1084.500000
  0
LINE
  8
CSLAYER1
  6
CONTINUOUS
 62
     7
 10
719.249998
 20
1136.250000
 11
761.999998
 21
1136.250000
  0
LINE
  8
CSLAYER1
  6
CONTINUOUS
 62
     7
 10
713.714998
 20
1088.019750
 11
719.249998
 21
1089.111252
  0
LINE
  8
CSLAYER1
  6
CONTINUOUS
 62
     7
 10
702.481787
 20
1088.019750
 11
719.249998
 21
1088.019750
  0
LINE
  8
CSLAYER1
  6
CONTINUOUS
 62
     7
 10
707.534998
 20
1088.019750
 11
701.999998
 21
1089.111252
  0
LINE
  8
CSLAYER1
  6
CONTINUOUS
 62
     7
 10
713.714998
 20
1132.730250
 11
719.249998
 21
1131.638748
  0
LINE
  8
CSLAYER1
  6
CONTINUOUS
 62
     7
 10
702.481787
 20
1132.730250
 11
719.249998
 21
1132.730250
  0
LINE
  8
CSLAYER1
  6
CONTINUOUS
 62
     7
 10
707.534998
 20
1132.730250
 11
701.999998
 21
1131.638748
  0
LINE
  8
CSLAYER1
  6
CONTINUOUS
 62
     7
 10
702.749998
 20
1133.194805
 11
701.948925
 21
1131.807305
  0
LINE
  8
CSLAYER1
  6
CONTINUOUS
 62
     7
 10
702.749998
 20
1151.194805
 11
701.948925
 21
1152.582305
  0
LINE
  8
CSLAYER1
  6
CONTINUOUS
 62
     7
 10
701.948925
 20
1152.582305
 11
695.249998
 21
1152.582305
  0
LINE
  8
CSLAYER1
  6
CONTINUOUS
 62
     7
 10
695.249998
 20
1152.582305
 11
695.249998
 21
1131.694805
  0
LINE
  8
CSLAYER1
  6
CONTINUOUS
 62
     7
 10
695.249998
 20
1131.807305
 11
701.948925
 21
1131.807305
  0
LINE
  8
CSLAYER1
  6
CONTINUOUS
 62
     7
 10
702.749998
 20
1133.194805
 11
702.749998
 21
1151.194805
  0
ARC
  8
CSLAYER1
  6
CONTINUOUS
 62
     7
 10
698.140260
 20
1134.404180
 40
4.609738
 50
-34.287473
 51
34.287473
  0
ARC
  8
CSLAYER1
  6
CONTINUOUS
 62
     7
 10
685.512655
 20
1142.194805
 40
17.237343
 50
-17.536184
 51
17.536184
  0
ARC
  8
CSLAYER1
  6
CONTINUOUS
 62
     7
 10
698.140260
 20
1149.985430
 40
4.609738
 50
-34.287473
 51
34.287473
  0
LINE
  8
CSLAYER1
  6
CONTINUOUS
 62
     7
 10
701.948925
 20
1137.001055
 11
695.249998
 21
1137.001055
  0
LINE
  8
CSLAYER1
  6
CONTINUOUS
 62
     7
 10
701.948925
 20
1147.388555
 11
695.249998
 21
1147.388555
  0
LINE
  8
CSLAYER1
  6
CONTINUOUS
 62
     7
 10
647.400001
 20
1148.194805
 11
652.312501
 21
1148.194805
  0
LINE
  8
CSLAYER1
  6
CONTINUOUS
 62
     7
 10
646.500001
 20
1137.094805
 11
646.500001
 21
1147.294805
  0
LINE
  8
CSLAYER1
  6
CONTINUOUS
 62
     7
 10
647.400001
 20
1148.194805
 11
646.500001
 21
1147.294805
  0
LINE
  8
CSLAYER1
  6
CONTINUOUS
 62
     7
 10
647.400001
 20
1136.194805
 11
646.500001
 21
1137.094805
  0
LINE
  8
CSLAYER1
  6
CONTINUOUS
 62
     7
 10
647.400001
 20
1148.194805
 11
647.400001
 21
1136.194805
  0
LINE
  8
CSLAYER1
  6
CONTINUOUS
 62
     7
 10
662.062501
 20
1131.802496
 11
662.062495
 21
1152.582307
  0
LINE
  8
CSLAYER1
  6
CONTINUOUS
 62
     7
 10
662.062501
 20
1131.802496
 11
653.116352
 21
1131.802496
  0
LINE
  8
CSLAYER1
  6
CONTINUOUS
 62
     7
 10
652.312501
 20
1133.194807
 11
652.312501
 21
1151.194807
  0
LINE
  8
CSLAYER1
  6
CONTINUOUS
 62
     7
 10
662.062495
 20
1152.582307
 11
653.113575
 21
1152.582307
  0
LINE
  8
CSLAYER1
  6
CONTINUOUS
 62
     7
 10
652.312501
 20
1151.194807
 11
653.113575
 21
1152.582307
  0
LINE
  8
CSLAYER1
  6
CONTINUOUS
 62
     7
 10
652.312501
 20
1133.194807
 11
653.113575
 21
1131.807307
  0
ARC
  8
CSLAYER1
  6
CONTINUOUS
 62
     7
 10
655.716844
 20
1150.388557
 40
3.404343
 50
139.879485
 51
220.120515
  0
ARC
  8
CSLAYER1
  6
CONTINUOUS
 62
     7
 10
675.182886
 20
1142.194807
 40
22.870385
 50
164.790570
 51
195.209430
  0
ARC
  8
CSLAYER1
  6
CONTINUOUS
 62
     7
 10
655.716844
 20
1134.001057
 40
3.404343
 50
139.879485
 51
220.120515
  0
LINE
  8
CSLAYER1
  6
CONTINUOUS
 62
     7
 10
653.113575
 20
1148.194807
 11
662.062497
 21
1148.194807
  0
LINE
  8
CSLAYER1
  6
CONTINUOUS
 62
     7
 10
653.113575
 20
1136.194807
 11
662.062500
 21
1136.194807
  0
LINE
  8
CSLAYER1
  6
CONTINUOUS
 62
     7
 10
652.312501
 20
1147.381055
 11
646.586251
 21
1147.381055
  0
LINE
  8
CSLAYER1
  6
CONTINUOUS
 62
     7
 10
652.312501
 20
1137.008555
 11
646.586251
 21
1137.008555
  0
LINE
  8
CSLAYER1
  6
CONTINUOUS
 62
     7
 10
652.312501
 20
1136.194805
 11
647.400001
 21
1136.194805
  0
LINE
  8
CSLAYER1
  6
CONTINUOUS
 62
     7
 10
662.062498
 20
1167.375000
 11
662.062498
 21
1110.375000
  0
LINE
  8
CSLAYER1
  6
CONTINUOUS
 62
     7
 10
695.249998
 20
1068.167695
 11
695.249998
 21
1089.055195
  0
LINE
  8
CSLAYER1
  6
CONTINUOUS
 62
     7
 10
702.749998
 20
1087.555195
 11
701.948925
 21
1088.942695
  0
LINE
  8
CSLAYER1
  6
CONTINUOUS
 62
     7
 10
702.749998
 20
1069.555195
 11
701.948925
 21
1068.167695
  0
LINE
  8
CSLAYER1
  6
CONTINUOUS
 62
     7
 10
701.948925
 20
1068.167695
 11
695.249998
 21
1068.167695
  0
LINE
  8
CSLAYER1
  6
CONTINUOUS
 62
     7
 10
695.249998
 20
1068.167695
 11
695.249998
 21
1089.055195
  0
LINE
  8
CSLAYER1
  6
CONTINUOUS
 62
     7
 10
695.249998
 20
1088.942695
 11
701.948925
 21
1088.942695
  0
LINE
  8
CSLAYER1
  6
CONTINUOUS
 62
     7
 10
702.749998
 20
1087.555195
 11
702.749998
 21
1069.555195
  0
ARC
  8
CSLAYER1
  6
CONTINUOUS
 62
     7
 10
698.140260
 20
1086.345820
 40
4.609738
 50
-34.287473
 51
34.287473
  0
ARC
  8
CSLAYER1
  6
CONTINUOUS
 62
     7
 10
685.512655
 20
1078.555195
 40
17.237343
 50
-17.536184
 51
17.536184
  0
ARC
  8
CSLAYER1
  6
CONTINUOUS
 62
     7
 10
698.140260
 20
1070.764570
 40
4.609738
 50
-34.287473
 51
34.287473
  0
LINE
  8
CSLAYER1
  6
CONTINUOUS
 62
     7
 10
701.948925
 20
1083.748945
 11
695.249998
 21
1083.748945
  0
LINE
  8
CSLAYER1
  6
CONTINUOUS
 62
     7
 10
701.948925
 20
1073.361445
 11
695.249998
 21
1073.361445
  0
LINE
  8
CSLAYER1
  6
CONTINUOUS
 62
     7
 10
647.400001
 20
1072.555195
 11
652.312501
 21
1072.555195
  0
LINE
  8
CSLAYER1
  6
CONTINUOUS
 62
     7
 10
646.500001
 20
1083.655195
 11
646.500001
 21
1073.455195
  0
LINE
  8
CSLAYER1
  6
CONTINUOUS
 62
     7
 10
647.400001
 20
1072.555195
 11
646.500001
 21
1073.455195
  0
LINE
  8
CSLAYER1
  6
CONTINUOUS
 62
     7
 10
647.400001
 20
1084.555195
 11
646.500001
 21
1083.655195
  0
LINE
  8
CSLAYER1
  6
CONTINUOUS
 62
     7
 10
647.400001
 20
1072.555195
 11
647.400001
 21
1084.555195
  0
LINE
  8
CSLAYER1
  6
CONTINUOUS
 62
     7
 10
662.062501
 20
1088.947504
 11
662.062495
 21
1068.167693
  0
LINE
  8
CSLAYER1
  6
CONTINUOUS
 62
     7
 10
662.062501
 20
1088.947504
 11
653.116352
 21
1088.947504
  0
LINE
  8
CSLAYER1
  6
CONTINUOUS
 62
     7
 10
652.312501
 20
1087.555193
 11
652.312501
 21
1069.555193
  0
LINE
  8
CSLAYER1
  6
CONTINUOUS
 62
     7
 10
662.062495
 20
1068.167693
 11
653.113575
 21
1068.167693
  0
LINE
  8
CSLAYER1
  6
CONTINUOUS
 62
     7
 10
652.312501
 20
1069.555193
 11
653.113575
 21
1068.167693
  0
LINE
  8
CSLAYER1
  6
CONTINUOUS
 62
     7
 10
652.312501
 20
1087.555193
 11
653.113575
 21
1088.942693
  0
ARC
  8
CSLAYER1
  6
CONTINUOUS
 62
     7
 10
655.716844
 20
1070.361443
 40
3.404343
 50
139.879485
 51
220.120515
  0
ARC
  8
CSLAYER1
  6
CONTINUOUS
 62
     7
 10
675.182886
 20
1078.555193
 40
22.870385
 50
164.790570
 51
195.209430
  0
ARC
  8
CSLAYER1
  6
CONTINUOUS
 62
     7
 10
655.716844
 20
1086.748943
 40
3.404343
 50
139.879485
 51
220.120515
  0
LINE
  8
CSLAYER1
  6
CONTINUOUS
 62
     7
 10
653.113575
 20
1072.555193
 11
662.062497
 21
1072.555193
  0
LINE
  8
CSLAYER1
  6
CONTINUOUS
 62
     7
 10
653.113575
 20
1084.555193
 11
662.062500
 21
1084.555193
  0
LINE
  8
CSLAYER1
  6
CONTINUOUS
 62
     7
 10
652.312501
 20
1073.368945
 11
646.586251
 21
1073.368945
  0
LINE
  8
CSLAYER1
  6
CONTINUOUS
 62
     7
 10
652.312501
 20
1083.741445
 11
646.586251
 21
1083.741445
  0
LINE
  8
CSLAYER1
  6
CONTINUOUS
 62
     7
 10
652.312501
 20
1084.555195
 11
647.400001
 21
1084.555195
  0
LINE
  8
CSLAYER1
  6
CENTER
 62
     2
 10
709.499998
 20
1078.555195
 11
642.750001
 21
1078.555195
  0
ARC
  8
CSLAYER1
  6
CONTINUOUS
 62
     7
 10
639.056826
 20
1150.875000
 40
8.250000
 50
188.312861
 51
270.000000
  0
ARC
  8
CSLAYER1
  6
CONTINUOUS
 62
     7
 10
639.056826
 20
1069.875000
 40
8.250000
 50
90.000000
 51
171.687139
  0
ARC
  8
CSLAYER1
  6
CONTINUOUS
 62
     7
 10
761.999998
 20
1110.375000
 40
25.875000
 50
-90.000000
 51
90.000000
  0
LINE
  8
CSLAYER1
  6
CONTINUOUS
 62
     7
 10
752.999998
 20
1003.175243
 11
770.999998
 21
1003.175243
  0
LINE
  8
CSLAYER1
  6
CONTINUOUS
 62
     7
 10
713.713484
 20
994.925243
 11
810.286558
 21
994.925243
  0
LINE
  8
CSLAYER1
  6
CONTINUOUS
 62
     7
 10
771.432358
 20
994.925183
 11
770.999998
 21
1003.175168
  0
LINE
  8
CSLAYER1
  6
CONTINUOUS
 62
     7
 10
788.137558
 20
994.925205
 11
771.117988
 21
1000.925205
  0
LINE
  8
CSLAYER1
  6
CONTINUOUS
 62
     7
 10
713.483824
 20
992.300243
 11
810.516171
 21
992.300243
  0
LINE
  8
CSLAYER1
  6
CONTINUOUS
 62
     7
 10
810.286498
 20
994.925228
 11
810.516163
 21
992.300220
  0
LINE
  8
CSLAYER1
  6
CONTINUOUS
 62
     7
 10
795.732223
 20
994.925220
 11
795.961888
 21
992.300220
  0
LINE
  8
CSLAYER1
  6
CONTINUOUS
 62
     7
 10
769.499998
 20
989.300243
 11
780.894688
 21
989.300243
  0
LINE
  8
CSLAYER1
  6
CONTINUOUS
 62
     7
 10
768.749998
 20
987.987743
 11
781.644688
 21
987.987743
  0
LINE
  8
CSLAYER1
  6
CONTINUOUS
 62
     7
 10
768.572571
 20
984.500243
 11
780.144688
 21
984.500243
  0
LINE
  8
CSLAYER1
  6
CONTINUOUS
 62
     7
 10
781.644688
 20
986.000243
 11
781.644688
 21
988.550243
  0
LINE
  8
CSLAYER1
  6
CONTINUOUS
 62
     7
 10
752.567616
 20
994.925310
 11
752.999976
 21
1003.175310
  0
LINE
  8
CSLAYER1
  6
CONTINUOUS
 62
     7
 10
735.862558
 20
994.925265
 11
752.882136
 21
1000.925265
  0
LINE
  8
CSLAYER1
  6
CONTINUOUS
 62
     7
 10
767.342923
 20
981.912735
 11
781.891971
 21
981.912735
  0
LINE
  8
CSLAYER1
  6
CONTINUOUS
 62
     7
 10
795.556303
 20
989.300243
 11
799.410928
 21
989.300243
  0
LINE
  8
CSLAYER1
  6
CONTINUOUS
 62
     7
 10
795.317736
 20
987.987743
 11
800.160928
 21
987.987743
  0
LINE
  8
CSLAYER1
  6
CONTINUOUS
 62
     7
 10
794.367606
 20
984.500243
 11
798.660928
 21
984.500243
  0
LINE
  8
CSLAYER1
  6
CONTINUOUS
 62
     7
 10
800.160928
 20
986.000243
 11
800.160928
 21
988.550243
  0
LINE
  8
CSLAYER1
  6
CONTINUOUS
 62
     7
 10
792.771778
 20
981.912735
 11
796.446253
 21
981.912735
  0
LINE
  8
CSLAYER1
  6
CONTINUOUS
 62
     7
 10
768.749998
 20
986.037735
 11
768.749998
 21
988.550243
  0
LINE
  8
CSLAYER1
  6
CONTINUOUS
 62
     7
 10
713.713506
 20
994.925250
 11
713.483847
 21
992.300243
  0
LINE
  8
CSLAYER1
  6
CONTINUOUS
 62
     7
 10
728.267788
 20
994.925228
 11
728.038131
 21
992.300250
  0
LINE
  8
CSLAYER1
  6
CONTINUOUS
 62
     7
 10
754.499998
 20
989.300243
 11
743.105308
 21
989.300243
  0
LINE
  8
CSLAYER1
  6
CONTINUOUS
 62
     7
 10
755.249998
 20
987.987743
 11
742.355308
 21
987.987743
  0
LINE
  8
CSLAYER1
  6
CONTINUOUS
 62
     7
 10
755.427426
 20
984.500243
 11
743.855308
 21
984.500243
  0
LINE
  8
CSLAYER1
  6
CONTINUOUS
 62
     7
 10
742.355308
 20
986.000243
 11
742.355308
 21
988.550243
  0
LINE
  8
CSLAYER1
  6
CONTINUOUS
 62
     7
 10
756.657073
 20
981.912735
 11
742.108026
 21
981.912735
  0
LINE
  8
CSLAYER1
  6
CONTINUOUS
 62
     7
 10
728.443693
 20
989.300243
 11
724.589068
 21
989.300243
  0
LINE
  8
CSLAYER1
  6
CONTINUOUS
 62
     7
 10
728.682261
 20
987.987743
 11
723.839068
 21
987.987743
  0
LINE
  8
CSLAYER1
  6
CONTINUOUS
 62
     7
 10
729.632391
 20
984.500243
 11
725.339068
 21
984.500243
  0
LINE
  8
CSLAYER1
  6
CONTINUOUS
 62
     7
 10
723.839068
 20
986.000243
 11
723.839068
 21
988.550243
  0
LINE
  8
CSLAYER1
  6
CONTINUOUS
 62
     7
 10
731.228218
 20
981.912735
 11
727.553743
 21
981.912735
  0
LINE
  8
CSLAYER1
  6
CONTINUOUS
 62
     7
 10
755.249998
 20
986.037735
 11
755.249998
 21
988.550243
  0
LINE
  8
CSLAYER1
  6
CONTINUOUS
 62
     7
 10
747.749998
 20
1013.625000
 11
776.249998
 21
1013.625000
  0
LINE
  8
CSLAYER1
  6
CONTINUOUS
 62
     7
 10
747.749998
 20
1030.500000
 11
776.249998
 21
1030.500000
  0
LINE
  8
CSLAYER1
  6
CONTINUOUS
 62
     7
 10
767.624998
 20
1003.175243
 11
767.624998
 21
1013.625000
  0
LINE
  8
CSLAYER1
  6
CONTINUOUS
 62
     7
 10
756.374998
 20
1003.175243
 11
756.374998
 21
1013.625000
  0
LINE
  8
CSLAYER1
  6
CONTINUOUS
 62
     7
 10
776.249998
 20
1013.625000
 11
776.249998
 21
1030.500000
  0
LINE
  8
CSLAYER1
  6
CONTINUOUS
 62
     7
 10
747.749998
 20
1013.625000
 11
747.749998
 21
1030.500000
  0
LINE
  8
CSLAYER1
  6
CONTINUOUS
 62
     7
 10
761.999998
 20
1013.625000
 11
761.999998
 21
1030.500000
  0
LINE
  8
CSLAYER1
  6
CENTER
 62
     7
 10
761.999998
 20
975.537735
 11
761.999998
 21
1146.375000
  0
LINE
  8
CSLAYER1
  6
CONTINUOUS
 62
     7
 10
736.124998
 20
1072.125000
 11
787.874998
 21
1072.125000
  0
LINE
  8
CSLAYER1
  6
CONTINUOUS
 62
     7
 10
736.124998
 20
1075.500000
 11
787.874998
 21
1075.500000
  0
LINE
  8
CSLAYER1
  6
CONTINUOUS
 62
     7
 10
787.874998
 20
1069.274357
 11
787.874998
 21
1075.500000
  0
LINE
  8
CSLAYER1
  6
CONTINUOUS
 62
     7
 10
787.124998
 20
1075.500000
 11
787.124998
 21
1077.156270
  0
LINE
  8
CSLAYER1
  6
CONTINUOUS
 62
     7
 10
736.874998
 20
1075.500000
 11
736.874998
 21
1077.156270
  0
LINE
  8
CSLAYER1
  6
CONTINUOUS
 62
     7
 10
779.249998
 20
1067.655036
 11
787.874998
 21
1069.274355
  0
LINE
  8
CSLAYER1
  6
CONTINUOUS
 62
     7
 10
736.124998
 20
1069.274311
 11
736.124998
 21
1075.500000
  0
LINE
  8
CSLAYER1
  6
CONTINUOUS
 62
     7
 10
744.749998
 20
1067.654995
 11
736.124998
 21
1069.274314
  0
LINE
  8
CSLAYER1
  6
CONTINUOUS
 62
     7
 10
789.749998
 20
1094.353535
 11
789.749998
 21
1126.396466
  0
LINE
  8
CSLAYER1
  6
CONTINUOUS
 62
     7
 10
751.316810
 20
1136.250000
 11
761.999998
 21
1142.417943
  0
LINE
  8
CSLAYER1
  6
CONTINUOUS
 62
     7
 10
762.000013
 20
1078.332067
 11
789.749998
 21
1094.353532
  0
LINE
  8
CSLAYER1
  6
CONTINUOUS
 62
     7
 10
762.000013
 20
1142.417934
 11
789.749998
 21
1126.396469
  0
LINE
  8
CSLAYER1
  6
CONTINUOUS
 62
     7
 10
751.316810
 20
1084.500000
 11
761.999998
 21
1078.332058
  0
LINE
  8
CSLAYER1
  6
CONTINUOUS
 62
     7
 10
779.249998
 20
1059.027753
 11
779.249998
 21
1067.655018
  0
LINE
  8
CSLAYER1
  6
CONTINUOUS
 62
     7
 10
744.749998
 20
1059.027753
 11
744.749998
 21
1067.655007
  0
LINE
  8
CSLAYER1
  6
CONTINUOUS
 62
     7
 10
744.749998
 20
1059.027753
 11
779.249998
 21
1059.027753
  0
LINE
  8
CSLAYER1
  6
CONTINUOUS
 62
     7
 10
744.749998
 20
1067.655007
 11
779.249998
 21
1067.655018
  0
LINE
  8
CSLAYER1
  6
CONTINUOUS
 62
     7
 10
761.999998
 20
1059.027753
 11
761.999998
 21
1067.655018
  0
LINE
  8
CSLAYER1
  6
CONTINUOUS
 62
     7
 10
736.124998
 20
1069.274314
 11
787.874998
 21
1069.274360
  0
LINE
  8
CSLAYER1
  6
CONTINUOUS
 62
     7
 10
773.624998
 20
1034.250000
 11
773.624998
 21
1051.765904
  0
LINE
  8
CSLAYER1
  6
CONTINUOUS
 62
     7
 10
750.374998
 20
1034.250000
 11
750.374998
 21
1051.765904
  0
LINE
  8
CSLAYER1
  6
CONTINUOUS
 62
     7
 10
749.999998
 20
1034.250000
 11
773.999998
 21
1034.250000
  0
LINE
  8
CSLAYER1
  6
CONTINUOUS
 62
     7
 10
773.999998
 20
1030.500000
 11
773.999998
 21
1034.250000
  0
LINE
  8
CSLAYER1
  6
CONTINUOUS
 62
     7
 10
749.999998
 20
1030.500000
 11
749.999998
 21
1034.250000
  0
LINE
  8
CSLAYER1
  6
CONTINUOUS
 62
     7
 10
773.624998
 20
1030.500000
 11
773.624998
 21
1034.250000
  0
LINE
  8
CSLAYER1
  6
CONTINUOUS
 62
     7
 10
750.374998
 20
1030.500000
 11
750.374998
 21
1034.250000
  0
ARC
  8
CSLAYER1
  6
CONTINUOUS
 62
     7
 10
762.769761
 20
997.227758
 40
48.000000
 50
346.741927
 51
354.107831
  0
ARC
  8
CSLAYER1
  6
CONTINUOUS
 62
     7
 10
799.345648
 20
988.620458
 40
10.425000
 50
316.103283
 51
346.685099
  0
ARC
  8
CSLAYER1
  6
CONTINUOUS
 62
     7
 10
801.880521
 20
986.225235
 40
6.937500
 50
218.434660
 51
315.849702
  0
ARC
  8
CSLAYER1
  6
CONTINUOUS
 62
     7
 10
748.215478
 20
997.227758
 40
48.000000
 50
346.741927
 51
354.107831
  0
ARC
  8
CSLAYER1
  6
CONTINUOUS
 62
     7
 10
784.791366
 20
988.620458
 40
10.425000
 50
316.103283
 51
346.685099
  0
ARC
  8
CSLAYER1
  6
CONTINUOUS
 62
     7
 10
787.326231
 20
986.225235
 40
6.937500
 50
218.434660
 51
315.849702
  0
ARC
  8
CSLAYER1
  6
CONTINUOUS
 62
     7
 10
780.144688
 20
986.000243
 40
1.500000
 50
270.000018
 51
360.000000
  0
ARC
  8
CSLAYER1
  6
CONTINUOUS
 62
     7
 10
780.894688
 20
988.550243
 40
0.750000
 50
0.000000
 51
89.999980
  0
ARC
  8
CSLAYER1
  6
CONTINUOUS
 62
     7
 10
798.660928
 20
986.000243
 40
1.500000
 50
270.000018
 51
360.000000
  0
ARC
  8
CSLAYER1
  6
CONTINUOUS
 62
     7
 10
799.410928
 20
988.550243
 40
0.750000
 50
0.000000
 51
89.999980
  0
ARC
  8
CSLAYER1
  6
CONTINUOUS
 62
     7
 10
761.999998
 20
986.037735
 40
6.750000
 50
179.999980
 51
360.000000
  0
ARC
  8
CSLAYER1
  6
CONTINUOUS
 62
     7
 10
769.499998
 20
988.550243
 40
0.750000
 50
90.000000
 51
179.999980
  0
ARC
  8
CSLAYER1
  6
CONTINUOUS
 62
     7
 10
761.230236
 20
997.227758
 40
48.000000
 50
185.892190
 51
193.258090
  0
ARC
  8
CSLAYER1
  6
CONTINUOUS
 62
     7
 10
724.654348
 20
988.620458
 40
10.425000
 50
193.314920
 51
223.896730
  0
ARC
  8
CSLAYER1
  6
CONTINUOUS
 62
     7
 10
722.119476
 20
986.225235
 40
6.937500
 50
224.150320
 51
321.565341
  0
ARC
  8
CSLAYER1
  6
CONTINUOUS
 62
     7
 10
775.784518
 20
997.227758
 40
48.000000
 50
185.892190
 51
193.258090
  0
ARC
  8
CSLAYER1
  6
CONTINUOUS
 62
     7
 10
739.208631
 20
988.620458
 40
10.425000
 50
193.314920
 51
223.896730
  0
ARC
  8
CSLAYER1
  6
CONTINUOUS
 62
     7
 10
736.673766
 20
986.225235
 40
6.937500
 50
224.150320
 51
321.565341
  0
ARC
  8
CSLAYER1
  6
CONTINUOUS
 62
     7
 10
743.855308
 20
986.000243
 40
1.500000
 50
179.999980
 51
269.999963
  0
ARC
  8
CSLAYER1
  6
CONTINUOUS
 62
     7
 10
743.105308
 20
988.550243
 40
0.750000
 50
90.000000
 51
179.999980
  0
ARC
  8
CSLAYER1
  6
CONTINUOUS
 62
     7
 10
725.339068
 20
986.000243
 40
1.500000
 50
179.999980
 51
269.999963
  0
ARC
  8
CSLAYER1
  6
CONTINUOUS
 62
     7
 10
724.589068
 20
988.550243
 40
0.750000
 50
90.000000
 51
179.999980
  0
ARC
  8
CSLAYER1
  6
CONTINUOUS
 62
     7
 10
754.499998
 20
988.550243
 40
0.750000
 50
0.000020
 51
89.999980
  0
ARC
  8
CSLAYER1
  6
CONTINUOUS
 62
     7
 10
781.124998
 20
1051.765904
 40
7.500000
 50
104.477490
 51
180.000040
  0
ARC
  8
CSLAYER1
  6
CONTINUOUS
 62
     7
 10
761.999998
 20
1110.375000
 40
32.250000
 50
-24.211583
 51
126.647244
  0
ARC
  8
CSLAYER1
  6
CONTINUOUS
 62
     7
 10
835.874998
 20
1077.156270
 40
48.750000
 50
155.788370
 51
180.000020
  0
ARC
  8
CSLAYER1
  6
CONTINUOUS
 62
     7
 10
688.124998
 20
1077.156270
 40
48.750000
 50
0.000010
 51
8.664054
  0
ARC
  8
CSLAYER1
  6
CONTINUOUS
 62
     7
 10
742.874998
 20
1051.765904
 40
7.500000
 50
-0.000036
 51
75.522490
  0
LINE
  8
CSLAYER1
  6
CENTER
 62
     2
 10
170.016538
 20
1079.987606
 11
135.200524
 21
1074.473291
  0
CIRCLE
  8
CSLAYER1
  6
CONTINUOUS
 62
     7
 10
152.608531
 20
1077.230448
 40
10.125000
  0
LINE
  8
CSLAYER1
  6
CENTER
 62
     2
 10
188.796981
 20
1022.187346
 11
157.389001
 21
1006.184181
  0
CIRCLE
  8
CSLAYER1
  6
CONTINUOUS
 62
     7
 10
173.092991
 20
1014.185763
 40
10.125000
  0
LINE
  8
CSLAYER1
  6
CENTER
 62
     2
 10
224.519506
 20
973.019508
 11
199.593992
 21
948.093994
  0
CIRCLE
  8
CSLAYER1
  6
CONTINUOUS
 62
     7
 10
212.056749
 20
960.556751
 40
10.125000
  0
LINE
  8
CSLAYER1
  6
CENTER
 62
     2
 10
331.487603
 20
918.516540
 11
325.973288
 21
883.700526
  0
CIRCLE
  8
CSLAYER1
  6
CONTINUOUS
 62
     7
 10
328.730446
 20
901.108533
 40
10.125000
  0
LINE
  8
CSLAYER1
  6
CENTER
 62
     2
 10
273.687344
 20
937.296983
 11
257.684179
 21
905.889003
  0
CIRCLE
  8
CSLAYER1
  6
CONTINUOUS
 62
     7
 10
265.685761
 20
921.592993
 40
10.125000
  0
LINE
  8
CSLAYER1
  6
CENTER
 62
     2
 10
87.120841
 20
1074.202929
 11
52.172410
 21
1069.601881
  0
CIRCLE
  8
CSLAYER1
  6
CONTINUOUS
 62
     7
 10
69.646625
 20
1071.902405
 40
13.500000
  0
LINE
  8
CSLAYER1
  6
CONTINUOUS
 62
     7
 10
75.612070
 20
1086.304262
 11
60.156974
 21
1084.269560
  0
LINE
  8
CSLAYER1
  6
CONTINUOUS
 62
     7
 10
60.156974
 20
1084.269560
 11
54.191529
 21
1069.867703
  0
LINE
  8
CSLAYER1
  6
CONTINUOUS
 62
     7
 10
54.191529
 20
1069.867703
 11
63.681181
 21
1057.500549
  0
LINE
  8
CSLAYER1
  6
CONTINUOUS
 62
     7
 10
63.681181
 20
1057.500549
 11
79.136277
 21
1059.535251
  0
LINE
  8
CSLAYER1
  6
CONTINUOUS
 62
     7
 10
79.136277
 20
1059.535251
 11
85.101721
 21
1073.937107
  0
LINE
  8
CSLAYER1
  6
CONTINUOUS
 62
     7
 10
85.101721
 20
1073.937107
 11
75.612070
 21
1086.304262
  0
LINE
  8
CSLAYER1
  6
CENTER
 62
     2
 10
105.844883
 20
1004.323854
 11
73.278129
 21
990.834263
  0
CIRCLE
  8
CSLAYER1
  6
CONTINUOUS
 62
     7
 10
89.561506
 20
997.579059
 40
13.500000
  0
LINE
  8
CSLAYER1
  6
CONTINUOUS
 62
     7
 10
101.928661
 20
988.089407
 11
87.526804
 21
982.123963
  0
LINE
  8
CSLAYER1
  6
CONTINUOUS
 62
     7
 10
87.526804
 20
982.123963
 11
75.159649
 21
991.613614
  0
LINE
  8
CSLAYER1
  6
CONTINUOUS
 62
     7
 10
75.159649
 20
991.613614
 11
77.194351
 21
1007.068710
  0
LINE
  8
CSLAYER1
  6
CONTINUOUS
 62
     7
 10
77.194351
 20
1007.068710
 11
91.596208
 21
1013.034155
  0
LINE
  8
CSLAYER1
  6
CONTINUOUS
 62
     7
 10
91.596208
 20
1013.034155
 11
103.963363
 21
1003.544503
  0
LINE
  8
CSLAYER1
  6
CONTINUOUS
 62
     7
 10
103.963363
 20
1003.544503
 11
101.928661
 21
988.089407
  0
LINE
  8
CSLAYER1
  6
CENTER
 62
     2
 10
142.016954
 20
941.671989
 11
114.051249
 21
920.213149
  0
CIRCLE
  8
CSLAYER1
  6
CONTINUOUS
 62
     7
 10
128.034101
 20
930.942569
 40
13.500000
  0
LINE
  8
CSLAYER1
  6
CONTINUOUS
 62
     7
 10
142.435958
 20
924.977125
 11
130.068803
 21
915.487473
  0
LINE
  8
CSLAYER1
  6
CONTINUOUS
 62
     7
 10
130.068803
 20
915.487473
 11
115.666946
 21
921.452918
  0
LINE
  8
CSLAYER1
  6
CONTINUOUS
 62
     7
 10
115.666946
 20
921.452918
 11
113.632245
 21
936.908013
  0
LINE
  8
CSLAYER1
  6
CONTINUOUS
 62
     7
 10
113.632245
 20
936.908013
 11
125.999399
 21
946.397665
  0
LINE
  8
CSLAYER1
  6
CONTINUOUS
 62
     7
 10
125.999399
 20
946.397665
 11
140.401256
 21
940.432221
  0
LINE
  8
CSLAYER1
  6
CONTINUOUS
 62
     7
 10
140.401256
 20
940.432221
 11
142.435958
 21
924.977125
  0
LINE
  8
CSLAYER1
  6
CENTER
 62
     2
 10
255.823852
 20
854.344885
 11
242.334261
 21
821.778131
  0
CIRCLE
  8
CSLAYER1
  6
CONTINUOUS
 62
     7
 10
249.079057
 20
838.061508
 40
13.500000
  0
LINE
  8
CSLAYER1
  6
CONTINUOUS
 62
     7
 10
264.534152
 20
840.096210
 11
258.568708
 21
825.694353
  0
LINE
  8
CSLAYER1
  6
CONTINUOUS
 62
     7
 10
258.568708
 20
825.694353
 11
243.113612
 21
823.659652
  0
LINE
  8
CSLAYER1
  6
CONTINUOUS
 62
     7
 10
243.113612
 20
823.659652
 11
233.623961
 21
836.026806
  0
LINE
  8
CSLAYER1
  6
CONTINUOUS
 62
     7
 10
233.623961
 20
836.026806
 11
239.589405
 21
850.428663
  0
LINE
  8
CSLAYER1
  6
CONTINUOUS
 62
     7
 10
239.589405
 20
850.428663
 11
255.044501
 21
852.463365
  0
LINE
  8
CSLAYER1
  6
CONTINUOUS
 62
     7
 10
255.044501
 20
852.463365
 11
264.534152
 21
840.096210
  0
LINE
  8
CSLAYER1
  6
CENTER
 62
     2
 10
193.171987
 20
890.516956
 11
171.713147
 21
862.551251
  0
CIRCLE
  8
CSLAYER1
  6
CONTINUOUS
 62
     7
 10
182.442567
 20
876.534103
 40
13.500000
  0
LINE
  8
CSLAYER1
  6
CONTINUOUS
 62
     7
 10
176.477123
 20
890.935960
 11
166.987471
 21
878.568805
  0
LINE
  8
CSLAYER1
  6
CONTINUOUS
 62
     7
 10
166.987471
 20
878.568805
 11
172.952915
 21
864.166949
  0
LINE
  8
CSLAYER1
  6
CONTINUOUS
 62
     7
 10
172.952915
 20
864.166949
 11
188.408011
 21
862.132247
  0
LINE
  8
CSLAYER1
  6
CONTINUOUS
 62
     7
 10
188.408011
 20
862.132247
 11
197.897663
 21
874.499401
  0
LINE
  8
CSLAYER1
  6
CONTINUOUS
 62
     7
 10
197.897663
 20
874.499401
 11
191.932219
 21
888.901258
  0
LINE
  8
CSLAYER1
  6
CONTINUOUS
 62
     7
 10
191.932219
 20
888.901258
 11
176.477123
 21
890.935960
  0
LINE
  8
CSLAYER1
  6
CENTER
 62
     2
 10
325.702927
 20
835.620843
 11
321.101879
 21
800.672412
  0
CIRCLE
  8
CSLAYER1
  6
CONTINUOUS
 62
     7
 10
323.402403
 20
818.146627
 40
13.500000
  0
LINE
  8
CSLAYER1
  6
CONTINUOUS
 62
     7
 10
337.804260
 20
824.112072
 11
335.769558
 21
808.656976
  0
LINE
  8
CSLAYER1
  6
CONTINUOUS
 62
     7
 10
335.769558
 20
808.656976
 11
321.367701
 21
802.691532
  0
LINE
  8
CSLAYER1
  6
CONTINUOUS
 62
     7
 10
321.367701
 20
802.691532
 11
309.000546
 21
812.181183
  0
LINE
  8
CSLAYER1
  6
CONTINUOUS
 62
     7
 10
309.000546
 20
812.181183
 11
311.035248
 21
827.636279
  0
LINE
  8
CSLAYER1
  6
CONTINUOUS
 62
     7
 10
311.035248
 20
827.636279
 11
325.437105
 21
833.601723
  0
LINE
  8
CSLAYER1
  6
CONTINUOUS
 62
     7
 10
325.437105
 20
833.601723
 11
337.804260
 21
824.112072
  0
LINE
  8
CSLAYER1
  6
CENTER
 62
     2
 10
553.733458
 20
1079.987606
 11
588.549472
 21
1074.473291
  0
CIRCLE
  8
CSLAYER1
  6
CONTINUOUS
 62
     7
 10
571.141465
 20
1077.230448
 40
10.125000
  0
LINE
  8
CSLAYER1
  6
CENTER
 62
     2
 10
534.953016
 20
1022.187346
 11
566.360995
 21
1006.184181
  0
CIRCLE
  8
CSLAYER1
  6
CONTINUOUS
 62
     7
 10
550.657006
 20
1014.185763
 40
10.125000
  0
LINE
  8
CSLAYER1
  6
CENTER
 62
     2
 10
499.230490
 20
973.019508
 11
524.156004
 21
948.093994
  0
CIRCLE
  8
CSLAYER1
  6
CONTINUOUS
 62
     7
 10
511.693247
 20
960.556751
 40
10.125000
  0
LINE
  8
CSLAYER1
  6
CENTER
 62
     2
 10
392.262393
 20
918.516540
 11
397.776708
 21
883.700526
  0
CIRCLE
  8
CSLAYER1
  6
CONTINUOUS
 62
     7
 10
395.019550
 20
901.108533
 40
10.125000
  0
LINE
  8
CSLAYER1
  6
CENTER
 62
     2
 10
450.062653
 20
937.296983
 11
466.065818
 21
905.889003
  0
CIRCLE
  8
CSLAYER1
  6
CONTINUOUS
 62
     7
 10
458.064235
 20
921.592993
 40
10.125000
  0
LINE
  8
CSLAYER1
  6
CENTER
 62
     2
 10
636.629155
 20
1074.202929
 11
671.577587
 21
1069.601881
  0
ARC
  8
CSLAYER1
  6
CONTINUOUS
 62
     7
 10
654.103371
 20
1071.902405
 40
13.500000
 50
152.552673
 51
306.126143
  0
LINE
  8
CSLAYER1
  6
CONTINUOUS
 62
     7
 10
662.062498
 20
1060.098767
 11
660.068815
 21
1057.500549
  0
LINE
  8
CSLAYER1
  6
CONTINUOUS
 62
     7
 10
660.068815
 20
1057.500549
 11
644.613720
 21
1059.535251
  0
LINE
  8
CSLAYER1
  6
CONTINUOUS
 62
     7
 10
644.613720
 20
1059.535251
 11
638.648275
 21
1073.937107
  0
LINE
  8
CSLAYER1
  6
CONTINUOUS
 62
     7
 10
638.648275
 20
1073.937107
 11
641.861759
 21
1078.125000
  0
LINE
  8
CSLAYER1
  6
CENTER
 62
     2
 10
617.905114
 20
1004.323854
 11
650.471867
 21
990.834263
  0
CIRCLE
  8
CSLAYER1
  6
CONTINUOUS
 62
     7
 10
634.188490
 20
997.579059
 40
13.500000
  0
LINE
  8
CSLAYER1
  6
CONTINUOUS
 62
     7
 10
621.821336
 20
988.089407
 11
636.223192
 21
982.123963
  0
LINE
  8
CSLAYER1
  6
CONTINUOUS
 62
     7
 10
636.223192
 20
982.123963
 11
648.590347
 21
991.613614
  0
LINE
  8
CSLAYER1
  6
CONTINUOUS
 62
     7
 10
648.590347
 20
991.613614
 11
646.555645
 21
1007.068710
  0
LINE
  8
CSLAYER1
  6
CONTINUOUS
 62
     7
 10
646.555645
 20
1007.068710
 11
632.153788
 21
1013.034155
  0
LINE
  8
CSLAYER1
  6
CONTINUOUS
 62
     7
 10
632.153788
 20
1013.034155
 11
619.786634
 21
1003.544503
  0
LINE
  8
CSLAYER1
  6
CONTINUOUS
 62
     7
 10
619.786634
 20
1003.544503
 11
621.821336
 21
988.089407
  0
LINE
  8
CSLAYER1
  6
CENTER
 62
     2
 10
581.733043
 20
941.671989
 11
609.698748
 21
920.213149
  0
CIRCLE
  8
CSLAYER1
  6
CONTINUOUS
 62
     7
 10
595.715895
 20
930.942569
 40
13.500000
  0
LINE
  8
CSLAYER1
  6
CONTINUOUS
 62
     7
 10
581.314039
 20
924.977125
 11
593.681193
 21
915.487473
  0
LINE
  8
CSLAYER1
  6
CONTINUOUS
 62
     7
 10
593.681193
 20
915.487473
 11
608.083050
 21
921.452918
  0
LINE
  8
CSLAYER1
  6
CONTINUOUS
 62
     7
 10
608.083050
 20
921.452918
 11
610.117752
 21
936.908013
  0
LINE
  8
CSLAYER1
  6
CONTINUOUS
 62
     7
 10
610.117752
 20
936.908013
 11
597.750597
 21
946.397665
  0
LINE
  8
CSLAYER1
  6
CONTINUOUS
 62
     7
 10
597.750597
 20
946.397665
 11
583.348741
 21
940.432221
  0
LINE
  8
CSLAYER1
  6
CONTINUOUS
 62
     7
 10
583.348741
 20
940.432221
 11
581.314039
 21
924.977125
  0
LINE
  8
CSLAYER1
  6
CENTER
 62
     2
 10
467.926144
 20
854.344885
 11
481.415735
 21
821.778131
  0
CIRCLE
  8
CSLAYER1
  6
CONTINUOUS
 62
     7
 10
474.670940
 20
838.061508
 40
13.500000
  0
LINE
  8
CSLAYER1
  6
CONTINUOUS
 62
     7
 10
459.215844
 20
840.096210
 11
465.181288
 21
825.694353
  0
LINE
  8
CSLAYER1
  6
CONTINUOUS
 62
     7
 10
465.181288
 20
825.694353
 11
480.636384
 21
823.659652
  0
LINE
  8
CSLAYER1
  6
CONTINUOUS
 62
     7
 10
480.636384
 20
823.659652
 11
490.126036
 21
836.026806
  0
LINE
  8
CSLAYER1
  6
CONTINUOUS
 62
     7
 10
490.126036
 20
836.026806
 11
484.160591
 21
850.428663
  0
LINE
  8
CSLAYER1
  6
CONTINUOUS
 62
     7
 10
484.160591
 20
850.428663
 11
468.705496
 21
852.463365
  0
LINE
  8
CSLAYER1
  6
CONTINUOUS
 62
     7
 10
468.705496
 20
852.463365
 11
459.215844
 21
840.096210
  0
LINE
  8
CSLAYER1
  6
CENTER
 62
     2
 10
530.578009
 20
890.516956
 11
552.036850
 21
862.551251
  0
CIRCLE
  8
CSLAYER1
  6
CONTINUOUS
 62
     7
 10
541.307429
 20
876.534103
 40
13.500000
  0
LINE
  8
CSLAYER1
  6
CONTINUOUS
 62
     7
 10
547.272874
 20
890.935960
 11
556.762525
 21
878.568805
  0
LINE
  8
CSLAYER1
  6
CONTINUOUS
 62
     7
 10
556.762525
 20
878.568805
 11
550.797081
 21
864.166949
  0
LINE
  8
CSLAYER1
  6
CONTINUOUS
 62
     7
 10
550.797081
 20
864.166949
 11
535.341985
 21
862.132247
  0
LINE
  8
CSLAYER1
  6
CONTINUOUS
 62
     7
 10
535.341985
 20
862.132247
 11
525.852334
 21
874.499401
  0
LINE
  8
CSLAYER1
  6
CONTINUOUS
 62
     7
 10
525.852334
 20
874.499401
 11
531.817778
 21
888.901258
  0
LINE
  8
CSLAYER1
  6
CONTINUOUS
 62
     7
 10
531.817778
 20
888.901258
 11
547.272874
 21
890.935960
  0
LINE
  8
CSLAYER1
  6
CENTER
 62
     2
 10
398.047069
 20
835.620843
 11
402.648117
 21
800.672412
  0
CIRCLE
  8
CSLAYER1
  6
CONTINUOUS
 62
     7
 10
400.347593
 20
818.146627
 40
13.500000
  0
LINE
  8
CSLAYER1
  6
CONTINUOUS
 62
     7
 10
385.945737
 20
824.112072
 11
387.980439
 21
808.656976
  0
LINE
  8
CSLAYER1
  6
CONTINUOUS
 62
     7
 10
387.980439
 20
808.656976
 11
402.382295
 21
802.691532
  0
LINE
  8
CSLAYER1
  6
CONTINUOUS
 62
     7
 10
402.382295
 20
802.691532
 11
414.749450
 21
812.181183
  0
LINE
  8
CSLAYER1
  6
CONTINUOUS
 62
     7
 10
414.749450
 20
812.181183
 11
412.714748
 21
827.636279
  0
LINE
  8
CSLAYER1
  6
CONTINUOUS
 62
     7
 10
412.714748
 20
827.636279
 11
398.312891
 21
833.601723
  0
LINE
  8
CSLAYER1
  6
CONTINUOUS
 62
     7
 10
398.312891
 20
833.601723
 11
385.945737
 21
824.112072
  0
LINE
  8
CSLAYER1
  6
CENTER
 62
     2
 10
170.016538
 20
1140.762395
 11
135.200524
 21
1146.276710
  0
CIRCLE
  8
CSLAYER1
  6
CONTINUOUS
 62
     7
 10
152.608531
 20
1143.519553
 40
10.125000
  0
LINE
  8
CSLAYER1
  6
CENTER
 62
     2
 10
188.796981
 20
1198.562655
 11
157.389001
 21
1214.565820
  0
CIRCLE
  8
CSLAYER1
  6
CONTINUOUS
 62
     7
 10
173.092991
 20
1206.564237
 40
10.125000
  0
LINE
  8
CSLAYER1
  6
CENTER
 62
     2
 10
224.519506
 20
1247.730493
 11
199.593992
 21
1272.656007
  0
CIRCLE
  8
CSLAYER1
  6
CONTINUOUS
 62
     7
 10
212.056749
 20
1260.193250
 40
10.125000
  0
LINE
  8
CSLAYER1
  6
CENTER
 62
     2
 10
331.487603
 20
1302.233460
 11
325.973288
 21
1337.049475
  0
CIRCLE
  8
CSLAYER1
  6
CONTINUOUS
 62
     7
 10
328.730446
 20
1319.641467
 40
10.125000
  0
LINE
  8
CSLAYER1
  6
CENTER
 62
     2
 10
273.687344
 20
1283.453018
 11
257.684179
 21
1314.860998
  0
CIRCLE
  8
CSLAYER1
  6
CONTINUOUS
 62
     7
 10
265.685761
 20
1299.157008
 40
10.125000
  0
LINE
  8
CSLAYER1
  6
CENTER
 62
     2
 10
87.120841
 20
1146.547071
 11
52.172410
 21
1151.148120
  0
CIRCLE
  8
CSLAYER1
  6
CONTINUOUS
 62
     7
 10
69.646625
 20
1148.847595
 40
13.500000
  0
LINE
  8
CSLAYER1
  6
CONTINUOUS
 62
     7
 10
75.612070
 20
1134.445739
 11
60.156974
 21
1136.480441
  0
LINE
  8
CSLAYER1
  6
CONTINUOUS
 62
     7
 10
60.156974
 20
1136.480441
 11
54.191529
 21
1150.882297
  0
LINE
  8
CSLAYER1
  6
CONTINUOUS
 62
     7
 10
54.191529
 20
1150.882297
 11
63.681181
 21
1163.249452
  0
LINE
  8
CSLAYER1
  6
CONTINUOUS
 62
     7
 10
63.681181
 20
1163.249452
 11
79.136277
 21
1161.214750
  0
LINE
  8
CSLAYER1
  6
CONTINUOUS
 62
     7
 10
79.136277
 20
1161.214750
 11
85.101721
 21
1146.812894
  0
LINE
  8
CSLAYER1
  6
CONTINUOUS
 62
     7
 10
85.101721
 20
1146.812894
 11
75.612070
 21
1134.445739
  0
LINE
  8
CSLAYER1
  6
CENTER
 62
     2
 10
105.844883
 20
1216.426147
 11
73.278129
 21
1229.915738
  0
CIRCLE
  8
CSLAYER1
  6
CONTINUOUS
 62
     7
 10
89.561506
 20
1223.170942
 40
13.500000
  0
LINE
  8
CSLAYER1
  6
CONTINUOUS
 62
     7
 10
101.928661
 20
1232.660594
 11
87.526804
 21
1238.626038
  0
LINE
  8
CSLAYER1
  6
CONTINUOUS
 62
     7
 10
87.526804
 20
1238.626038
 11
75.159649
 21
1229.136386
  0
LINE
  8
CSLAYER1
  6
CONTINUOUS
 62
     7
 10
75.159649
 20
1229.136386
 11
77.194351
 21
1213.681291
  0
LINE
  8
CSLAYER1
  6
CONTINUOUS
 62
     7
 10
77.194351
 20
1213.681291
 11
91.596208
 21
1207.715846
  0
LINE
  8
CSLAYER1
  6
CONTINUOUS
 62
     7
 10
91.596208
 20
1207.715846
 11
103.963363
 21
1217.205498
  0
LINE
  8
CSLAYER1
  6
CONTINUOUS
 62
     7
 10
103.963363
 20
1217.205498
 11
101.928661
 21
1232.660594
  0
LINE
  8
CSLAYER1
  6
CENTER
 62
     2
 10
142.016954
 20
1279.078011
 11
114.051249
 21
1300.536852
  0
CIRCLE
  8
CSLAYER1
  6
CONTINUOUS
 62
     7
 10
128.034101
 20
1289.807432
 40
13.500000
  0
LINE
  8
CSLAYER1
  6
CONTINUOUS
 62
     7
 10
142.435958
 20
1295.772876
 11
130.068803
 21
1305.262527
  0
LINE
  8
CSLAYER1
  6
CONTINUOUS
 62
     7
 10
130.068803
 20
1305.262527
 11
115.666946
 21
1299.297083
  0
LINE
  8
CSLAYER1
  6
CONTINUOUS
 62
     7
 10
115.666946
 20
1299.297083
 11
113.632245
 21
1283.841987
  0
LINE
  8
CSLAYER1
  6
CONTINUOUS
 62
     7
 10
113.632245
 20
1283.841987
 11
125.999399
 21
1274.352336
  0
LINE
  8
CSLAYER1
  6
CONTINUOUS
 62
     7
 10
125.999399
 20
1274.352336
 11
140.401256
 21
1280.317780
  0
LINE
  8
CSLAYER1
  6
CONTINUOUS
 62
     7
 10
140.401256
 20
1280.317780
 11
142.435958
 21
1295.772876
  0
LINE
  8
CSLAYER1
  6
CENTER
 62
     2
 10
255.823852
 20
1366.405116
 11
242.334261
 21
1398.971869
  0
CIRCLE
  8
CSLAYER1
  6
CONTINUOUS
 62
     7
 10
249.079057
 20
1382.688493
 40
13.500000
  0
LINE
  8
CSLAYER1
  6
CONTINUOUS
 62
     7
 10
264.534152
 20
1380.653791
 11
258.568708
 21
1395.055647
  0
LINE
  8
CSLAYER1
  6
CONTINUOUS
 62
     7
 10
258.568708
 20
1395.055647
 11
243.113612
 21
1397.090349
  0
LINE
  8
CSLAYER1
  6
CONTINUOUS
 62
     7
 10
243.113612
 20
1397.090349
 11
233.623961
 21
1384.723195
  0
LINE
  8
CSLAYER1
  6
CONTINUOUS
 62
     7
 10
233.623961
 20
1384.723195
 11
239.589405
 21
1370.321338
  0
LINE
  8
CSLAYER1
  6
CONTINUOUS
 62
     7
 10
239.589405
 20
1370.321338
 11
255.044501
 21
1368.286636
  0
LINE
  8
CSLAYER1
  6
CONTINUOUS
 62
     7
 10
255.044501
 20
1368.286636
 11
264.534152
 21
1380.653791
  0
LINE
  8
CSLAYER1
  6
CENTER
 62
     2
 10
193.171987
 20
1330.233045
 11
171.713147
 21
1358.198750
  0
CIRCLE
  8
CSLAYER1
  6
CONTINUOUS
 62
     7
 10
182.442567
 20
1344.215897
 40
13.500000
  0
LINE
  8
CSLAYER1
  6
CONTINUOUS
 62
     7
 10
176.477123
 20
1329.814041
 11
166.987471
 21
1342.181195
  0
LINE
  8
CSLAYER1
  6
CONTINUOUS
 62
     7
 10
166.987471
 20
1342.181195
 11
172.952915
 21
1356.583052
  0
LINE
  8
CSLAYER1
  6
CONTINUOUS
 62
     7
 10
172.952915
 20
1356.583052
 11
188.408011
 21
1358.617754
  0
LINE
  8
CSLAYER1
  6
CONTINUOUS
 62
     7
 10
188.408011
 20
1358.617754
 11
197.897663
 21
1346.250599
  0
LINE
  8
CSLAYER1
  6
CONTINUOUS
 62
     7
 10
197.897663
 20
1346.250599
 11
191.932219
 21
1331.848743
  0
LINE
  8
CSLAYER1
  6
CONTINUOUS
 62
     7
 10
191.932219
 20
1331.848743
 11
176.477123
 21
1329.814041
  0
LINE
  8
CSLAYER1
  6
CENTER
 62
     2
 10
325.702927
 20
1385.129158
 11
321.101879
 21
1420.077589
  0
CIRCLE
  8
CSLAYER1
  6
CONTINUOUS
 62
     7
 10
323.402403
 20
1402.603373
 40
13.500000
  0
LINE
  8
CSLAYER1
  6
CONTINUOUS
 62
     7
 10
337.804260
 20
1396.637929
 11
335.769558
 21
1412.093025
  0
LINE
  8
CSLAYER1
  6
CONTINUOUS
 62
     7
 10
335.769558
 20
1412.093025
 11
321.367701
 21
1418.058469
  0
LINE
  8
CSLAYER1
  6
CONTINUOUS
 62
     7
 10
321.367701
 20
1418.058469
 11
309.000546
 21
1408.568818
  0
LINE
  8
CSLAYER1
  6
CONTINUOUS
 62
     7
 10
309.000546
 20
1408.568818
 11
311.035248
 21
1393.113722
  0
LINE
  8
CSLAYER1
  6
CONTINUOUS
 62
     7
 10
311.035248
 20
1393.113722
 11
325.437105
 21
1387.148277
  0
LINE
  8
CSLAYER1
  6
CONTINUOUS
 62
     7
 10
325.437105
 20
1387.148277
 11
337.804260
 21
1396.637929
  0
LINE
  8
CSLAYER1
  6
CENTER
 62
     2
 10
553.733458
 20
1140.762395
 11
588.549472
 21
1146.276710
  0
CIRCLE
  8
CSLAYER1
  6
CONTINUOUS
 62
     7
 10
571.141465
 20
1143.519553
 40
10.125000
  0
LINE
  8
CSLAYER1
  6
CENTER
 62
     2
 10
534.953016
 20
1198.562655
 11
566.360995
 21
1214.565820
  0
CIRCLE
  8
CSLAYER1
  6
CONTINUOUS
 62
     7
 10
550.657006
 20
1206.564237
 40
10.125000
  0
LINE
  8
CSLAYER1
  6
CENTER
 62
     2
 10
499.230490
 20
1247.730493
 11
524.156004
 21
1272.656007
  0
CIRCLE
  8
CSLAYER1
  6
CONTINUOUS
 62
     7
 10
511.693247
 20
1260.193250
 40
10.125000
  0
LINE
  8
CSLAYER1
  6
CENTER
 62
     2
 10
392.262393
 20
1302.233460
 11
397.776708
 21
1337.049475
  0
CIRCLE
  8
CSLAYER1
  6
CONTINUOUS
 62
     7
 10
395.019550
 20
1319.641467
 40
10.125000
  0
LINE
  8
CSLAYER1
  6
CENTER
 62
     2
 10
450.062653
 20
1283.453018
 11
466.065818
 21
1314.860998
  0
CIRCLE
  8
CSLAYER1
  6
CONTINUOUS
 62
     7
 10
458.064235
 20
1299.157008
 40
10.125000
  0
LINE
  8
CSLAYER1
  6
CENTER
 62
     2
 10
581.733043
 20
1279.078011
 11
609.698748
 21
1300.536852
  0
CIRCLE
  8
CSLAYER1
  6
CONTINUOUS
 62
     7
 10
595.715895
 20
1289.807432
 40
13.500000
  0
LINE
  8
CSLAYER1
  6
CONTINUOUS
 62
     7
 10
581.314039
 20
1295.772876
 11
593.681193
 21
1305.262527
  0
LINE
  8
CSLAYER1
  6
CONTINUOUS
 62
     7
 10
593.681193
 20
1305.262527
 11
608.083050
 21
1299.297083
  0
LINE
  8
CSLAYER1
  6
CONTINUOUS
 62
     7
 10
608.083050
 20
1299.297083
 11
610.117752
 21
1283.841987
  0
LINE
  8
CSLAYER1
  6
CONTINUOUS
 62
     7
 10
610.117752
 20
1283.841987
 11
597.750597
 21
1274.352336
  0
LINE
  8
CSLAYER1
  6
CONTINUOUS
 62
     7
 10
597.750597
 20
1274.352336
 11
583.348741
 21
1280.317780
  0
LINE
  8
CSLAYER1
  6
CONTINUOUS
 62
     7
 10
583.348741
 20
1280.317780
 11
581.314039
 21
1295.772876
  0
LINE
  8
CSLAYER1
  6
CENTER
 62
     2
 10
467.926144
 20
1366.405116
 11
481.415735
 21
1398.971869
  0
CIRCLE
  8
CSLAYER1
  6
CONTINUOUS
 62
     7
 10
474.670940
 20
1382.688493
 40
13.500000
  0
LINE
  8
CSLAYER1
  6
CONTINUOUS
 62
     7
 10
459.215844
 20
1380.653791
 11
465.181288
 21
1395.055647
  0
LINE
  8
CSLAYER1
  6
CONTINUOUS
 62
     7
 10
465.181288
 20
1395.055647
 11
480.636384
 21
1397.090349
  0
LINE
  8
CSLAYER1
  6
CONTINUOUS
 62
     7
 10
480.636384
 20
1397.090349
 11
490.126036
 21
1384.723195
  0
LINE
  8
CSLAYER1
  6
CONTINUOUS
 62
     7
 10
490.126036
 20
1384.723195
 11
484.160591
 21
1370.321338
  0
LINE
  8
CSLAYER1
  6
CONTINUOUS
 62
     7
 10
484.160591
 20
1370.321338
 11
468.705496
 21
1368.286636
  0
LINE
  8
CSLAYER1
  6
CONTINUOUS
 62
     7
 10
468.705496
 20
1368.286636
 11
459.215844
 21
1380.653791
  0
LINE
  8
CSLAYER1
  6
CENTER
 62
     2
 10
530.578009
 20
1330.233045
 11
552.036850
 21
1358.198750
  0
CIRCLE
  8
CSLAYER1
  6
CONTINUOUS
 62
     7
 10
541.307429
 20
1344.215897
 40
13.500000
  0
LINE
  8
CSLAYER1
  6
CONTINUOUS
 62
     7
 10
547.272874
 20
1329.814041
 11
556.762525
 21
1342.181195
  0
LINE
  8
CSLAYER1
  6
CONTINUOUS
 62
     7
 10
556.762525
 20
1342.181195
 11
550.797081
 21
1356.583052
  0
LINE
  8
CSLAYER1
  6
CONTINUOUS
 62
     7
 10
550.797081
 20
1356.583052
 11
535.341985
 21
1358.617754
  0
LINE
  8
CSLAYER1
  6
CONTINUOUS
 62
     7
 10
535.341985
 20
1358.617754
 11
525.852334
 21
1346.250599
  0
LINE
  8
CSLAYER1
  6
CONTINUOUS
 62
     7
 10
525.852334
 20
1346.250599
 11
531.817778
 21
1331.848743
  0
LINE
  8
CSLAYER1
  6
CONTINUOUS
 62
     7
 10
531.817778
 20
1331.848743
 11
547.272874
 21
1329.814041
  0
LINE
  8
CSLAYER1
  6
CENTER
 62
     2
 10
398.047069
 20
1385.129158
 11
402.648117
 21
1420.077589
  0
CIRCLE
  8
CSLAYER1
  6
CONTINUOUS
 62
     7
 10
400.347593
 20
1402.603373
 40
13.500000
  0
LINE
  8
CSLAYER1
  6
CONTINUOUS
 62
     7
 10
385.945737
 20
1396.637929
 11
387.980439
 21
1412.093025
  0
LINE
  8
CSLAYER1
  6
CONTINUOUS
 62
     7
 10
387.980439
 20
1412.093025
 11
402.382295
 21
1418.058469
  0
LINE
  8
CSLAYER1
  6
CONTINUOUS
 62
     7
 10
402.382295
 20
1418.058469
 11
414.749450
 21
1408.568818
  0
LINE
  8
CSLAYER1
  6
CONTINUOUS
 62
     7
 10
414.749450
 20
1408.568818
 11
412.714748
 21
1393.113722
  0
LINE
  8
CSLAYER1
  6
CONTINUOUS
 62
     7
 10
412.714748
 20
1393.113722
 11
398.312891
 21
1387.148277
  0
LINE
  8
CSLAYER1
  6
CONTINUOUS
 62
     7
 10
398.312891
 20
1387.148277
 11
385.945737
 21
1396.637929
  0
LINE
  8
CSLAYER1
  6
CENTER
 62
     2
 10
617.905114
 20
1216.426147
 11
650.471867
 21
1229.915738
  0
CIRCLE
  8
CSLAYER1
  6
CONTINUOUS
 62
     7
 10
634.188490
 20
1223.170942
 40
13.500000
  0
LINE
  8
CSLAYER1
  6
CONTINUOUS
 62
     7
 10
621.821336
 20
1232.660594
 11
636.223192
 21
1238.626038
  0
LINE
  8
CSLAYER1
  6
CONTINUOUS
 62
     7
 10
636.223192
 20
1238.626038
 11
648.590347
 21
1229.136386
  0
LINE
  8
CSLAYER1
  6
CONTINUOUS
 62
     7
 10
648.590347
 20
1229.136386
 11
646.555645
 21
1213.681291
  0
LINE
  8
CSLAYER1
  6
CONTINUOUS
 62
     7
 10
646.555645
 20
1213.681291
 11
632.153788
 21
1207.715846
  0
LINE
  8
CSLAYER1
  6
CONTINUOUS
 62
     7
 10
632.153788
 20
1207.715846
 11
619.786634
 21
1217.205498
  0
LINE
  8
CSLAYER1
  6
CONTINUOUS
 62
     7
 10
619.786634
 20
1217.205498
 11
621.821336
 21
1232.660594
  0
ARC
  8
CSLAYER1
  6
CONTINUOUS
 62
     7
 10
654.103371
 20
1148.847595
 40
13.500000
 50
53.873857
 51
207.447327
  0
LINE
  8
CSLAYER1
  6
CONTINUOUS
 62
     7
 10
638.648275
 20
1146.812894
 11
641.861759
 21
1142.625000
  0
LINE
  8
CSLAYER1
  6
CONTINUOUS
 62
     7
 10
644.613720
 20
1161.214750
 11
638.648275
 21
1146.812894
  0
LINE
  8
CSLAYER1
  6
CENTER
 62
     2
 10
636.629155
 20
1146.547071
 11
671.577587
 21
1151.148120
  0
LINE
  8
CSLAYER1
  6
CONTINUOUS
 62
     7
 10
660.068815
 20
1163.249452
 11
644.613720
 21
1161.214750
  0
LINE
  8
CSLAYER1
  6
CONTINUOUS
 62
     7
 10
662.062498
 20
1160.651234
 11
660.068815
 21
1163.249452
  0
LINE
  8
CSLAYER1
  6
CENTER
 62
     2
 10
323.402403
 20
508.500000
 11
323.402403
 21
613.500000
  0
LINE
  8
CSLAYER1
  6
CONTINUOUS
 62
     7
 10
309.902403
 20
606.000000
 11
307.802403
 21
604.787565
  0
LINE
  8
CSLAYER1
  6
CONTINUOUS
 62
     7
 10
307.802403
 20
604.787565
 11
307.802403
 21
594.750000
  0
LINE
  8
CSLAYER1
  6
CONTINUOUS
 62
     7
 10
336.902403
 20
606.000000
 11
339.002403
 21
604.787565
  0
LINE
  8
CSLAYER1
  6
CONTINUOUS
 62
     7
 10
339.002403
 20
604.787565
 11
339.002403
 21
594.750000
  0
LINE
  8
CSLAYER1
  6
CONTINUOUS
 62
     7
 10
309.902403
 20
606.000000
 11
336.902403
 21
606.000000
  0
LINE
  8
CSLAYER1
  6
CONTINUOUS
 62
     7
 10
307.802403
 20
594.750000
 11
339.002403
 21
594.750000
  0
ARC
  8
CSLAYER1
  6
CONTINUOUS
 62
     7
 10
311.102403
 20
600.902822
 40
5.097178
 50
49.652860
 51
130.347140
  0
ARC
  8
CSLAYER1
  6
CONTINUOUS
 62
     7
 10
323.402403
 20
571.989946
 40
34.010055
 50
74.655173
 51
105.344827
  0
ARC
  8
CSLAYER1
  6
CONTINUOUS
 62
     7
 10
335.702403
 20
600.902822
 40
5.097178
 50
49.652860
 51
130.347140
  0
LINE
  8
CSLAYER1
  6
CONTINUOUS
 62
     7
 10
314.402403
 20
604.787565
 11
314.402403
 21
594.750000
  0
LINE
  8
CSLAYER1
  6
CONTINUOUS
 62
     7
 10
332.402403
 20
604.787565
 11
332.402403
 21
594.750000
  0
LINE
  8
CSLAYER1
  6
CONTINUOUS
 62
     7
 10
332.402403
 20
543.375000
 11
332.402403
 21
530.337436
  0
LINE
  8
CSLAYER1
  6
CONTINUOUS
 62
     7
 10
339.002403
 20
543.375000
 11
339.002403
 21
530.337436
  0
ARC
  8
CSLAYER1
  6
CONTINUOUS
 62
     7
 10
335.702403
 20
534.222178
 40
5.097178
 50
229.652860
 51
310.347140
  0
LINE
  8
CSLAYER1
  6
CONTINUOUS
 62
     7
 10
336.902403
 20
529.125000
 11
339.002403
 21
530.337436
  0
LINE
  8
CSLAYER1
  6
CONTINUOUS
 62
     7
 10
309.902403
 20
529.125000
 11
336.902403
 21
529.125000
  0
ARC
  8
CSLAYER1
  6
CONTINUOUS
 62
     7
 10
311.102403
 20
534.222178
 40
5.097178
 50
229.652860
 51
310.347140
  0
ARC
  8
CSLAYER1
  6
CONTINUOUS
 62
     7
 10
323.402403
 20
563.135055
 40
34.010055
 50
254.655173
 51
285.344827
  0
LINE
  8
CSLAYER1
  6
CONTINUOUS
 62
     7
 10
314.402403
 20
543.375000
 11
314.402403
 21
530.337436
  0
LINE
  8
CSLAYER1
  6
CONTINUOUS
 62
     7
 10
307.802403
 20
543.375000
 11
307.802403
 21
530.337436
  0
LINE
  8
CSLAYER1
  6
CONTINUOUS
 62
     7
 10
309.902403
 20
529.125000
 11
307.802403
 21
530.337436
  0
LINE
  8
CSLAYER1
  6
CONTINUOUS
 62
     7
 10
314.402403
 20
529.125000
 11
314.402403
 21
522.750000
  0
LINE
  8
CSLAYER1
  6
CONTINUOUS
 62
     7
 10
314.402403
 20
522.750000
 11
315.902403
 21
521.250000
  0
LINE
  8
CSLAYER1
  6
CONTINUOUS
 62
     7
 10
315.527403
 20
529.125000
 11
315.527403
 21
521.625000
  0
LINE
  8
CSLAYER1
  6
CONTINUOUS
 62
     7
 10
314.402403
 20
522.750000
 11
332.402403
 21
522.750000
  0
LINE
  8
CSLAYER1
  6
CONTINUOUS
 62
     7
 10
315.902403
 20
521.250000
 11
330.902403
 21
521.250000
  0
LINE
  8
CSLAYER1
  6
CONTINUOUS
 62
     7
 10
330.902403
 20
521.250000
 11
332.402403
 21
522.750000
  0
LINE
  8
CSLAYER1
  6
CONTINUOUS
 62
     7
 10
332.402403
 20
522.750000
 11
332.402403
 21
529.125000
  0
LINE
  8
CSLAYER1
  6
CONTINUOUS
 62
     7
 10
331.277403
 20
521.625000
 11
331.277403
 21
529.125000
  0
LINE
  8
CSLAYER1
  6
CENTER
 62
     2
 10
249.079057
 20
508.500000
 11
249.079057
 21
613.500000
  0
LINE
  8
CSLAYER1
  6
CONTINUOUS
 62
     7
 10
235.579057
 20
606.000000
 11
233.479057
 21
604.787565
  0
LINE
  8
CSLAYER1
  6
CONTINUOUS
 62
     7
 10
233.479057
 20
604.787565
 11
233.479057
 21
594.750000
  0
LINE
  8
CSLAYER1
  6
CONTINUOUS
 62
     7
 10
262.579057
 20
606.000000
 11
264.679057
 21
604.787565
  0
LINE
  8
CSLAYER1
  6
CONTINUOUS
 62
     7
 10
264.679057
 20
604.787565
 11
264.679057
 21
594.750000
  0
LINE
  8
CSLAYER1
  6
CONTINUOUS
 62
     7
 10
235.579057
 20
606.000000
 11
262.579057
 21
606.000000
  0
LINE
  8
CSLAYER1
  6
CONTINUOUS
 62
     7
 10
233.479057
 20
594.750000
 11
264.679057
 21
594.750000
  0
ARC
  8
CSLAYER1
  6
CONTINUOUS
 62
     7
 10
236.779057
 20
600.902822
 40
5.097178
 50
49.652860
 51
130.347140
  0
ARC
  8
CSLAYER1
  6
CONTINUOUS
 62
     7
 10
249.079057
 20
571.989946
 40
34.010055
 50
74.655173
 51
105.344827
  0
ARC
  8
CSLAYER1
  6
CONTINUOUS
 62
     7
 10
261.379057
 20
600.902822
 40
5.097178
 50
49.652860
 51
130.347140
  0
LINE
  8
CSLAYER1
  6
CONTINUOUS
 62
     7
 10
240.079057
 20
604.787565
 11
240.079057
 21
594.750000
  0
LINE
  8
CSLAYER1
  6
CONTINUOUS
 62
     7
 10
258.079057
 20
604.787565
 11
258.079057
 21
594.750000
  0
LINE
  8
CSLAYER1
  6
CONTINUOUS
 62
     7
 10
258.079057
 20
543.375000
 11
258.079057
 21
530.337436
  0
LINE
  8
CSLAYER1
  6
CONTINUOUS
 62
     7
 10
264.679057
 20
543.375000
 11
264.679057
 21
530.337436
  0
ARC
  8
CSLAYER1
  6
CONTINUOUS
 62
     7
 10
261.379057
 20
534.222178
 40
5.097178
 50
229.652860
 51
310.347140
  0
LINE
  8
CSLAYER1
  6
CONTINUOUS
 62
     7
 10
262.579057
 20
529.125000
 11
264.679057
 21
530.337436
  0
LINE
  8
CSLAYER1
  6
CONTINUOUS
 62
     7
 10
235.579057
 20
529.125000
 11
262.579057
 21
529.125000
  0
ARC
  8
CSLAYER1
  6
CONTINUOUS
 62
     7
 10
236.779057
 20
534.222178
 40
5.097178
 50
229.652860
 51
310.347140
  0
ARC
  8
CSLAYER1
  6
CONTINUOUS
 62
     7
 10
249.079057
 20
563.135055
 40
34.010055
 50
254.655173
 51
285.344827
  0
LINE
  8
CSLAYER1
  6
CONTINUOUS
 62
     7
 10
240.079057
 20
543.375000
 11
240.079057
 21
530.337436
  0
LINE
  8
CSLAYER1
  6
CONTINUOUS
 62
     7
 10
233.479057
 20
543.375000
 11
233.479057
 21
530.337436
  0
LINE
  8
CSLAYER1
  6
CONTINUOUS
 62
     7
 10
235.579057
 20
529.125000
 11
233.479057
 21
530.337436
  0
LINE
  8
CSLAYER1
  6
CONTINUOUS
 62
     7
 10
240.079057
 20
529.125000
 11
240.079057
 21
522.750000
  0
LINE
  8
CSLAYER1
  6
CONTINUOUS
 62
     7
 10
240.079057
 20
522.750000
 11
241.579057
 21
521.250000
  0
LINE
  8
CSLAYER1
  6
CONTINUOUS
 62
     7
 10
241.204057
 20
529.125000
 11
241.204057
 21
521.625000
  0
LINE
  8
CSLAYER1
  6
CONTINUOUS
 62
     7
 10
240.079057
 20
522.750000
 11
258.079057
 21
522.750000
  0
LINE
  8
CSLAYER1
  6
CONTINUOUS
 62
     7
 10
241.579057
 20
521.250000
 11
256.579057
 21
521.250000
  0
LINE
  8
CSLAYER1
  6
CONTINUOUS
 62
     7
 10
256.579057
 20
521.250000
 11
258.079057
 21
522.750000
  0
LINE
  8
CSLAYER1
  6
CONTINUOUS
 62
     7
 10
258.079057
 20
522.750000
 11
258.079057
 21
529.125000
  0
LINE
  8
CSLAYER1
  6
CONTINUOUS
 62
     7
 10
256.954057
 20
521.625000
 11
256.954057
 21
529.125000
  0
LINE
  8
CSLAYER1
  6
CENTER
 62
     2
 10
182.442567
 20
508.500000
 11
182.442567
 21
613.500000
  0
LINE
  8
CSLAYER1
  6
CONTINUOUS
 62
     7
 10
168.942567
 20
606.000000
 11
166.842567
 21
604.787565
  0
LINE
  8
CSLAYER1
  6
CONTINUOUS
 62
     7
 10
166.842567
 20
604.787565
 11
166.842567
 21
594.750000
  0
LINE
  8
CSLAYER1
  6
CONTINUOUS
 62
     7
 10
195.942567
 20
606.000000
 11
198.042567
 21
604.787565
  0
LINE
  8
CSLAYER1
  6
CONTINUOUS
 62
     7
 10
198.042567
 20
604.787565
 11
198.042567
 21
594.750000
  0
LINE
  8
CSLAYER1
  6
CONTINUOUS
 62
     7
 10
168.942567
 20
606.000000
 11
195.942567
 21
606.000000
  0
LINE
  8
CSLAYER1
  6
CONTINUOUS
 62
     7
 10
166.842567
 20
594.750000
 11
198.042567
 21
594.750000
  0
ARC
  8
CSLAYER1
  6
CONTINUOUS
 62
     7
 10
170.142567
 20
600.902822
 40
5.097178
 50
49.652860
 51
130.347140
  0
ARC
  8
CSLAYER1
  6
CONTINUOUS
 62
     7
 10
182.442567
 20
571.989946
 40
34.010055
 50
74.655173
 51
105.344827
  0
ARC
  8
CSLAYER1
  6
CONTINUOUS
 62
     7
 10
194.742567
 20
600.902822
 40
5.097178
 50
49.652860
 51
130.347140
  0
LINE
  8
CSLAYER1
  6
CONTINUOUS
 62
     7
 10
173.442567
 20
604.787565
 11
173.442567
 21
594.750000
  0
LINE
  8
CSLAYER1
  6
CONTINUOUS
 62
     7
 10
191.442567
 20
604.787565
 11
191.442567
 21
594.750000
  0
LINE
  8
CSLAYER1
  6
CONTINUOUS
 62
     7
 10
191.442567
 20
543.375000
 11
191.442567
 21
530.337436
  0
LINE
  8
CSLAYER1
  6
CONTINUOUS
 62
     7
 10
198.042567
 20
543.375000
 11
198.042567
 21
530.337436
  0
ARC
  8
CSLAYER1
  6
CONTINUOUS
 62
     7
 10
194.742567
 20
534.222178
 40
5.097178
 50
229.652860
 51
310.347140
  0
LINE
  8
CSLAYER1
  6
CONTINUOUS
 62
     7
 10
195.942567
 20
529.125000
 11
198.042567
 21
530.337436
  0
LINE
  8
CSLAYER1
  6
CONTINUOUS
 62
     7
 10
168.942567
 20
529.125000
 11
195.942567
 21
529.125000
  0
ARC
  8
CSLAYER1
  6
CONTINUOUS
 62
     7
 10
170.142567
 20
534.222178
 40
5.097178
 50
229.652860
 51
310.347140
  0
ARC
  8
CSLAYER1
  6
CONTINUOUS
 62
     7
 10
182.442567
 20
563.135055
 40
34.010055
 50
254.655173
 51
285.344827
  0
LINE
  8
CSLAYER1
  6
CONTINUOUS
 62
     7
 10
173.442567
 20
543.375000
 11
173.442567
 21
530.337436
  0
LINE
  8
CSLAYER1
  6
CONTINUOUS
 62
     7
 10
166.842567
 20
543.375000
 11
166.842567
 21
530.337436
  0
LINE
  8
CSLAYER1
  6
CONTINUOUS
 62
     7
 10
168.942567
 20
529.125000
 11
166.842567
 21
530.337436
  0
LINE
  8
CSLAYER1
  6
CONTINUOUS
 62
     7
 10
173.442567
 20
529.125000
 11
173.442567
 21
522.750000
  0
LINE
  8
CSLAYER1
  6
CONTINUOUS
 62
     7
 10
173.442567
 20
522.750000
 11
174.942567
 21
521.250000
  0
LINE
  8
CSLAYER1
  6
CONTINUOUS
 62
     7
 10
174.567567
 20
529.125000
 11
174.567567
 21
521.625000
  0
LINE
  8
CSLAYER1
  6
CONTINUOUS
 62
     7
 10
173.442567
 20
522.750000
 11
191.442567
 21
522.750000
  0
LINE
  8
CSLAYER1
  6
CONTINUOUS
 62
     7
 10
174.942567
 20
521.250000
 11
189.942567
 21
521.250000
  0
LINE
  8
CSLAYER1
  6
CONTINUOUS
 62
     7
 10
189.942567
 20
521.250000
 11
191.442567
 21
522.750000
  0
LINE
  8
CSLAYER1
  6
CONTINUOUS
 62
     7
 10
191.442567
 20
522.750000
 11
191.442567
 21
529.125000
  0
LINE
  8
CSLAYER1
  6
CONTINUOUS
 62
     7
 10
190.317567
 20
521.625000
 11
190.317567
 21
529.125000
  0
LINE
  8
CSLAYER1
  6
CENTER
 62
     2
 10
128.034101
 20
508.500000
 11
128.034101
 21
613.500000
  0
LINE
  8
CSLAYER1
  6
CONTINUOUS
 62
     7
 10
114.534101
 20
606.000000
 11
112.434101
 21
604.787565
  0
LINE
  8
CSLAYER1
  6
CONTINUOUS
 62
     7
 10
112.434101
 20
604.787565
 11
112.434101
 21
594.750000
  0
LINE
  8
CSLAYER1
  6
CONTINUOUS
 62
     7
 10
141.534101
 20
606.000000
 11
143.634101
 21
604.787565
  0
LINE
  8
CSLAYER1
  6
CONTINUOUS
 62
     7
 10
143.634101
 20
604.787565
 11
143.634101
 21
594.750000
  0
LINE
  8
CSLAYER1
  6
CONTINUOUS
 62
     7
 10
114.534101
 20
606.000000
 11
141.534101
 21
606.000000
  0
LINE
  8
CSLAYER1
  6
CONTINUOUS
 62
     7
 10
112.434101
 20
594.750000
 11
143.634101
 21
594.750000
  0
ARC
  8
CSLAYER1
  6
CONTINUOUS
 62
     7
 10
115.734101
 20
600.902822
 40
5.097178
 50
49.652860
 51
130.347140
  0
ARC
  8
CSLAYER1
  6
CONTINUOUS
 62
     7
 10
128.034101
 20
571.989946
 40
34.010055
 50
74.655173
 51
105.344827
  0
ARC
  8
CSLAYER1
  6
CONTINUOUS
 62
     7
 10
140.334101
 20
600.902822
 40
5.097178
 50
49.652860
 51
130.347140
  0
LINE
  8
CSLAYER1
  6
CONTINUOUS
 62
     7
 10
119.034101
 20
604.787565
 11
119.034101
 21
594.750000
  0
LINE
  8
CSLAYER1
  6
CONTINUOUS
 62
     7
 10
137.034101
 20
604.787565
 11
137.034101
 21
594.750000
  0
LINE
  8
CSLAYER1
  6
CONTINUOUS
 62
     7
 10
137.034101
 20
543.375000
 11
137.034101
 21
530.337436
  0
LINE
  8
CSLAYER1
  6
CONTINUOUS
 62
     7
 10
143.634101
 20
543.375000
 11
143.634101
 21
530.337436
  0
ARC
  8
CSLAYER1
  6
CONTINUOUS
 62
     7
 10
140.334101
 20
534.222178
 40
5.097178
 50
229.652860
 51
310.347140
  0
LINE
  8
CSLAYER1
  6
CONTINUOUS
 62
     7
 10
141.534101
 20
529.125000
 11
143.634101
 21
530.337436
  0
LINE
  8
CSLAYER1
  6
CONTINUOUS
 62
     7
 10
114.534101
 20
529.125000
 11
141.534101
 21
529.125000
  0
ARC
  8
CSLAYER1
  6
CONTINUOUS
 62
     7
 10
115.734101
 20
534.222178
 40
5.097178
 50
229.652860
 51
310.347140
  0
ARC
  8
CSLAYER1
  6
CONTINUOUS
 62
     7
 10
128.034101
 20
563.135055
 40
34.010055
 50
254.655173
 51
285.344827
  0
LINE
  8
CSLAYER1
  6
CONTINUOUS
 62
     7
 10
119.034101
 20
543.375000
 11
119.034101
 21
530.337436
  0
LINE
  8
CSLAYER1
  6
CONTINUOUS
 62
     7
 10
112.434101
 20
543.375000
 11
112.434101
 21
530.337436
  0
LINE
  8
CSLAYER1
  6
CONTINUOUS
 62
     7
 10
114.534101
 20
529.125000
 11
112.434101
 21
530.337436
  0
LINE
  8
CSLAYER1
  6
CONTINUOUS
 62
     7
 10
119.034101
 20
529.125000
 11
119.034101
 21
522.750000
  0
LINE
  8
CSLAYER1
  6
CONTINUOUS
 62
     7
 10
119.034101
 20
522.750000
 11
120.534101
 21
521.250000
  0
LINE
  8
CSLAYER1
  6
CONTINUOUS
 62
     7
 10
120.159101
 20
529.125000
 11
120.159101
 21
521.625000
  0
LINE
  8
CSLAYER1
  6
CONTINUOUS
 62
     7
 10
119.034101
 20
522.750000
 11
137.034101
 21
522.750000
  0
LINE
  8
CSLAYER1
  6
CONTINUOUS
 62
     7
 10
120.534101
 20
521.250000
 11
135.534101
 21
521.250000
  0
LINE
  8
CSLAYER1
  6
CONTINUOUS
 62
     7
 10
135.534101
 20
521.250000
 11
137.034101
 21
522.750000
  0
LINE
  8
CSLAYER1
  6
CONTINUOUS
 62
     7
 10
137.034101
 20
522.750000
 11
137.034101
 21
529.125000
  0
LINE
  8
CSLAYER1
  6
CONTINUOUS
 62
     7
 10
135.909101
 20
521.625000
 11
135.909101
 21
529.125000
  0
LINE
  8
CSLAYER1
  6
CENTER
 62
     2
 10
89.561506
 20
508.500000
 11
89.561506
 21
613.500000
  0
LINE
  8
CSLAYER1
  6
CONTINUOUS
 62
     7
 10
76.061506
 20
606.000000
 11
73.961506
 21
604.787565
  0
LINE
  8
CSLAYER1
  6
CONTINUOUS
 62
     7
 10
73.961506
 20
604.787565
 11
73.961506
 21
594.750000
  0
LINE
  8
CSLAYER1
  6
CONTINUOUS
 62
     7
 10
103.061506
 20
606.000000
 11
105.161506
 21
604.787565
  0
LINE
  8
CSLAYER1
  6
CONTINUOUS
 62
     7
 10
105.161506
 20
604.787565
 11
105.161506
 21
594.750000
  0
LINE
  8
CSLAYER1
  6
CONTINUOUS
 62
     7
 10
76.061506
 20
606.000000
 11
103.061506
 21
606.000000
  0
LINE
  8
CSLAYER1
  6
CONTINUOUS
 62
     7
 10
73.961506
 20
594.750000
 11
105.161506
 21
594.750000
  0
ARC
  8
CSLAYER1
  6
CONTINUOUS
 62
     7
 10
77.261506
 20
600.902822
 40
5.097178
 50
49.652860
 51
130.347140
  0
ARC
  8
CSLAYER1
  6
CONTINUOUS
 62
     7
 10
89.561506
 20
571.989946
 40
34.010055
 50
74.655173
 51
105.344827
  0
ARC
  8
CSLAYER1
  6
CONTINUOUS
 62
     7
 10
101.861506
 20
600.902822
 40
5.097178
 50
49.652860
 51
130.347140
  0
LINE
  8
CSLAYER1
  6
CONTINUOUS
 62
     7
 10
80.561506
 20
604.787565
 11
80.561506
 21
594.750000
  0
LINE
  8
CSLAYER1
  6
CONTINUOUS
 62
     7
 10
98.561506
 20
604.787565
 11
98.561506
 21
594.750000
  0
LINE
  8
CSLAYER1
  6
CONTINUOUS
 62
     7
 10
98.561506
 20
543.375000
 11
98.561506
 21
530.337436
  0
LINE
  8
CSLAYER1
  6
CONTINUOUS
 62
     7
 10
105.161506
 20
543.375000
 11
105.161506
 21
530.337436
  0
ARC
  8
CSLAYER1
  6
CONTINUOUS
 62
     7
 10
101.861506
 20
534.222178
 40
5.097178
 50
229.652860
 51
310.347140
  0
LINE
  8
CSLAYER1
  6
CONTINUOUS
 62
     7
 10
103.061506
 20
529.125000
 11
105.161506
 21
530.337436
  0
LINE
  8
CSLAYER1
  6
CONTINUOUS
 62
     7
 10
76.061506
 20
529.125000
 11
103.061506
 21
529.125000
  0
ARC
  8
CSLAYER1
  6
CONTINUOUS
 62
     7
 10
77.261506
 20
534.222178
 40
5.097178
 50
229.652860
 51
310.347140
  0
ARC
  8
CSLAYER1
  6
CONTINUOUS
 62
     7
 10
89.561506
 20
563.135055
 40
34.010055
 50
254.655173
 51
285.344827
  0
LINE
  8
CSLAYER1
  6
CONTINUOUS
 62
     7
 10
80.561506
 20
543.375000
 11
80.561506
 21
530.337436
  0
LINE
  8
CSLAYER1
  6
CONTINUOUS
 62
     7
 10
73.961506
 20
543.375000
 11
73.961506
 21
530.337436
  0
LINE
  8
CSLAYER1
  6
CONTINUOUS
 62
     7
 10
76.061506
 20
529.125000
 11
73.961506
 21
530.337436
  0
LINE
  8
CSLAYER1
  6
CONTINUOUS
 62
     7
 10
80.561506
 20
529.125000
 11
80.561506
 21
522.750000
  0
LINE
  8
CSLAYER1
  6
CONTINUOUS
 62
     7
 10
80.561506
 20
522.750000
 11
82.061506
 21
521.250000
  0
LINE
  8
CSLAYER1
  6
CONTINUOUS
 62
     7
 10
81.686506
 20
529.125000
 11
81.686506
 21
521.625000
  0
LINE
  8
CSLAYER1
  6
CONTINUOUS
 62
     7
 10
80.561506
 20
522.750000
 11
98.561506
 21
522.750000
  0
LINE
  8
CSLAYER1
  6
CONTINUOUS
 62
     7
 10
82.061506
 20
521.250000
 11
97.061506
 21
521.250000
  0
LINE
  8
CSLAYER1
  6
CONTINUOUS
 62
     7
 10
97.061506
 20
521.250000
 11
98.561506
 21
522.750000
  0
LINE
  8
CSLAYER1
  6
CONTINUOUS
 62
     7
 10
98.561506
 20
522.750000
 11
98.561506
 21
529.125000
  0
LINE
  8
CSLAYER1
  6
CONTINUOUS
 62
     7
 10
97.436506
 20
521.625000
 11
97.436506
 21
529.125000
  0
LINE
  8
CSLAYER1
  6
CONTINUOUS
 62
     7
 10
633.749998
 20
615.750000
 11
633.749998
 21
606.000000
  0
LINE
  8
CSLAYER1
  6
CONTINUOUS
 62
     7
 10
643.124998
 20
568.500000
 11
643.124998
 21
567.000000
  0
LINE
  8
CSLAYER1
  6
CONTINUOUS
 62
     7
 10
670.124998
 20
606.000000
 11
672.224998
 21
604.787565
  0
LINE
  8
CSLAYER1
  6
CONTINUOUS
 62
     7
 10
672.224998
 20
604.787565
 11
672.224998
 21
594.750000
  0
LINE
  8
CSLAYER1
  6
CONTINUOUS
 62
     7
 10
670.124998
 20
606.000000
 11
643.124998
 21
606.000000
  0
LINE
  8
CSLAYER1
  6
CONTINUOUS
 62
     7
 10
672.224998
 20
594.750000
 11
641.024998
 21
594.750000
  0
ARC
  8
CSLAYER1
  6
CONTINUOUS
 62
     7
 10
668.924998
 20
600.902822
 40
5.097178
 50
49.652860
 51
130.347140
  0
ARC
  8
CSLAYER1
  6
CONTINUOUS
 62
     7
 10
656.624998
 20
571.989946
 40
34.010055
 50
74.655173
 51
102.722770
  0
LINE
  8
CSLAYER1
  6
CONTINUOUS
 62
     7
 10
665.624998
 20
604.787565
 11
665.624998
 21
594.750000
  0
LINE
  8
CSLAYER1
  6
CONTINUOUS
 62
     7
 10
670.124998
 20
529.125000
 11
643.124998
 21
529.125000
  0
ARC
  8
CSLAYER1
  6
CONTINUOUS
 62
     7
 10
668.924998
 20
534.222178
 40
5.097178
 50
229.652860
 51
310.347140
  0
ARC
  8
CSLAYER1
  6
CONTINUOUS
 62
     7
 10
656.624998
 20
563.135055
 40
34.010055
 50
257.277230
 51
285.344827
  0
LINE
  8
CSLAYER1
  6
CONTINUOUS
 62
     7
 10
665.624998
 20
543.375000
 11
665.624998
 21
530.337436
  0
LINE
  8
CSLAYER1
  6
CONTINUOUS
 62
     7
 10
672.224998
 20
543.375000
 11
672.224998
 21
530.337436
  0
LINE
  8
CSLAYER1
  6
CONTINUOUS
 62
     7
 10
670.124998
 20
529.125000
 11
672.224998
 21
530.337436
  0
LINE
  8
CSLAYER1
  6
CONTINUOUS
 62
     7
 10
665.624998
 20
529.125000
 11
665.624998
 21
522.750000
  0
LINE
  8
CSLAYER1
  6
CONTINUOUS
 62
     7
 10
665.624998
 20
522.750000
 11
664.124998
 21
521.250000
  0
LINE
  8
CSLAYER1
  6
CONTINUOUS
 62
     7
 10
664.499998
 20
529.125000
 11
664.499998
 21
521.625000
  0
LINE
  8
CSLAYER1
  6
CONTINUOUS
 62
     7
 10
665.624998
 20
522.750000
 11
647.624998
 21
522.750000
  0
LINE
  8
CSLAYER1
  6
CONTINUOUS
 62
     7
 10
664.124998
 20
521.250000
 11
649.124998
 21
521.250000
  0
LINE
  8
CSLAYER1
  6
CONTINUOUS
 62
     7
 10
649.124998
 20
521.250000
 11
647.624998
 21
522.750000
  0
LINE
  8
CSLAYER1
  6
CONTINUOUS
 62
     7
 10
647.624998
 20
522.750000
 11
647.624998
 21
529.125000
  0
LINE
  8
CSLAYER1
  6
CONTINUOUS
 62
     7
 10
648.749998
 20
521.625000
 11
648.749998
 21
529.125000
  0
LINE
  8
CSLAYER1
  6
CENTER
 62
     2
 10
656.624998
 20
508.500000
 11
656.624998
 21
613.500000
  0
LINE
  8
CSLAYER1
  6
CENTER
 62
     2
 10
400.347593
 20
508.500000
 11
400.347593
 21
613.500000
  0
LINE
  8
CSLAYER1
  6
CONTINUOUS
 62
     7
 10
413.847593
 20
606.000000
 11
415.947593
 21
604.787565
  0
LINE
  8
CSLAYER1
  6
CONTINUOUS
 62
     7
 10
415.947593
 20
604.787565
 11
415.947593
 21
594.750000
  0
LINE
  8
CSLAYER1
  6
CONTINUOUS
 62
     7
 10
386.847593
 20
606.000000
 11
384.747593
 21
604.787565
  0
LINE
  8
CSLAYER1
  6
CONTINUOUS
 62
     7
 10
384.747593
 20
604.787565
 11
384.747593
 21
594.750000
  0
LINE
  8
CSLAYER1
  6
CONTINUOUS
 62
     7
 10
413.847593
 20
606.000000
 11
386.847593
 21
606.000000
  0
LINE
  8
CSLAYER1
  6
CONTINUOUS
 62
     7
 10
415.947593
 20
594.750000
 11
384.747593
 21
594.750000
  0
ARC
  8
CSLAYER1
  6
CONTINUOUS
 62
     7
 10
412.647593
 20
600.902822
 40
5.097178
 50
49.652860
 51
130.347140
  0
ARC
  8
CSLAYER1
  6
CONTINUOUS
 62
     7
 10
400.347593
 20
571.989946
 40
34.010055
 50
74.655173
 51
105.344827
  0
ARC
  8
CSLAYER1
  6
CONTINUOUS
 62
     7
 10
388.047593
 20
600.902822
 40
5.097178
 50
49.652860
 51
130.347140
  0
LINE
  8
CSLAYER1
  6
CONTINUOUS
 62
     7
 10
409.347593
 20
604.787565
 11
409.347593
 21
594.750000
  0
LINE
  8
CSLAYER1
  6
CONTINUOUS
 62
     7
 10
391.347593
 20
604.787565
 11
391.347593
 21
594.750000
  0
LINE
  8
CSLAYER1
  6
CONTINUOUS
 62
     7
 10
391.347593
 20
543.375000
 11
391.347593
 21
530.337436
  0
LINE
  8
CSLAYER1
  6
CONTINUOUS
 62
     7
 10
384.747593
 20
543.375000
 11
384.747593
 21
530.337436
  0
ARC
  8
CSLAYER1
  6
CONTINUOUS
 62
     7
 10
388.047593
 20
534.222178
 40
5.097178
 50
229.652860
 51
310.347140
  0
LINE
  8
CSLAYER1
  6
CONTINUOUS
 62
     7
 10
386.847593
 20
529.125000
 11
384.747593
 21
530.337436
  0
LINE
  8
CSLAYER1
  6
CONTINUOUS
 62
     7
 10
413.847593
 20
529.125000
 11
386.847593
 21
529.125000
  0
ARC
  8
CSLAYER1
  6
CONTINUOUS
 62
     7
 10
412.647593
 20
534.222178
 40
5.097178
 50
229.652860
 51
310.347140
  0
ARC
  8
CSLAYER1
  6
CONTINUOUS
 62
     7
 10
400.347593
 20
563.135055
 40
34.010055
 50
254.655173
 51
285.344827
  0
LINE
  8
CSLAYER1
  6
CONTINUOUS
 62
     7
 10
409.347593
 20
543.375000
 11
409.347593
 21
530.337436
  0
LINE
  8
CSLAYER1
  6
CONTINUOUS
 62
     7
 10
415.947593
 20
543.375000
 11
415.947593
 21
530.337436
  0
LINE
  8
CSLAYER1
  6
CONTINUOUS
 62
     7
 10
413.847593
 20
529.125000
 11
415.947593
 21
530.337436
  0
LINE
  8
CSLAYER1
  6
CONTINUOUS
 62
     7
 10
409.347593
 20
529.125000
 11
409.347593
 21
522.750000
  0
LINE
  8
CSLAYER1
  6
CONTINUOUS
 62
     7
 10
409.347593
 20
522.750000
 11
407.847593
 21
521.250000
  0
LINE
  8
CSLAYER1
  6
CONTINUOUS
 62
     7
 10
408.222593
 20
529.125000
 11
408.222593
 21
521.625000
  0
LINE
  8
CSLAYER1
  6
CONTINUOUS
 62
     7
 10
409.347593
 20
522.750000
 11
391.347593
 21
522.750000
  0
LINE
  8
CSLAYER1
  6
CONTINUOUS
 62
     7
 10
407.847593
 20
521.250000
 11
392.847593
 21
521.250000
  0
LINE
  8
CSLAYER1
  6
CONTINUOUS
 62
     7
 10
392.847593
 20
521.250000
 11
391.347593
 21
522.750000
  0
LINE
  8
CSLAYER1
  6
CONTINUOUS
 62
     7
 10
391.347593
 20
522.750000
 11
391.347593
 21
529.125000
  0
LINE
  8
CSLAYER1
  6
CONTINUOUS
 62
     7
 10
392.472593
 20
521.625000
 11
392.472593
 21
529.125000
  0
LINE
  8
CSLAYER1
  6
CENTER
 62
     2
 10
474.670940
 20
508.500000
 11
474.670940
 21
613.500000
  0
LINE
  8
CSLAYER1
  6
CONTINUOUS
 62
     7
 10
488.170940
 20
606.000000
 11
490.270940
 21
604.787565
  0
LINE
  8
CSLAYER1
  6
CONTINUOUS
 62
     7
 10
490.270940
 20
604.787565
 11
490.270940
 21
594.750000
  0
LINE
  8
CSLAYER1
  6
CONTINUOUS
 62
     7
 10
461.170940
 20
606.000000
 11
459.070940
 21
604.787565
  0
LINE
  8
CSLAYER1
  6
CONTINUOUS
 62
     7
 10
459.070940
 20
604.787565
 11
459.070940
 21
594.750000
  0
LINE
  8
CSLAYER1
  6
CONTINUOUS
 62
     7
 10
488.170940
 20
606.000000
 11
461.170940
 21
606.000000
  0
LINE
  8
CSLAYER1
  6
CONTINUOUS
 62
     7
 10
490.270940
 20
594.750000
 11
459.070940
 21
594.750000
  0
ARC
  8
CSLAYER1
  6
CONTINUOUS
 62
     7
 10
486.970940
 20
600.902822
 40
5.097178
 50
49.652860
 51
130.347140
  0
ARC
  8
CSLAYER1
  6
CONTINUOUS
 62
     7
 10
474.670940
 20
571.989946
 40
34.010055
 50
74.655173
 51
105.344827
  0
ARC
  8
CSLAYER1
  6
CONTINUOUS
 62
     7
 10
462.370940
 20
600.902822
 40
5.097178
 50
49.652860
 51
130.347140
  0
LINE
  8
CSLAYER1
  6
CONTINUOUS
 62
     7
 10
483.670940
 20
604.787565
 11
483.670940
 21
594.750000
  0
LINE
  8
CSLAYER1
  6
CONTINUOUS
 62
     7
 10
465.670940
 20
604.787565
 11
465.670940
 21
594.750000
  0
LINE
  8
CSLAYER1
  6
CONTINUOUS
 62
     7
 10
465.670940
 20
543.375000
 11
465.670940
 21
530.337436
  0
LINE
  8
CSLAYER1
  6
CONTINUOUS
 62
     7
 10
459.070940
 20
543.375000
 11
459.070940
 21
530.337436
  0
ARC
  8
CSLAYER1
  6
CONTINUOUS
 62
     7
 10
462.370940
 20
534.222178
 40
5.097178
 50
229.652860
 51
310.347140
  0
LINE
  8
CSLAYER1
  6
CONTINUOUS
 62
     7
 10
461.170940
 20
529.125000
 11
459.070940
 21
530.337436
  0
LINE
  8
CSLAYER1
  6
CONTINUOUS
 62
     7
 10
488.170940
 20
529.125000
 11
461.170940
 21
529.125000
  0
ARC
  8
CSLAYER1
  6
CONTINUOUS
 62
     7
 10
486.970940
 20
534.222178
 40
5.097178
 50
229.652860
 51
310.347140
  0
ARC
  8
CSLAYER1
  6
CONTINUOUS
 62
     7
 10
474.670940
 20
563.135055
 40
34.010055
 50
254.655173
 51
285.344827
  0
LINE
  8
CSLAYER1
  6
CONTINUOUS
 62
     7
 10
483.670940
 20
543.375000
 11
483.670940
 21
530.337436
  0
LINE
  8
CSLAYER1
  6
CONTINUOUS
 62
     7
 10
490.270940
 20
543.375000
 11
490.270940
 21
530.337436
  0
LINE
  8
CSLAYER1
  6
CONTINUOUS
 62
     7
 10
488.170940
 20
529.125000
 11
490.270940
 21
530.337436
  0
LINE
  8
CSLAYER1
  6
CONTINUOUS
 62
     7
 10
483.670940
 20
529.125000
 11
483.670940
 21
522.750000
  0
LINE
  8
CSLAYER1
  6
CONTINUOUS
 62
     7
 10
483.670940
 20
522.750000
 11
482.170940
 21
521.250000
  0
LINE
  8
CSLAYER1
  6
CONTINUOUS
 62
     7
 10
482.545940
 20
529.125000
 11
482.545940
 21
521.625000
  0
LINE
  8
CSLAYER1
  6
CONTINUOUS
 62
     7
 10
483.670940
 20
522.750000
 11
465.670940
 21
522.750000
  0
LINE
  8
CSLAYER1
  6
CONTINUOUS
 62
     7
 10
482.170940
 20
521.250000
 11
467.170940
 21
521.250000
  0
LINE
  8
CSLAYER1
  6
CONTINUOUS
 62
     7
 10
467.170940
 20
521.250000
 11
465.670940
 21
522.750000
  0
LINE
  8
CSLAYER1
  6
CONTINUOUS
 62
     7
 10
465.670940
 20
522.750000
 11
465.670940
 21
529.125000
  0
LINE
  8
CSLAYER1
  6
CONTINUOUS
 62
     7
 10
466.795940
 20
521.625000
 11
466.795940
 21
529.125000
  0
LINE
  8
CSLAYER1
  6
CENTER
 62
     2
 10
541.307429
 20
508.500000
 11
541.307429
 21
613.500000
  0
LINE
  8
CSLAYER1
  6
CONTINUOUS
 62
     7
 10
554.807429
 20
606.000000
 11
556.907429
 21
604.787565
  0
LINE
  8
CSLAYER1
  6
CONTINUOUS
 62
     7
 10
556.907429
 20
604.787565
 11
556.907429
 21
594.750000
  0
LINE
  8
CSLAYER1
  6
CONTINUOUS
 62
     7
 10
527.807429
 20
606.000000
 11
525.707429
 21
604.787565
  0
LINE
  8
CSLAYER1
  6
CONTINUOUS
 62
     7
 10
525.707429
 20
604.787565
 11
525.707429
 21
594.750000
  0
LINE
  8
CSLAYER1
  6
CONTINUOUS
 62
     7
 10
554.807429
 20
606.000000
 11
527.807429
 21
606.000000
  0
LINE
  8
CSLAYER1
  6
CONTINUOUS
 62
     7
 10
556.907429
 20
594.750000
 11
525.707429
 21
594.750000
  0
ARC
  8
CSLAYER1
  6
CONTINUOUS
 62
     7
 10
553.607429
 20
600.902822
 40
5.097178
 50
49.652860
 51
130.347140
  0
ARC
  8
CSLAYER1
  6
CONTINUOUS
 62
     7
 10
541.307429
 20
571.989946
 40
34.010055
 50
74.655173
 51
105.344827
  0
ARC
  8
CSLAYER1
  6
CONTINUOUS
 62
     7
 10
529.007429
 20
600.902822
 40
5.097178
 50
49.652860
 51
130.347140
  0
LINE
  8
CSLAYER1
  6
CONTINUOUS
 62
     7
 10
550.307429
 20
604.787565
 11
550.307429
 21
594.750000
  0
LINE
  8
CSLAYER1
  6
CONTINUOUS
 62
     7
 10
532.307429
 20
604.787565
 11
532.307429
 21
594.750000
  0
LINE
  8
CSLAYER1
  6
CONTINUOUS
 62
     7
 10
532.307429
 20
543.375000
 11
532.307429
 21
530.337436
  0
LINE
  8
CSLAYER1
  6
CONTINUOUS
 62
     7
 10
525.707429
 20
543.375000
 11
525.707429
 21
530.337436
  0
ARC
  8
CSLAYER1
  6
CONTINUOUS
 62
     7
 10
529.007429
 20
534.222178
 40
5.097178
 50
229.652860
 51
310.347140
  0
LINE
  8
CSLAYER1
  6
CONTINUOUS
 62
     7
 10
527.807429
 20
529.125000
 11
525.707429
 21
530.337436
  0
LINE
  8
CSLAYER1
  6
CONTINUOUS
 62
     7
 10
554.807429
 20
529.125000
 11
527.807429
 21
529.125000
  0
ARC
  8
CSLAYER1
  6
CONTINUOUS
 62
     7
 10
553.607429
 20
534.222178
 40
5.097178
 50
229.652860
 51
310.347140
  0
ARC
  8
CSLAYER1
  6
CONTINUOUS
 62
     7
 10
541.307429
 20
563.135055
 40
34.010055
 50
254.655173
 51
285.344827
  0
LINE
  8
CSLAYER1
  6
CONTINUOUS
 62
     7
 10
550.307429
 20
543.375000
 11
550.307429
 21
530.337436
  0
LINE
  8
CSLAYER1
  6
CONTINUOUS
 62
     7
 10
556.907429
 20
543.375000
 11
556.907429
 21
530.337436
  0
LINE
  8
CSLAYER1
  6
CONTINUOUS
 62
     7
 10
554.807429
 20
529.125000
 11
556.907429
 21
530.337436
  0
LINE
  8
CSLAYER1
  6
CONTINUOUS
 62
     7
 10
550.307429
 20
529.125000
 11
550.307429
 21
522.750000
  0
LINE
  8
CSLAYER1
  6
CONTINUOUS
 62
     7
 10
550.307429
 20
522.750000
 11
548.807429
 21
521.250000
  0
LINE
  8
CSLAYER1
  6
CONTINUOUS
 62
     7
 10
549.182429
 20
529.125000
 11
549.182429
 21
521.625000
  0
LINE
  8
CSLAYER1
  6
CONTINUOUS
 62
     7
 10
550.307429
 20
522.750000
 11
532.307429
 21
522.750000
  0
LINE
  8
CSLAYER1
  6
CONTINUOUS
 62
     7
 10
548.807429
 20
521.250000
 11
533.807429
 21
521.250000
  0
LINE
  8
CSLAYER1
  6
CONTINUOUS
 62
     7
 10
533.807429
 20
521.250000
 11
532.307429
 21
522.750000
  0
LINE
  8
CSLAYER1
  6
CONTINUOUS
 62
     7
 10
532.307429
 20
522.750000
 11
532.307429
 21
529.125000
  0
LINE
  8
CSLAYER1
  6
CONTINUOUS
 62
     7
 10
533.432429
 20
521.625000
 11
533.432429
 21
529.125000
  0
LINE
  8
CSLAYER1
  6
CENTER
 62
     2
 10
595.715895
 20
508.500000
 11
595.715895
 21
613.500000
  0
LINE
  8
CSLAYER1
  6
CONTINUOUS
 62
     7
 10
609.215895
 20
606.000000
 11
611.315895
 21
604.787565
  0
LINE
  8
CSLAYER1
  6
CONTINUOUS
 62
     7
 10
611.315895
 20
604.787565
 11
611.315895
 21
594.750000
  0
LINE
  8
CSLAYER1
  6
CONTINUOUS
 62
     7
 10
582.215895
 20
606.000000
 11
580.115895
 21
604.787565
  0
LINE
  8
CSLAYER1
  6
CONTINUOUS
 62
     7
 10
580.115895
 20
604.787565
 11
580.115895
 21
594.750000
  0
LINE
  8
CSLAYER1
  6
CONTINUOUS
 62
     7
 10
609.215895
 20
606.000000
 11
582.215895
 21
606.000000
  0
LINE
  8
CSLAYER1
  6
CONTINUOUS
 62
     7
 10
611.315895
 20
594.750000
 11
580.115895
 21
594.750000
  0
ARC
  8
CSLAYER1
  6
CONTINUOUS
 62
     7
 10
608.015895
 20
600.902822
 40
5.097178
 50
49.652860
 51
130.347140
  0
ARC
  8
CSLAYER1
  6
CONTINUOUS
 62
     7
 10
595.715895
 20
571.989946
 40
34.010055
 50
74.655173
 51
105.344827
  0
ARC
  8
CSLAYER1
  6
CONTINUOUS
 62
     7
 10
583.415895
 20
600.902822
 40
5.097178
 50
49.652860
 51
130.347140
  0
LINE
  8
CSLAYER1
  6
CONTINUOUS
 62
     7
 10
604.715895
 20
604.787565
 11
604.715895
 21
594.750000
  0
LINE
  8
CSLAYER1
  6
CONTINUOUS
 62
     7
 10
586.715895
 20
604.787565
 11
586.715895
 21
594.750000
  0
LINE
  8
CSLAYER1
  6
CONTINUOUS
 62
     7
 10
586.715895
 20
543.375000
 11
586.715895
 21
530.337436
  0
LINE
  8
CSLAYER1
  6
CONTINUOUS
 62
     7
 10
580.115895
 20
543.375000
 11
580.115895
 21
530.337436
  0
ARC
  8
CSLAYER1
  6
CONTINUOUS
 62
     7
 10
583.415895
 20
534.222178
 40
5.097178
 50
229.652860
 51
310.347140
  0
LINE
  8
CSLAYER1
  6
CONTINUOUS
 62
     7
 10
582.215895
 20
529.125000
 11
580.115895
 21
530.337436
  0
LINE
  8
CSLAYER1
  6
CONTINUOUS
 62
     7
 10
609.215895
 20
529.125000
 11
582.215895
 21
529.125000
  0
ARC
  8
CSLAYER1
  6
CONTINUOUS
 62
     7
 10
608.015895
 20
534.222178
 40
5.097178
 50
229.652860
 51
310.347140
  0
ARC
  8
CSLAYER1
  6
CONTINUOUS
 62
     7
 10
595.715895
 20
563.135055
 40
34.010055
 50
254.655173
 51
285.344827
  0
LINE
  8
CSLAYER1
  6
CONTINUOUS
 62
     7
 10
604.715895
 20
543.375000
 11
604.715895
 21
530.337436
  0
LINE
  8
CSLAYER1
  6
CONTINUOUS
 62
     7
 10
611.315895
 20
543.375000
 11
611.315895
 21
530.337436
  0
LINE
  8
CSLAYER1
  6
CONTINUOUS
 62
     7
 10
609.215895
 20
529.125000
 11
611.315895
 21
530.337436
  0
LINE
  8
CSLAYER1
  6
CONTINUOUS
 62
     7
 10
604.715895
 20
529.125000
 11
604.715895
 21
522.750000
  0
LINE
  8
CSLAYER1
  6
CONTINUOUS
 62
     7
 10
604.715895
 20
522.750000
 11
603.215895
 21
521.250000
  0
LINE
  8
CSLAYER1
  6
CONTINUOUS
 62
     7
 10
603.590895
 20
529.125000
 11
603.590895
 21
521.625000
  0
LINE
  8
CSLAYER1
  6
CONTINUOUS
 62
     7
 10
604.715895
 20
522.750000
 11
586.715895
 21
522.750000
  0
LINE
  8
CSLAYER1
  6
CONTINUOUS
 62
     7
 10
603.215895
 20
521.250000
 11
588.215895
 21
521.250000
  0
LINE
  8
CSLAYER1
  6
CONTINUOUS
 62
     7
 10
588.215895
 20
521.250000
 11
586.715895
 21
522.750000
  0
LINE
  8
CSLAYER1
  6
CONTINUOUS
 62
     7
 10
586.715895
 20
522.750000
 11
586.715895
 21
529.125000
  0
LINE
  8
CSLAYER1
  6
CONTINUOUS
 62
     7
 10
587.840895
 20
521.625000
 11
587.840895
 21
529.125000
  0
LINE
  8
CSLAYER1
  6
CENTER
 62
     2
 10
634.188490
 20
508.500000
 11
634.188490
 21
613.500000
  0
LINE
  8
CSLAYER1
  6
CONTINUOUS
 62
     7
 10
647.688490
 20
606.000000
 11
649.788490
 21
604.787565
  0
LINE
  8
CSLAYER1
  6
CONTINUOUS
 62
     7
 10
649.788490
 20
604.787565
 11
649.788490
 21
594.750000
  0
LINE
  8
CSLAYER1
  6
CONTINUOUS
 62
     7
 10
620.688490
 20
606.000000
 11
618.588490
 21
604.787565
  0
LINE
  8
CSLAYER1
  6
CONTINUOUS
 62
     7
 10
618.588490
 20
604.787565
 11
618.588490
 21
594.750000
  0
LINE
  8
CSLAYER1
  6
CONTINUOUS
 62
     7
 10
647.688490
 20
606.000000
 11
620.688490
 21
606.000000
  0
LINE
  8
CSLAYER1
  6
CONTINUOUS
 62
     7
 10
649.788490
 20
594.750000
 11
618.588490
 21
594.750000
  0
ARC
  8
CSLAYER1
  6
CONTINUOUS
 62
     7
 10
646.488490
 20
600.902822
 40
5.097178
 50
49.652860
 51
130.347140
  0
ARC
  8
CSLAYER1
  6
CONTINUOUS
 62
     7
 10
634.188490
 20
571.989946
 40
34.010055
 50
74.655173
 51
105.344827
  0
ARC
  8
CSLAYER1
  6
CONTINUOUS
 62
     7
 10
621.888490
 20
600.902822
 40
5.097178
 50
49.652860
 51
130.347140
  0
LINE
  8
CSLAYER1
  6
CONTINUOUS
 62
     7
 10
643.188490
 20
604.787565
 11
643.188490
 21
594.750000
  0
LINE
  8
CSLAYER1
  6
CONTINUOUS
 62
     7
 10
625.188490
 20
604.787565
 11
625.188490
 21
594.750000
  0
LINE
  8
CSLAYER1
  6
CONTINUOUS
 62
     7
 10
625.188490
 20
543.375000
 11
625.188490
 21
530.337436
  0
LINE
  8
CSLAYER1
  6
CONTINUOUS
 62
     7
 10
618.588490
 20
543.375000
 11
618.588490
 21
530.337436
  0
ARC
  8
CSLAYER1
  6
CONTINUOUS
 62
     7
 10
621.888490
 20
534.222178
 40
5.097178
 50
229.652860
 51
310.347140
  0
LINE
  8
CSLAYER1
  6
CONTINUOUS
 62
     7
 10
620.688490
 20
529.125000
 11
618.588490
 21
530.337436
  0
LINE
  8
CSLAYER1
  6
CONTINUOUS
 62
     7
 10
647.688490
 20
529.125000
 11
620.688490
 21
529.125000
  0
ARC
  8
CSLAYER1
  6
CONTINUOUS
 62
     7
 10
646.488490
 20
534.222178
 40
5.097178
 50
229.652860
 51
310.347140
  0
ARC
  8
CSLAYER1
  6
CONTINUOUS
 62
     7
 10
634.188490
 20
563.135055
 40
34.010055
 50
254.655173
 51
285.344827
  0
LINE
  8
CSLAYER1
  6
CONTINUOUS
 62
     7
 10
643.188490
 20
543.375000
 11
643.188490
 21
530.337436
  0
LINE
  8
CSLAYER1
  6
CONTINUOUS
 62
     7
 10
649.788490
 20
543.375000
 11
649.788490
 21
530.337436
  0
LINE
  8
CSLAYER1
  6
CONTINUOUS
 62
     7
 10
647.688490
 20
529.125000
 11
649.788490
 21
530.337436
  0
LINE
  8
CSLAYER1
  6
CONTINUOUS
 62
     7
 10
643.188490
 20
529.125000
 11
643.188490
 21
522.750000
  0
LINE
  8
CSLAYER1
  6
CONTINUOUS
 62
     7
 10
643.188490
 20
522.750000
 11
641.688490
 21
521.250000
  0
LINE
  8
CSLAYER1
  6
CONTINUOUS
 62
     7
 10
642.063490
 20
529.125000
 11
642.063490
 21
521.625000
  0
LINE
  8
CSLAYER1
  6
CONTINUOUS
 62
     7
 10
643.188490
 20
522.750000
 11
625.188490
 21
522.750000
  0
LINE
  8
CSLAYER1
  6
CONTINUOUS
 62
     7
 10
641.688490
 20
521.250000
 11
626.688490
 21
521.250000
  0
LINE
  8
CSLAYER1
  6
CONTINUOUS
 62
     7
 10
626.688490
 20
521.250000
 11
625.188490
 21
522.750000
  0
LINE
  8
CSLAYER1
  6
CONTINUOUS
 62
     7
 10
625.188490
 20
522.750000
 11
625.188490
 21
529.125000
  0
LINE
  8
CSLAYER1
  6
CONTINUOUS
 62
     7
 10
626.313490
 20
521.625000
 11
626.313490
 21
529.125000
  0
LINE
  8
CSLAYER1
  6
CONTINUOUS
 62
     7
 10
53.624998
 20
327.750000
 11
51.524998
 21
326.537565
  0
LINE
  8
CSLAYER1
  6
CONTINUOUS
 62
     7
 10
51.524998
 20
326.537565
 11
51.524998
 21
316.500000
  0
LINE
  8
CSLAYER1
  6
CONTINUOUS
 62
     7
 10
53.624998
 20
327.750000
 11
80.624998
 21
327.750000
  0
LINE
  8
CSLAYER1
  6
CONTINUOUS
 62
     7
 10
51.524998
 20
316.500000
 11
82.724998
 21
316.500000
  0
ARC
  8
CSLAYER1
  6
CONTINUOUS
 62
     7
 10
54.824998
 20
322.652822
 40
5.097178
 50
49.652860
 51
130.347140
  0
ARC
  8
CSLAYER1
  6
CONTINUOUS
 62
     7
 10
67.124998
 20
293.739946
 40
34.010055
 50
77.277230
 51
105.344827
  0
LINE
  8
CSLAYER1
  6
CONTINUOUS
 62
     7
 10
58.124998
 20
326.537565
 11
58.124998
 21
316.500000
  0
LINE
  8
CSLAYER1
  6
CONTINUOUS
 62
     7
 10
53.624998
 20
250.500000
 11
80.624998
 21
250.500000
  0
ARC
  8
CSLAYER1
  6
CONTINUOUS
 62
     7
 10
54.824998
 20
255.597178
 40
5.097178
 50
229.652860
 51
310.347140
  0
ARC
  8
CSLAYER1
  6
CONTINUOUS
 62
     7
 10
67.124998
 20
284.510055
 40
34.010055
 50
254.655173
 51
282.722770
  0
LINE
  8
CSLAYER1
  6
CONTINUOUS
 62
     7
 10
58.124998
 20
264.750000
 11
58.124998
 21
251.712436
  0
LINE
  8
CSLAYER1
  6
CONTINUOUS
 62
     7
 10
51.524998
 20
264.750000
 11
51.524998
 21
251.712436
  0
LINE
  8
CSLAYER1
  6
CONTINUOUS
 62
     7
 10
53.624998
 20
250.500000
 11
51.524998
 21
251.712436
  0
LINE
  8
CSLAYER1
  6
CONTINUOUS
 62
     7
 10
58.124998
 20
250.500000
 11
58.124998
 21
244.500000
  0
LINE
  8
CSLAYER1
  6
CONTINUOUS
 62
     7
 10
58.124998
 20
244.500000
 11
59.624998
 21
243.000000
  0
LINE
  8
CSLAYER1
  6
CONTINUOUS
 62
     7
 10
59.249998
 20
250.500000
 11
59.249998
 21
243.375000
  0
LINE
  8
CSLAYER1
  6
CONTINUOUS
 62
     7
 10
58.124998
 20
244.500000
 11
76.124998
 21
244.500000
  0
LINE
  8
CSLAYER1
  6
CONTINUOUS
 62
     7
 10
59.624998
 20
243.000000
 11
74.624998
 21
243.000000
  0
LINE
  8
CSLAYER1
  6
CONTINUOUS
 62
     7
 10
74.624998
 20
243.000000
 11
76.124998
 21
244.500000
  0
LINE
  8
CSLAYER1
  6
CONTINUOUS
 62
     7
 10
76.124998
 20
244.500000
 11
76.124998
 21
250.500000
  0
LINE
  8
CSLAYER1
  6
CONTINUOUS
 62
     7
 10
74.999998
 20
243.375000
 11
74.999998
 21
250.500000
  0
LINE
  8
CSLAYER1
  6
CENTER
 62
     2
 10
67.124998
 20
230.250000
 11
67.124998
 21
335.250000
  0
LINE
  8
CSLAYER1
  6
CONTINUOUS
 62
     7
 10
670.124998
 20
327.750000
 11
672.224998
 21
326.537565
  0
LINE
  8
CSLAYER1
  6
CONTINUOUS
 62
     7
 10
672.224998
 20
326.537565
 11
672.224998
 21
316.500000
  0
LINE
  8
CSLAYER1
  6
CONTINUOUS
 62
     7
 10
670.124998
 20
327.750000
 11
643.124998
 21
327.750000
  0
LINE
  8
CSLAYER1
  6
CONTINUOUS
 62
     7
 10
672.224998
 20
316.500000
 11
641.024998
 21
316.500000
  0
ARC
  8
CSLAYER1
  6
CONTINUOUS
 62
     7
 10
668.924998
 20
322.652822
 40
5.097178
 50
49.652860
 51
130.347140
  0
ARC
  8
CSLAYER1
  6
CONTINUOUS
 62
     7
 10
656.624998
 20
293.739946
 40
34.010055
 50
74.655173
 51
102.531152
  0
LINE
  8
CSLAYER1
  6
CONTINUOUS
 62
     7
 10
665.624998
 20
326.537565
 11
665.624998
 21
316.500000
  0
LINE
  8
CSLAYER1
  6
CONTINUOUS
 62
     7
 10
670.124998
 20
250.500000
 11
643.124998
 21
250.500000
  0
ARC
  8
CSLAYER1
  6
CONTINUOUS
 62
     7
 10
668.924998
 20
255.597178
 40
5.097178
 50
229.652860
 51
310.347140
  0
ARC
  8
CSLAYER1
  6
CONTINUOUS
 62
     7
 10
656.624998
 20
284.510055
 40
34.010055
 50
257.468848
 51
285.344827
  0
LINE
  8
CSLAYER1
  6
CONTINUOUS
 62
     7
 10
665.624998
 20
264.750000
 11
665.624998
 21
251.712436
  0
LINE
  8
CSLAYER1
  6
CONTINUOUS
 62
     7
 10
672.224998
 20
264.750000
 11
672.224998
 21
251.712436
  0
LINE
  8
CSLAYER1
  6
CONTINUOUS
 62
     7
 10
670.124998
 20
250.500000
 11
672.224998
 21
251.712436
  0
LINE
  8
CSLAYER1
  6
CONTINUOUS
 62
     7
 10
665.624998
 20
250.500000
 11
665.624998
 21
244.500000
  0
LINE
  8
CSLAYER1
  6
CONTINUOUS
 62
     7
 10
665.624998
 20
244.500000
 11
664.124998
 21
243.000000
  0
LINE
  8
CSLAYER1
  6
CONTINUOUS
 62
     7
 10
664.499998
 20
250.500000
 11
664.499998
 21
243.375000
  0
LINE
  8
CSLAYER1
  6
CONTINUOUS
 62
     7
 10
665.624998
 20
244.500000
 11
647.624998
 21
244.500000
  0
LINE
  8
CSLAYER1
  6
CONTINUOUS
 62
     7
 10
664.124998
 20
243.000000
 11
649.124998
 21
243.000000
  0
LINE
  8
CSLAYER1
  6
CONTINUOUS
 62
     7
 10
649.124998
 20
243.000000
 11
647.624998
 21
244.500000
  0
LINE
  8
CSLAYER1
  6
CONTINUOUS
 62
     7
 10
647.624998
 20
244.500000
 11
647.624998
 21
250.500000
  0
LINE
  8
CSLAYER1
  6
CONTINUOUS
 62
     7
 10
648.749998
 20
243.375000
 11
648.749998
 21
250.500000
  0
LINE
  8
CSLAYER1
  6
CENTER
 62
     2
 10
656.624998
 20
230.250000
 11
656.624998
 21
335.250000
  0
LINE
  8
CSLAYER1
  6
CENTER
 62
     2
 10
323.402403
 20
230.250000
 11
323.402403
 21
335.250000
  0
LINE
  8
CSLAYER1
  6
CONTINUOUS
 62
     7
 10
309.902403
 20
327.750000
 11
307.802403
 21
326.537565
  0
LINE
  8
CSLAYER1
  6
CONTINUOUS
 62
     7
 10
307.802403
 20
326.537565
 11
307.802403
 21
316.500000
  0
LINE
  8
CSLAYER1
  6
CONTINUOUS
 62
     7
 10
336.902403
 20
327.750000
 11
339.002403
 21
326.537565
  0
LINE
  8
CSLAYER1
  6
CONTINUOUS
 62
     7
 10
339.002403
 20
326.537565
 11
339.002403
 21
316.500000
  0
LINE
  8
CSLAYER1
  6
CONTINUOUS
 62
     7
 10
309.902403
 20
327.750000
 11
336.902403
 21
327.750000
  0
LINE
  8
CSLAYER1
  6
CONTINUOUS
 62
     7
 10
307.802403
 20
316.500000
 11
339.002403
 21
316.500000
  0
ARC
  8
CSLAYER1
  6
CONTINUOUS
 62
     7
 10
311.102403
 20
322.652822
 40
5.097178
 50
49.652860
 51
130.347140
  0
ARC
  8
CSLAYER1
  6
CONTINUOUS
 62
     7
 10
323.402403
 20
293.739946
 40
34.010055
 50
74.655173
 51
105.344827
  0
ARC
  8
CSLAYER1
  6
CONTINUOUS
 62
     7
 10
335.702403
 20
322.652822
 40
5.097178
 50
49.652860
 51
130.347140
  0
LINE
  8
CSLAYER1
  6
CONTINUOUS
 62
     7
 10
314.402403
 20
326.537565
 11
314.402403
 21
316.500000
  0
LINE
  8
CSLAYER1
  6
CONTINUOUS
 62
     7
 10
332.402403
 20
326.537565
 11
332.402403
 21
316.500000
  0
LINE
  8
CSLAYER1
  6
CONTINUOUS
 62
     7
 10
332.402403
 20
264.750000
 11
332.402403
 21
251.712436
  0
LINE
  8
CSLAYER1
  6
CONTINUOUS
 62
     7
 10
339.002403
 20
264.750000
 11
339.002403
 21
251.712436
  0
ARC
  8
CSLAYER1
  6
CONTINUOUS
 62
     7
 10
335.702403
 20
255.597178
 40
5.097178
 50
229.652860
 51
310.347140
  0
LINE
  8
CSLAYER1
  6
CONTINUOUS
 62
     7
 10
336.902403
 20
250.500000
 11
339.002403
 21
251.712436
  0
LINE
  8
CSLAYER1
  6
CONTINUOUS
 62
     7
 10
309.902403
 20
250.500000
 11
336.902403
 21
250.500000
  0
ARC
  8
CSLAYER1
  6
CONTINUOUS
 62
     7
 10
311.102403
 20
255.597178
 40
5.097178
 50
229.652860
 51
310.347140
  0
ARC
  8
CSLAYER1
  6
CONTINUOUS
 62
     7
 10
323.402403
 20
284.510055
 40
34.010055
 50
254.655173
 51
285.344827
  0
LINE
  8
CSLAYER1
  6
CONTINUOUS
 62
     7
 10
314.402403
 20
264.750000
 11
314.402403
 21
251.712436
  0
LINE
  8
CSLAYER1
  6
CONTINUOUS
 62
     7
 10
307.802403
 20
264.750000
 11
307.802403
 21
251.712436
  0
LINE
  8
CSLAYER1
  6
CONTINUOUS
 62
     7
 10
309.902403
 20
250.500000
 11
307.802403
 21
251.712436
  0
LINE
  8
CSLAYER1
  6
CONTINUOUS
 62
     7
 10
314.402403
 20
250.500000
 11
314.402403
 21
244.500000
  0
LINE
  8
CSLAYER1
  6
CONTINUOUS
 62
     7
 10
314.402403
 20
244.500000
 11
315.902403
 21
243.000000
  0
LINE
  8
CSLAYER1
  6
CONTINUOUS
 62
     7
 10
315.527403
 20
250.500000
 11
315.527403
 21
243.375000
  0
LINE
  8
CSLAYER1
  6
CONTINUOUS
 62
     7
 10
314.402403
 20
244.500000
 11
332.402403
 21
244.500000
  0
LINE
  8
CSLAYER1
  6
CONTINUOUS
 62
     7
 10
315.902403
 20
243.000000
 11
330.902403
 21
243.000000
  0
LINE
  8
CSLAYER1
  6
CONTINUOUS
 62
     7
 10
330.902403
 20
243.000000
 11
332.402403
 21
244.500000
  0
LINE
  8
CSLAYER1
  6
CONTINUOUS
 62
     7
 10
332.402403
 20
244.500000
 11
332.402403
 21
250.500000
  0
LINE
  8
CSLAYER1
  6
CONTINUOUS
 62
     7
 10
331.277403
 20
243.375000
 11
331.277403
 21
250.500000
  0
LINE
  8
CSLAYER1
  6
CENTER
 62
     2
 10
249.079057
 20
230.250000
 11
249.079057
 21
335.250000
  0
LINE
  8
CSLAYER1
  6
CONTINUOUS
 62
     7
 10
235.579057
 20
327.750000
 11
233.479057
 21
326.537565
  0
LINE
  8
CSLAYER1
  6
CONTINUOUS
 62
     7
 10
233.479057
 20
326.537565
 11
233.479057
 21
316.500000
  0
LINE
  8
CSLAYER1
  6
CONTINUOUS
 62
     7
 10
262.579057
 20
327.750000
 11
264.679057
 21
326.537565
  0
LINE
  8
CSLAYER1
  6
CONTINUOUS
 62
     7
 10
264.679057
 20
326.537565
 11
264.679057
 21
316.500000
  0
LINE
  8
CSLAYER1
  6
CONTINUOUS
 62
     7
 10
235.579057
 20
327.750000
 11
262.579057
 21
327.750000
  0
LINE
  8
CSLAYER1
  6
CONTINUOUS
 62
     7
 10
233.479057
 20
316.500000
 11
264.679057
 21
316.500000
  0
ARC
  8
CSLAYER1
  6
CONTINUOUS
 62
     7
 10
236.779057
 20
322.652822
 40
5.097178
 50
49.652860
 51
130.347140
  0
ARC
  8
CSLAYER1
  6
CONTINUOUS
 62
     7
 10
249.079057
 20
293.739946
 40
34.010055
 50
74.655173
 51
105.344827
  0
ARC
  8
CSLAYER1
  6
CONTINUOUS
 62
     7
 10
261.379057
 20
322.652822
 40
5.097178
 50
49.652860
 51
130.347140
  0
LINE
  8
CSLAYER1
  6
CONTINUOUS
 62
     7
 10
240.079057
 20
326.537565
 11
240.079057
 21
316.500000
  0
LINE
  8
CSLAYER1
  6
CONTINUOUS
 62
     7
 10
258.079057
 20
326.537565
 11
258.079057
 21
316.500000
  0
LINE
  8
CSLAYER1
  6
CONTINUOUS
 62
     7
 10
258.079057
 20
264.750000
 11
258.079057
 21
251.712436
  0
LINE
  8
CSLAYER1
  6
CONTINUOUS
 62
     7
 10
264.679057
 20
264.750000
 11
264.679057
 21
251.712436
  0
ARC
  8
CSLAYER1
  6
CONTINUOUS
 62
     7
 10
261.379057
 20
255.597178
 40
5.097178
 50
229.652860
 51
310.347140
  0
LINE
  8
CSLAYER1
  6
CONTINUOUS
 62
     7
 10
262.579057
 20
250.500000
 11
264.679057
 21
251.712436
  0
LINE
  8
CSLAYER1
  6
CONTINUOUS
 62
     7
 10
235.579057
 20
250.500000
 11
262.579057
 21
250.500000
  0
ARC
  8
CSLAYER1
  6
CONTINUOUS
 62
     7
 10
236.779057
 20
255.597178
 40
5.097178
 50
229.652860
 51
310.347140
  0
ARC
  8
CSLAYER1
  6
CONTINUOUS
 62
     7
 10
249.079057
 20
284.510055
 40
34.010055
 50
254.655173
 51
285.344827
  0
LINE
  8
CSLAYER1
  6
CONTINUOUS
 62
     7
 10
240.079057
 20
264.750000
 11
240.079057
 21
251.712436
  0
LINE
  8
CSLAYER1
  6
CONTINUOUS
 62
     7
 10
233.479057
 20
264.750000
 11
233.479057
 21
251.712436
  0
LINE
  8
CSLAYER1
  6
CONTINUOUS
 62
     7
 10
235.579057
 20
250.500000
 11
233.479057
 21
251.712436
  0
LINE
  8
CSLAYER1
  6
CONTINUOUS
 62
     7
 10
240.079057
 20
250.500000
 11
240.079057
 21
244.500000
  0
LINE
  8
CSLAYER1
  6
CONTINUOUS
 62
     7
 10
240.079057
 20
244.500000
 11
241.579057
 21
243.000000
  0
LINE
  8
CSLAYER1
  6
CONTINUOUS
 62
     7
 10
241.204057
 20
250.500000
 11
241.204057
 21
243.375000
  0
LINE
  8
CSLAYER1
  6
CONTINUOUS
 62
     7
 10
240.079057
 20
244.500000
 11
258.079057
 21
244.500000
  0
LINE
  8
CSLAYER1
  6
CONTINUOUS
 62
     7
 10
241.579057
 20
243.000000
 11
256.579057
 21
243.000000
  0
LINE
  8
CSLAYER1
  6
CONTINUOUS
 62
     7
 10
256.579057
 20
243.000000
 11
258.079057
 21
244.500000
  0
LINE
  8
CSLAYER1
  6
CONTINUOUS
 62
     7
 10
258.079057
 20
244.500000
 11
258.079057
 21
250.500000
  0
LINE
  8
CSLAYER1
  6
CONTINUOUS
 62
     7
 10
256.954057
 20
243.375000
 11
256.954057
 21
250.500000
  0
LINE
  8
CSLAYER1
  6
CENTER
 62
     2
 10
182.442567
 20
230.250000
 11
182.442567
 21
335.250000
  0
LINE
  8
CSLAYER1
  6
CONTINUOUS
 62
     7
 10
168.942567
 20
327.750000
 11
166.842567
 21
326.537565
  0
LINE
  8
CSLAYER1
  6
CONTINUOUS
 62
     7
 10
166.842567
 20
326.537565
 11
166.842567
 21
316.500000
  0
LINE
  8
CSLAYER1
  6
CONTINUOUS
 62
     7
 10
195.942567
 20
327.750000
 11
198.042567
 21
326.537565
  0
LINE
  8
CSLAYER1
  6
CONTINUOUS
 62
     7
 10
198.042567
 20
326.537565
 11
198.042567
 21
316.500000
  0
LINE
  8
CSLAYER1
  6
CONTINUOUS
 62
     7
 10
168.942567
 20
327.750000
 11
195.942567
 21
327.750000
  0
LINE
  8
CSLAYER1
  6
CONTINUOUS
 62
     7
 10
166.842567
 20
316.500000
 11
198.042567
 21
316.500000
  0
ARC
  8
CSLAYER1
  6
CONTINUOUS
 62
     7
 10
170.142567
 20
322.652822
 40
5.097178
 50
49.652860
 51
130.347140
  0
ARC
  8
CSLAYER1
  6
CONTINUOUS
 62
     7
 10
182.442567
 20
293.739946
 40
34.010055
 50
74.655173
 51
105.344827
  0
ARC
  8
CSLAYER1
  6
CONTINUOUS
 62
     7
 10
194.742567
 20
322.652822
 40
5.097178
 50
49.652860
 51
130.347140
  0
LINE
  8
CSLAYER1
  6
CONTINUOUS
 62
     7
 10
173.442567
 20
326.537565
 11
173.442567
 21
316.500000
  0
LINE
  8
CSLAYER1
  6
CONTINUOUS
 62
     7
 10
191.442567
 20
326.537565
 11
191.442567
 21
316.500000
  0
LINE
  8
CSLAYER1
  6
CONTINUOUS
 62
     7
 10
191.442567
 20
264.750000
 11
191.442567
 21
251.712436
  0
LINE
  8
CSLAYER1
  6
CONTINUOUS
 62
     7
 10
198.042567
 20
264.750000
 11
198.042567
 21
251.712436
  0
ARC
  8
CSLAYER1
  6
CONTINUOUS
 62
     7
 10
194.742567
 20
255.597178
 40
5.097178
 50
229.652860
 51
310.347140
  0
LINE
  8
CSLAYER1
  6
CONTINUOUS
 62
     7
 10
195.942567
 20
250.500000
 11
198.042567
 21
251.712436
  0
LINE
  8
CSLAYER1
  6
CONTINUOUS
 62
     7
 10
168.942567
 20
250.500000
 11
195.942567
 21
250.500000
  0
ARC
  8
CSLAYER1
  6
CONTINUOUS
 62
     7
 10
170.142567
 20
255.597178
 40
5.097178
 50
229.652860
 51
310.347140
  0
ARC
  8
CSLAYER1
  6
CONTINUOUS
 62
     7
 10
182.442567
 20
284.510055
 40
34.010055
 50
254.655173
 51
285.344827
  0
LINE
  8
CSLAYER1
  6
CONTINUOUS
 62
     7
 10
173.442567
 20
264.750000
 11
173.442567
 21
251.712436
  0
LINE
  8
CSLAYER1
  6
CONTINUOUS
 62
     7
 10
166.842567
 20
264.750000
 11
166.842567
 21
251.712436
  0
LINE
  8
CSLAYER1
  6
CONTINUOUS
 62
     7
 10
168.942567
 20
250.500000
 11
166.842567
 21
251.712436
  0
LINE
  8
CSLAYER1
  6
CONTINUOUS
 62
     7
 10
173.442567
 20
250.500000
 11
173.442567
 21
244.500000
  0
LINE
  8
CSLAYER1
  6
CONTINUOUS
 62
     7
 10
173.442567
 20
244.500000
 11
174.942567
 21
243.000000
  0
LINE
  8
CSLAYER1
  6
CONTINUOUS
 62
     7
 10
174.567567
 20
250.500000
 11
174.567567
 21
243.375000
  0
LINE
  8
CSLAYER1
  6
CONTINUOUS
 62
     7
 10
173.442567
 20
244.500000
 11
191.442567
 21
244.500000
  0
LINE
  8
CSLAYER1
  6
CONTINUOUS
 62
     7
 10
174.942567
 20
243.000000
 11
189.942567
 21
243.000000
  0
LINE
  8
CSLAYER1
  6
CONTINUOUS
 62
     7
 10
189.942567
 20
243.000000
 11
191.442567
 21
244.500000
  0
LINE
  8
CSLAYER1
  6
CONTINUOUS
 62
     7
 10
191.442567
 20
244.500000
 11
191.442567
 21
250.500000
  0
LINE
  8
CSLAYER1
  6
CONTINUOUS
 62
     7
 10
190.317567
 20
243.375000
 11
190.317567
 21
250.500000
  0
LINE
  8
CSLAYER1
  6
CENTER
 62
     2
 10
128.034101
 20
230.250000
 11
128.034101
 21
335.250000
  0
LINE
  8
CSLAYER1
  6
CONTINUOUS
 62
     7
 10
114.534101
 20
327.750000
 11
112.434101
 21
326.537565
  0
LINE
  8
CSLAYER1
  6
CONTINUOUS
 62
     7
 10
112.434101
 20
326.537565
 11
112.434101
 21
316.500000
  0
LINE
  8
CSLAYER1
  6
CONTINUOUS
 62
     7
 10
141.534101
 20
327.750000
 11
143.634101
 21
326.537565
  0
LINE
  8
CSLAYER1
  6
CONTINUOUS
 62
     7
 10
143.634101
 20
326.537565
 11
143.634101
 21
316.500000
  0
LINE
  8
CSLAYER1
  6
CONTINUOUS
 62
     7
 10
114.534101
 20
327.750000
 11
141.534101
 21
327.750000
  0
LINE
  8
CSLAYER1
  6
CONTINUOUS
 62
     7
 10
112.434101
 20
316.500000
 11
143.634101
 21
316.500000
  0
ARC
  8
CSLAYER1
  6
CONTINUOUS
 62
     7
 10
115.734101
 20
322.652822
 40
5.097178
 50
49.652860
 51
130.347140
  0
ARC
  8
CSLAYER1
  6
CONTINUOUS
 62
     7
 10
128.034101
 20
293.739946
 40
34.010055
 50
74.655173
 51
105.344827
  0
ARC
  8
CSLAYER1
  6
CONTINUOUS
 62
     7
 10
140.334101
 20
322.652822
 40
5.097178
 50
49.652860
 51
130.347140
  0
LINE
  8
CSLAYER1
  6
CONTINUOUS
 62
     7
 10
119.034101
 20
326.537565
 11
119.034101
 21
316.500000
  0
LINE
  8
CSLAYER1
  6
CONTINUOUS
 62
     7
 10
137.034101
 20
326.537565
 11
137.034101
 21
316.500000
  0
LINE
  8
CSLAYER1
  6
CONTINUOUS
 62
     7
 10
137.034101
 20
264.750000
 11
137.034101
 21
251.712436
  0
LINE
  8
CSLAYER1
  6
CONTINUOUS
 62
     7
 10
143.634101
 20
264.750000
 11
143.634101
 21
251.712436
  0
ARC
  8
CSLAYER1
  6
CONTINUOUS
 62
     7
 10
140.334101
 20
255.597178
 40
5.097178
 50
229.652860
 51
310.347140
  0
LINE
  8
CSLAYER1
  6
CONTINUOUS
 62
     7
 10
141.534101
 20
250.500000
 11
143.634101
 21
251.712436
  0
LINE
  8
CSLAYER1
  6
CONTINUOUS
 62
     7
 10
114.534101
 20
250.500000
 11
141.534101
 21
250.500000
  0
ARC
  8
CSLAYER1
  6
CONTINUOUS
 62
     7
 10
115.734101
 20
255.597178
 40
5.097178
 50
229.652860
 51
310.347140
  0
ARC
  8
CSLAYER1
  6
CONTINUOUS
 62
     7
 10
128.034101
 20
284.510055
 40
34.010055
 50
254.655173
 51
285.344827
  0
LINE
  8
CSLAYER1
  6
CONTINUOUS
 62
     7
 10
119.034101
 20
264.750000
 11
119.034101
 21
251.712436
  0
LINE
  8
CSLAYER1
  6
CONTINUOUS
 62
     7
 10
112.434101
 20
264.750000
 11
112.434101
 21
251.712436
  0
LINE
  8
CSLAYER1
  6
CONTINUOUS
 62
     7
 10
114.534101
 20
250.500000
 11
112.434101
 21
251.712436
  0
LINE
  8
CSLAYER1
  6
CONTINUOUS
 62
     7
 10
119.034101
 20
250.500000
 11
119.034101
 21
244.500000
  0
LINE
  8
CSLAYER1
  6
CONTINUOUS
 62
     7
 10
119.034101
 20
244.500000
 11
120.534101
 21
243.000000
  0
LINE
  8
CSLAYER1
  6
CONTINUOUS
 62
     7
 10
120.159101
 20
250.500000
 11
120.159101
 21
243.375000
  0
LINE
  8
CSLAYER1
  6
CONTINUOUS
 62
     7
 10
119.034101
 20
244.500000
 11
137.034101
 21
244.500000
  0
LINE
  8
CSLAYER1
  6
CONTINUOUS
 62
     7
 10
120.534101
 20
243.000000
 11
135.534101
 21
243.000000
  0
LINE
  8
CSLAYER1
  6
CONTINUOUS
 62
     7
 10
135.534101
 20
243.000000
 11
137.034101
 21
244.500000
  0
LINE
  8
CSLAYER1
  6
CONTINUOUS
 62
     7
 10
137.034101
 20
244.500000
 11
137.034101
 21
250.500000
  0
LINE
  8
CSLAYER1
  6
CONTINUOUS
 62
     7
 10
135.909101
 20
243.375000
 11
135.909101
 21
250.500000
  0
LINE
  8
CSLAYER1
  6
CENTER
 62
     2
 10
89.561506
 20
230.250000
 11
89.561506
 21
335.250000
  0
LINE
  8
CSLAYER1
  6
CONTINUOUS
 62
     7
 10
76.061506
 20
327.750000
 11
73.961506
 21
326.537565
  0
LINE
  8
CSLAYER1
  6
CONTINUOUS
 62
     7
 10
73.961506
 20
326.537565
 11
73.961506
 21
316.500000
  0
LINE
  8
CSLAYER1
  6
CONTINUOUS
 62
     7
 10
103.061506
 20
327.750000
 11
105.161506
 21
326.537565
  0
LINE
  8
CSLAYER1
  6
CONTINUOUS
 62
     7
 10
105.161506
 20
326.537565
 11
105.161506
 21
316.500000
  0
LINE
  8
CSLAYER1
  6
CONTINUOUS
 62
     7
 10
76.061506
 20
327.750000
 11
103.061506
 21
327.750000
  0
LINE
  8
CSLAYER1
  6
CONTINUOUS
 62
     7
 10
73.961506
 20
316.500000
 11
105.161506
 21
316.500000
  0
ARC
  8
CSLAYER1
  6
CONTINUOUS
 62
     7
 10
77.261506
 20
322.652822
 40
5.097178
 50
49.652860
 51
130.347140
  0
ARC
  8
CSLAYER1
  6
CONTINUOUS
 62
     7
 10
89.561506
 20
293.739946
 40
34.010055
 50
74.655173
 51
105.344827
  0
ARC
  8
CSLAYER1
  6
CONTINUOUS
 62
     7
 10
101.861506
 20
322.652822
 40
5.097178
 50
49.652860
 51
130.347140
  0
LINE
  8
CSLAYER1
  6
CONTINUOUS
 62
     7
 10
80.561506
 20
326.537565
 11
80.561506
 21
316.500000
  0
LINE
  8
CSLAYER1
  6
CONTINUOUS
 62
     7
 10
98.561506
 20
326.537565
 11
98.561506
 21
316.500000
  0
LINE
  8
CSLAYER1
  6
CONTINUOUS
 62
     7
 10
98.561506
 20
264.750000
 11
98.561506
 21
251.712436
  0
LINE
  8
CSLAYER1
  6
CONTINUOUS
 62
     7
 10
105.161506
 20
264.750000
 11
105.161506
 21
251.712436
  0
ARC
  8
CSLAYER1
  6
CONTINUOUS
 62
     7
 10
101.861506
 20
255.597178
 40
5.097178
 50
229.652860
 51
310.347140
  0
LINE
  8
CSLAYER1
  6
CONTINUOUS
 62
     7
 10
103.061506
 20
250.500000
 11
105.161506
 21
251.712436
  0
LINE
  8
CSLAYER1
  6
CONTINUOUS
 62
     7
 10
76.061506
 20
250.500000
 11
103.061506
 21
250.500000
  0
ARC
  8
CSLAYER1
  6
CONTINUOUS
 62
     7
 10
77.261506
 20
255.597178
 40
5.097178
 50
229.652860
 51
310.347140
  0
ARC
  8
CSLAYER1
  6
CONTINUOUS
 62
     7
 10
89.561506
 20
284.510055
 40
34.010055
 50
254.655173
 51
285.344827
  0
LINE
  8
CSLAYER1
  6
CONTINUOUS
 62
     7
 10
80.561506
 20
264.750000
 11
80.561506
 21
251.712436
  0
LINE
  8
CSLAYER1
  6
CONTINUOUS
 62
     7
 10
73.961506
 20
264.750000
 11
73.961506
 21
251.712436
  0
LINE
  8
CSLAYER1
  6
CONTINUOUS
 62
     7
 10
76.061506
 20
250.500000
 11
73.961506
 21
251.712436
  0
LINE
  8
CSLAYER1
  6
CONTINUOUS
 62
     7
 10
80.561506
 20
250.500000
 11
80.561506
 21
244.500000
  0
LINE
  8
CSLAYER1
  6
CONTINUOUS
 62
     7
 10
80.561506
 20
244.500000
 11
82.061506
 21
243.000000
  0
LINE
  8
CSLAYER1
  6
CONTINUOUS
 62
     7
 10
81.686506
 20
250.500000
 11
81.686506
 21
243.375000
  0
LINE
  8
CSLAYER1
  6
CONTINUOUS
 62
     7
 10
80.561506
 20
244.500000
 11
98.561506
 21
244.500000
  0
LINE
  8
CSLAYER1
  6
CONTINUOUS
 62
     7
 10
82.061506
 20
243.000000
 11
97.061506
 21
243.000000
  0
LINE
  8
CSLAYER1
  6
CONTINUOUS
 62
     7
 10
97.061506
 20
243.000000
 11
98.561506
 21
244.500000
  0
LINE
  8
CSLAYER1
  6
CONTINUOUS
 62
     7
 10
98.561506
 20
244.500000
 11
98.561506
 21
250.500000
  0
LINE
  8
CSLAYER1
  6
CONTINUOUS
 62
     7
 10
97.436506
 20
243.375000
 11
97.436506
 21
250.500000
  0
LINE
  8
CSLAYER1
  6
CONTINUOUS
 62
     7
 10
633.749998
 20
337.500000
 11
633.749998
 21
327.750000
  0
LINE
  8
CSLAYER1
  6
CONTINUOUS
 62
     7
 10
670.124998
 20
327.750000
 11
672.224998
 21
326.537565
  0
LINE
  8
CSLAYER1
  6
CONTINUOUS
 62
     7
 10
672.224998
 20
326.537565
 11
672.224998
 21
316.500000
  0
LINE
  8
CSLAYER1
  6
CONTINUOUS
 62
     7
 10
670.124998
 20
327.750000
 11
643.124998
 21
327.750000
  0
LINE
  8
CSLAYER1
  6
CONTINUOUS
 62
     7
 10
672.224998
 20
316.500000
 11
641.024998
 21
316.500000
  0
ARC
  8
CSLAYER1
  6
CONTINUOUS
 62
     7
 10
668.924998
 20
322.652822
 40
5.097178
 50
49.652860
 51
130.347140
  0
ARC
  8
CSLAYER1
  6
CONTINUOUS
 62
     7
 10
656.624998
 20
293.739946
 40
34.010055
 50
74.655173
 51
102.722770
  0
LINE
  8
CSLAYER1
  6
CONTINUOUS
 62
     7
 10
665.624998
 20
326.537565
 11
665.624998
 21
316.500000
  0
LINE
  8
CSLAYER1
  6
CONTINUOUS
 62
     7
 10
670.124998
 20
250.500000
 11
643.124998
 21
250.500000
  0
ARC
  8
CSLAYER1
  6
CONTINUOUS
 62
     7
 10
668.924998
 20
255.597178
 40
5.097178
 50
229.652860
 51
310.347140
  0
ARC
  8
CSLAYER1
  6
CONTINUOUS
 62
     7
 10
656.624998
 20
284.510055
 40
34.010055
 50
257.277230
 51
285.344827
  0
LINE
  8
CSLAYER1
  6
CONTINUOUS
 62
     7
 10
665.624998
 20
264.750000
 11
665.624998
 21
251.712436
  0
LINE
  8
CSLAYER1
  6
CONTINUOUS
 62
     7
 10
672.224998
 20
264.750000
 11
672.224998
 21
251.712436
  0
LINE
  8
CSLAYER1
  6
CONTINUOUS
 62
     7
 10
670.124998
 20
250.500000
 11
672.224998
 21
251.712436
  0
LINE
  8
CSLAYER1
  6
CONTINUOUS
 62
     7
 10
665.624998
 20
244.500000
 11
664.124998
 21
243.000000
  0
LINE
  8
CSLAYER1
  6
CONTINUOUS
 62
     7
 10
665.624998
 20
244.500000
 11
647.624998
 21
244.500000
  0
LINE
  8
CSLAYER1
  6
CONTINUOUS
 62
     7
 10
664.124998
 20
243.000000
 11
649.124998
 21
243.000000
  0
LINE
  8
CSLAYER1
  6
CONTINUOUS
 62
     7
 10
649.124998
 20
243.000000
 11
647.624998
 21
244.500000
  0
LINE
  8
CSLAYER1
  6
CONTINUOUS
 62
     7
 10
647.624998
 20
244.500000
 11
647.624998
 21
250.500000
  0
LINE
  8
CSLAYER1
  6
CONTINUOUS
 62
     7
 10
648.749998
 20
243.375000
 11
648.749998
 21
250.500000
  0
LINE
  8
CSLAYER1
  6
CENTER
 62
     2
 10
656.624998
 20
230.250000
 11
656.624998
 21
335.250000
  0
LINE
  8
CSLAYER1
  6
CENTER
 62
     2
 10
400.347593
 20
230.250000
 11
400.347593
 21
335.250000
  0
LINE
  8
CSLAYER1
  6
CONTINUOUS
 62
     7
 10
413.847593
 20
327.750000
 11
415.947593
 21
326.537565
  0
LINE
  8
CSLAYER1
  6
CONTINUOUS
 62
     7
 10
415.947593
 20
326.537565
 11
415.947593
 21
316.500000
  0
LINE
  8
CSLAYER1
  6
CONTINUOUS
 62
     7
 10
386.847593
 20
327.750000
 11
384.747593
 21
326.537565
  0
LINE
  8
CSLAYER1
  6
CONTINUOUS
 62
     7
 10
384.747593
 20
326.537565
 11
384.747593
 21
316.500000
  0
LINE
  8
CSLAYER1
  6
CONTINUOUS
 62
     7
 10
413.847593
 20
327.750000
 11
386.847593
 21
327.750000
  0
LINE
  8
CSLAYER1
  6
CONTINUOUS
 62
     7
 10
415.947593
 20
316.500000
 11
384.747593
 21
316.500000
  0
ARC
  8
CSLAYER1
  6
CONTINUOUS
 62
     7
 10
412.647593
 20
322.652822
 40
5.097178
 50
49.652860
 51
130.347140
  0
ARC
  8
CSLAYER1
  6
CONTINUOUS
 62
     7
 10
400.347593
 20
293.739946
 40
34.010055
 50
74.655173
 51
105.344827
  0
ARC
  8
CSLAYER1
  6
CONTINUOUS
 62
     7
 10
388.047593
 20
322.652822
 40
5.097178
 50
49.652860
 51
130.347140
  0
LINE
  8
CSLAYER1
  6
CONTINUOUS
 62
     7
 10
409.347593
 20
326.537565
 11
409.347593
 21
316.500000
  0
LINE
  8
CSLAYER1
  6
CONTINUOUS
 62
     7
 10
391.347593
 20
326.537565
 11
391.347593
 21
316.500000
  0
LINE
  8
CSLAYER1
  6
CONTINUOUS
 62
     7
 10
391.347593
 20
264.750000
 11
391.347593
 21
251.712436
  0
LINE
  8
CSLAYER1
  6
CONTINUOUS
 62
     7
 10
384.747593
 20
264.750000
 11
384.747593
 21
251.712436
  0
ARC
  8
CSLAYER1
  6
CONTINUOUS
 62
     7
 10
388.047593
 20
255.597178
 40
5.097178
 50
229.652860
 51
310.347140
  0
LINE
  8
CSLAYER1
  6
CONTINUOUS
 62
     7
 10
386.847593
 20
250.500000
 11
384.747593
 21
251.712436
  0
LINE
  8
CSLAYER1
  6
CONTINUOUS
 62
     7
 10
413.847593
 20
250.500000
 11
386.847593
 21
250.500000
  0
ARC
  8
CSLAYER1
  6
CONTINUOUS
 62
     7
 10
412.647593
 20
255.597178
 40
5.097178
 50
229.652860
 51
310.347140
  0
ARC
  8
CSLAYER1
  6
CONTINUOUS
 62
     7
 10
400.347593
 20
284.510055
 40
34.010055
 50
254.655173
 51
285.344827
  0
LINE
  8
CSLAYER1
  6
CONTINUOUS
 62
     7
 10
409.347593
 20
264.750000
 11
409.347593
 21
251.712436
  0
LINE
  8
CSLAYER1
  6
CONTINUOUS
 62
     7
 10
415.947593
 20
264.750000
 11
415.947593
 21
251.712436
  0
LINE
  8
CSLAYER1
  6
CONTINUOUS
 62
     7
 10
413.847593
 20
250.500000
 11
415.947593
 21
251.712436
  0
LINE
  8
CSLAYER1
  6
CONTINUOUS
 62
     7
 10
409.347593
 20
250.500000
 11
409.347593
 21
244.500000
  0
LINE
  8
CSLAYER1
  6
CONTINUOUS
 62
     7
 10
409.347593
 20
244.500000
 11
407.847593
 21
243.000000
  0
LINE
  8
CSLAYER1
  6
CONTINUOUS
 62
     7
 10
408.222593
 20
250.500000
 11
408.222593
 21
243.375000
  0
LINE
  8
CSLAYER1
  6
CONTINUOUS
 62
     7
 10
409.347593
 20
244.500000
 11
391.347593
 21
244.500000
  0
LINE
  8
CSLAYER1
  6
CONTINUOUS
 62
     7
 10
407.847593
 20
243.000000
 11
392.847593
 21
243.000000
  0
LINE
  8
CSLAYER1
  6
CONTINUOUS
 62
     7
 10
392.847593
 20
243.000000
 11
391.347593
 21
244.500000
  0
LINE
  8
CSLAYER1
  6
CONTINUOUS
 62
     7
 10
391.347593
 20
244.500000
 11
391.347593
 21
250.500000
  0
LINE
  8
CSLAYER1
  6
CONTINUOUS
 62
     7
 10
392.472593
 20
243.375000
 11
392.472593
 21
250.500000
  0
LINE
  8
CSLAYER1
  6
CENTER
 62
     2
 10
474.670940
 20
230.250000
 11
474.670940
 21
335.250000
  0
LINE
  8
CSLAYER1
  6
CONTINUOUS
 62
     7
 10
488.170940
 20
327.750000
 11
490.270940
 21
326.537565
  0
LINE
  8
CSLAYER1
  6
CONTINUOUS
 62
     7
 10
490.270940
 20
326.537565
 11
490.270940
 21
316.500000
  0
LINE
  8
CSLAYER1
  6
CONTINUOUS
 62
     7
 10
461.170940
 20
327.750000
 11
459.070940
 21
326.537565
  0
LINE
  8
CSLAYER1
  6
CONTINUOUS
 62
     7
 10
459.070940
 20
326.537565
 11
459.070940
 21
316.500000
  0
LINE
  8
CSLAYER1
  6
CONTINUOUS
 62
     7
 10
488.170940
 20
327.750000
 11
461.170940
 21
327.750000
  0
LINE
  8
CSLAYER1
  6
CONTINUOUS
 62
     7
 10
490.270940
 20
316.500000
 11
459.070940
 21
316.500000
  0
ARC
  8
CSLAYER1
  6
CONTINUOUS
 62
     7
 10
486.970940
 20
322.652822
 40
5.097178
 50
49.652860
 51
130.347140
  0
ARC
  8
CSLAYER1
  6
CONTINUOUS
 62
     7
 10
474.670940
 20
293.739946
 40
34.010055
 50
74.655173
 51
105.344827
  0
ARC
  8
CSLAYER1
  6
CONTINUOUS
 62
     7
 10
462.370940
 20
322.652822
 40
5.097178
 50
49.652860
 51
130.347140
  0
LINE
  8
CSLAYER1
  6
CONTINUOUS
 62
     7
 10
483.670940
 20
326.537565
 11
483.670940
 21
316.500000
  0
LINE
  8
CSLAYER1
  6
CONTINUOUS
 62
     7
 10
465.670940
 20
326.537565
 11
465.670940
 21
316.500000
  0
LINE
  8
CSLAYER1
  6
CONTINUOUS
 62
     7
 10
465.670940
 20
264.750000
 11
465.670940
 21
251.712436
  0
LINE
  8
CSLAYER1
  6
CONTINUOUS
 62
     7
 10
459.070940
 20
264.750000
 11
459.070940
 21
251.712436
  0
ARC
  8
CSLAYER1
  6
CONTINUOUS
 62
     7
 10
462.370940
 20
255.597178
 40
5.097178
 50
229.652860
 51
310.347140
  0
LINE
  8
CSLAYER1
  6
CONTINUOUS
 62
     7
 10
461.170940
 20
250.500000
 11
459.070940
 21
251.712436
  0
LINE
  8
CSLAYER1
  6
CONTINUOUS
 62
     7
 10
488.170940
 20
250.500000
 11
461.170940
 21
250.500000
  0
ARC
  8
CSLAYER1
  6
CONTINUOUS
 62
     7
 10
486.970940
 20
255.597178
 40
5.097178
 50
229.652860
 51
310.347140
  0
ARC
  8
CSLAYER1
  6
CONTINUOUS
 62
     7
 10
474.670940
 20
284.510055
 40
34.010055
 50
254.655173
 51
285.344827
  0
LINE
  8
CSLAYER1
  6
CONTINUOUS
 62
     7
 10
483.670940
 20
264.750000
 11
483.670940
 21
251.712436
  0
LINE
  8
CSLAYER1
  6
CONTINUOUS
 62
     7
 10
490.270940
 20
264.750000
 11
490.270940
 21
251.712436
  0
LINE
  8
CSLAYER1
  6
CONTINUOUS
 62
     7
 10
488.170940
 20
250.500000
 11
490.270940
 21
251.712436
  0
LINE
  8
CSLAYER1
  6
CONTINUOUS
 62
     7
 10
483.670940
 20
250.500000
 11
483.670940
 21
244.500000
  0
LINE
  8
CSLAYER1
  6
CONTINUOUS
 62
     7
 10
483.670940
 20
244.500000
 11
482.170940
 21
243.000000
  0
LINE
  8
CSLAYER1
  6
CONTINUOUS
 62
     7
 10
482.545940
 20
250.500000
 11
482.545940
 21
243.375000
  0
LINE
  8
CSLAYER1
  6
CONTINUOUS
 62
     7
 10
483.670940
 20
244.500000
 11
465.670940
 21
244.500000
  0
LINE
  8
CSLAYER1
  6
CONTINUOUS
 62
     7
 10
482.170940
 20
243.000000
 11
467.170940
 21
243.000000
  0
LINE
  8
CSLAYER1
  6
CONTINUOUS
 62
     7
 10
467.170940
 20
243.000000
 11
465.670940
 21
244.500000
  0
LINE
  8
CSLAYER1
  6
CONTINUOUS
 62
     7
 10
465.670940
 20
244.500000
 11
465.670940
 21
250.500000
  0
LINE
  8
CSLAYER1
  6
CONTINUOUS
 62
     7
 10
466.795940
 20
243.375000
 11
466.795940
 21
250.500000
  0
LINE
  8
CSLAYER1
  6
CENTER
 62
     2
 10
541.307429
 20
230.250000
 11
541.307429
 21
335.250000
  0
LINE
  8
CSLAYER1
  6
CONTINUOUS
 62
     7
 10
554.807429
 20
327.750000
 11
556.907429
 21
326.537565
  0
LINE
  8
CSLAYER1
  6
CONTINUOUS
 62
     7
 10
556.907429
 20
326.537565
 11
556.907429
 21
316.500000
  0
LINE
  8
CSLAYER1
  6
CONTINUOUS
 62
     7
 10
527.807429
 20
327.750000
 11
525.707429
 21
326.537565
  0
LINE
  8
CSLAYER1
  6
CONTINUOUS
 62
     7
 10
525.707429
 20
326.537565
 11
525.707429
 21
316.500000
  0
LINE
  8
CSLAYER1
  6
CONTINUOUS
 62
     7
 10
554.807429
 20
327.750000
 11
527.807429
 21
327.750000
  0
LINE
  8
CSLAYER1
  6
CONTINUOUS
 62
     7
 10
556.907429
 20
316.500000
 11
525.707429
 21
316.500000
  0
ARC
  8
CSLAYER1
  6
CONTINUOUS
 62
     7
 10
553.607429
 20
322.652822
 40
5.097178
 50
49.652860
 51
130.347140
  0
ARC
  8
CSLAYER1
  6
CONTINUOUS
 62
     7
 10
541.307429
 20
293.739946
 40
34.010055
 50
74.655173
 51
105.344827
  0
ARC
  8
CSLAYER1
  6
CONTINUOUS
 62
     7
 10
529.007429
 20
322.652822
 40
5.097178
 50
49.652860
 51
130.347140
  0
LINE
  8
CSLAYER1
  6
CONTINUOUS
 62
     7
 10
550.307429
 20
326.537565
 11
550.307429
 21
316.500000
  0
LINE
  8
CSLAYER1
  6
CONTINUOUS
 62
     7
 10
532.307429
 20
326.537565
 11
532.307429
 21
316.500000
  0
LINE
  8
CSLAYER1
  6
CONTINUOUS
 62
     7
 10
532.307429
 20
264.750000
 11
532.307429
 21
251.712436
  0
LINE
  8
CSLAYER1
  6
CONTINUOUS
 62
     7
 10
525.707429
 20
264.750000
 11
525.707429
 21
251.712436
  0
ARC
  8
CSLAYER1
  6
CONTINUOUS
 62
     7
 10
529.007429
 20
255.597178
 40
5.097178
 50
229.652860
 51
310.347140
  0
LINE
  8
CSLAYER1
  6
CONTINUOUS
 62
     7
 10
527.807429
 20
250.500000
 11
525.707429
 21
251.712436
  0
LINE
  8
CSLAYER1
  6
CONTINUOUS
 62
     7
 10
554.807429
 20
250.500000
 11
527.807429
 21
250.500000
  0
ARC
  8
CSLAYER1
  6
CONTINUOUS
 62
     7
 10
553.607429
 20
255.597178
 40
5.097178
 50
229.652860
 51
310.347140
  0
ARC
  8
CSLAYER1
  6
CONTINUOUS
 62
     7
 10
541.307429
 20
284.510055
 40
34.010055
 50
254.655173
 51
285.344827
  0
LINE
  8
CSLAYER1
  6
CONTINUOUS
 62
     7
 10
550.307429
 20
264.750000
 11
550.307429
 21
251.712436
  0
LINE
  8
CSLAYER1
  6
CONTINUOUS
 62
     7
 10
556.907429
 20
264.750000
 11
556.907429
 21
251.712436
  0
LINE
  8
CSLAYER1
  6
CONTINUOUS
 62
     7
 10
554.807429
 20
250.500000
 11
556.907429
 21
251.712436
  0
LINE
  8
CSLAYER1
  6
CONTINUOUS
 62
     7
 10
550.307429
 20
250.500000
 11
550.307429
 21
244.500000
  0
LINE
  8
CSLAYER1
  6
CONTINUOUS
 62
     7
 10
550.307429
 20
244.500000
 11
548.807429
 21
243.000000
  0
LINE
  8
CSLAYER1
  6
CONTINUOUS
 62
     7
 10
549.182429
 20
250.500000
 11
549.182429
 21
243.375000
  0
LINE
  8
CSLAYER1
  6
CONTINUOUS
 62
     7
 10
550.307429
 20
244.500000
 11
532.307429
 21
244.500000
  0
LINE
  8
CSLAYER1
  6
CONTINUOUS
 62
     7
 10
548.807429
 20
243.000000
 11
533.807429
 21
243.000000
  0
LINE
  8
CSLAYER1
  6
CONTINUOUS
 62
     7
 10
533.807429
 20
243.000000
 11
532.307429
 21
244.500000
  0
LINE
  8
CSLAYER1
  6
CONTINUOUS
 62
     7
 10
532.307429
 20
244.500000
 11
532.307429
 21
250.500000
  0
LINE
  8
CSLAYER1
  6
CONTINUOUS
 62
     7
 10
533.432429
 20
243.375000
 11
533.432429
 21
250.500000
  0
LINE
  8
CSLAYER1
  6
CENTER
 62
     2
 10
595.715895
 20
230.250000
 11
595.715895
 21
335.250000
  0
LINE
  8
CSLAYER1
  6
CONTINUOUS
 62
     7
 10
609.215895
 20
327.750000
 11
611.315895
 21
326.537565
  0
LINE
  8
CSLAYER1
  6
CONTINUOUS
 62
     7
 10
611.315895
 20
326.537565
 11
611.315895
 21
316.500000
  0
LINE
  8
CSLAYER1
  6
CONTINUOUS
 62
     7
 10
582.215895
 20
327.750000
 11
580.115895
 21
326.537565
  0
LINE
  8
CSLAYER1
  6
CONTINUOUS
 62
     7
 10
580.115895
 20
326.537565
 11
580.115895
 21
316.500000
  0
LINE
  8
CSLAYER1
  6
CONTINUOUS
 62
     7
 10
609.215895
 20
327.750000
 11
582.215895
 21
327.750000
  0
LINE
  8
CSLAYER1
  6
CONTINUOUS
 62
     7
 10
611.315895
 20
316.500000
 11
580.115895
 21
316.500000
  0
ARC
  8
CSLAYER1
  6
CONTINUOUS
 62
     7
 10
608.015895
 20
322.652822
 40
5.097178
 50
49.652860
 51
130.347140
  0
ARC
  8
CSLAYER1
  6
CONTINUOUS
 62
     7
 10
595.715895
 20
293.739946
 40
34.010055
 50
74.655173
 51
105.344827
  0
ARC
  8
CSLAYER1
  6
CONTINUOUS
 62
     7
 10
583.415895
 20
322.652822
 40
5.097178
 50
49.652860
 51
130.347140
  0
LINE
  8
CSLAYER1
  6
CONTINUOUS
 62
     7
 10
604.715895
 20
326.537565
 11
604.715895
 21
316.500000
  0
LINE
  8
CSLAYER1
  6
CONTINUOUS
 62
     7
 10
586.715895
 20
326.537565
 11
586.715895
 21
316.500000
  0
LINE
  8
CSLAYER1
  6
CONTINUOUS
 62
     7
 10
586.715895
 20
264.750000
 11
586.715895
 21
251.712436
  0
LINE
  8
CSLAYER1
  6
CONTINUOUS
 62
     7
 10
580.115895
 20
264.750000
 11
580.115895
 21
251.712436
  0
ARC
  8
CSLAYER1
  6
CONTINUOUS
 62
     7
 10
583.415895
 20
255.597178
 40
5.097178
 50
229.652860
 51
310.347140
  0
LINE
  8
CSLAYER1
  6
CONTINUOUS
 62
     7
 10
582.215895
 20
250.500000
 11
580.115895
 21
251.712436
  0
LINE
  8
CSLAYER1
  6
CONTINUOUS
 62
     7
 10
609.215895
 20
250.500000
 11
582.215895
 21
250.500000
  0
ARC
  8
CSLAYER1
  6
CONTINUOUS
 62
     7
 10
608.015895
 20
255.597178
 40
5.097178
 50
229.652860
 51
310.347140
  0
ARC
  8
CSLAYER1
  6
CONTINUOUS
 62
     7
 10
595.715895
 20
284.510055
 40
34.010055
 50
254.655173
 51
285.344827
  0
LINE
  8
CSLAYER1
  6
CONTINUOUS
 62
     7
 10
604.715895
 20
264.750000
 11
604.715895
 21
251.712436
  0
LINE
  8
CSLAYER1
  6
CONTINUOUS
 62
     7
 10
611.315895
 20
264.750000
 11
611.315895
 21
251.712436
  0
LINE
  8
CSLAYER1
  6
CONTINUOUS
 62
     7
 10
609.215895
 20
250.500000
 11
611.315895
 21
251.712436
  0
LINE
  8
CSLAYER1
  6
CONTINUOUS
 62
     7
 10
604.715895
 20
250.500000
 11
604.715895
 21
244.500000
  0
LINE
  8
CSLAYER1
  6
CONTINUOUS
 62
     7
 10
604.715895
 20
244.500000
 11
603.215895
 21
243.000000
  0
LINE
  8
CSLAYER1
  6
CONTINUOUS
 62
     7
 10
603.590895
 20
250.500000
 11
603.590895
 21
243.375000
  0
LINE
  8
CSLAYER1
  6
CONTINUOUS
 62
     7
 10
604.715895
 20
244.500000
 11
586.715895
 21
244.500000
  0
LINE
  8
CSLAYER1
  6
CONTINUOUS
 62
     7
 10
603.215895
 20
243.000000
 11
588.215895
 21
243.000000
  0
LINE
  8
CSLAYER1
  6
CONTINUOUS
 62
     7
 10
588.215895
 20
243.000000
 11
586.715895
 21
244.500000
  0
LINE
  8
CSLAYER1
  6
CONTINUOUS
 62
     7
 10
586.715895
 20
244.500000
 11
586.715895
 21
250.500000
  0
LINE
  8
CSLAYER1
  6
CONTINUOUS
 62
     7
 10
587.840895
 20
243.375000
 11
587.840895
 21
250.500000
  0
LINE
  8
CSLAYER1
  6
CENTER
 62
     2
 10
634.188490
 20
230.250000
 11
634.188490
 21
335.250000
  0
LINE
  8
CSLAYER1
  6
CONTINUOUS
 62
     7
 10
647.688490
 20
327.750000
 11
649.788490
 21
326.537565
  0
LINE
  8
CSLAYER1
  6
CONTINUOUS
 62
     7
 10
649.788490
 20
326.537565
 11
649.788490
 21
316.500000
  0
LINE
  8
CSLAYER1
  6
CONTINUOUS
 62
     7
 10
620.688490
 20
327.750000
 11
618.588490
 21
326.537565
  0
LINE
  8
CSLAYER1
  6
CONTINUOUS
 62
     7
 10
618.588490
 20
326.537565
 11
618.588490
 21
316.500000
  0
LINE
  8
CSLAYER1
  6
CONTINUOUS
 62
     7
 10
647.688490
 20
327.750000
 11
620.688490
 21
327.750000
  0
LINE
  8
CSLAYER1
  6
CONTINUOUS
 62
     7
 10
649.788490
 20
316.500000
 11
618.588490
 21
316.500000
  0
ARC
  8
CSLAYER1
  6
CONTINUOUS
 62
     7
 10
646.488490
 20
322.652822
 40
5.097178
 50
49.652860
 51
130.347140
  0
ARC
  8
CSLAYER1
  6
CONTINUOUS
 62
     7
 10
634.188490
 20
293.739946
 40
34.010055
 50
74.655173
 51
105.344827
  0
ARC
  8
CSLAYER1
  6
CONTINUOUS
 62
     7
 10
621.888490
 20
322.652822
 40
5.097178
 50
49.652860
 51
130.347140
  0
LINE
  8
CSLAYER1
  6
CONTINUOUS
 62
     7
 10
643.188490
 20
326.537565
 11
643.188490
 21
316.500000
  0
LINE
  8
CSLAYER1
  6
CONTINUOUS
 62
     7
 10
625.188490
 20
326.537565
 11
625.188490
 21
316.500000
  0
LINE
  8
CSLAYER1
  6
CONTINUOUS
 62
     7
 10
625.188490
 20
264.750000
 11
625.188490
 21
251.712436
  0
LINE
  8
CSLAYER1
  6
CONTINUOUS
 62
     7
 10
618.588490
 20
264.750000
 11
618.588490
 21
251.712436
  0
ARC
  8
CSLAYER1
  6
CONTINUOUS
 62
     7
 10
621.888490
 20
255.597178
 40
5.097178
 50
229.652860
 51
310.347140
  0
LINE
  8
CSLAYER1
  6
CONTINUOUS
 62
     7
 10
620.688490
 20
250.500000
 11
618.588490
 21
251.712436
  0
LINE
  8
CSLAYER1
  6
CONTINUOUS
 62
     7
 10
647.688490
 20
250.500000
 11
620.688490
 21
250.500000
  0
ARC
  8
CSLAYER1
  6
CONTINUOUS
 62
     7
 10
646.488490
 20
255.597178
 40
5.097178
 50
229.652860
 51
310.347140
  0
ARC
  8
CSLAYER1
  6
CONTINUOUS
 62
     7
 10
634.188490
 20
284.510055
 40
34.010055
 50
254.655173
 51
285.344827
  0
LINE
  8
CSLAYER1
  6
CONTINUOUS
 62
     7
 10
643.188490
 20
264.750000
 11
643.188490
 21
251.712436
  0
LINE
  8
CSLAYER1
  6
CONTINUOUS
 62
     7
 10
649.788490
 20
264.750000
 11
649.788490
 21
251.712436
  0
LINE
  8
CSLAYER1
  6
CONTINUOUS
 62
     7
 10
647.688490
 20
250.500000
 11
649.788490
 21
251.712436
  0
LINE
  8
CSLAYER1
  6
CONTINUOUS
 62
     7
 10
643.188490
 20
250.500000
 11
643.188490
 21
244.500000
  0
LINE
  8
CSLAYER1
  6
CONTINUOUS
 62
     7
 10
643.188490
 20
244.500000
 11
641.688490
 21
243.000000
  0
LINE
  8
CSLAYER1
  6
CONTINUOUS
 62
     7
 10
642.063490
 20
250.500000
 11
642.063490
 21
243.375000
  0
LINE
  8
CSLAYER1
  6
CONTINUOUS
 62
     7
 10
643.188490
 20
244.500000
 11
625.188490
 21
244.500000
  0
LINE
  8
CSLAYER1
  6
CONTINUOUS
 62
     7
 10
641.688490
 20
243.000000
 11
626.688490
 21
243.000000
  0
LINE
  8
CSLAYER1
  6
CONTINUOUS
 62
     7
 10
626.688490
 20
243.000000
 11
625.188490
 21
244.500000
  0
LINE
  8
CSLAYER1
  6
CONTINUOUS
 62
     7
 10
625.188490
 20
244.500000
 11
625.188490
 21
250.500000
  0
LINE
  8
CSLAYER1
  6
CONTINUOUS
 62
     7
 10
626.313490
 20
243.375000
 11
626.313490
 21
250.500000
  0
LINE
  8
CSLAYER1
  6
CONTINUOUS
 62
     7
 10
907.242797
 20
615.750000
 11
907.242797
 21
606.000000
  0
LINE
  8
CSLAYER1
  6
CONTINUOUS
 62
     7
 10
897.867797
 20
568.500000
 11
897.867797
 21
567.000000
  0
LINE
  8
CSLAYER1
  6
CONTINUOUS
 62
     7
 10
870.867797
 20
606.000000
 11
868.767797
 21
604.787565
  0
LINE
  8
CSLAYER1
  6
CONTINUOUS
 62
     7
 10
868.767797
 20
604.787565
 11
868.767797
 21
594.750000
  0
LINE
  8
CSLAYER1
  6
CONTINUOUS
 62
     7
 10
870.867797
 20
606.000000
 11
897.867797
 21
606.000000
  0
LINE
  8
CSLAYER1
  6
CONTINUOUS
 62
     7
 10
868.767797
 20
594.750000
 11
899.967797
 21
594.750000
  0
ARC
  8
CSLAYER1
  6
CONTINUOUS
 62
     7
 10
872.067797
 20
600.902822
 40
5.097178
 50
49.652860
 51
130.347140
  0
ARC
  8
CSLAYER1
  6
CONTINUOUS
 62
     7
 10
884.367797
 20
571.989946
 40
34.010055
 50
77.277230
 51
105.344827
  0
LINE
  8
CSLAYER1
  6
CONTINUOUS
 62
     7
 10
875.367797
 20
604.787565
 11
875.367797
 21
594.750000
  0
LINE
  8
CSLAYER1
  6
CONTINUOUS
 62
     7
 10
870.867797
 20
529.125000
 11
897.867797
 21
529.125000
  0
ARC
  8
CSLAYER1
  6
CONTINUOUS
 62
     7
 10
872.067797
 20
534.222178
 40
5.097178
 50
229.652860
 51
310.347140
  0
ARC
  8
CSLAYER1
  6
CONTINUOUS
 62
     7
 10
884.367797
 20
563.135055
 40
34.010055
 50
254.655173
 51
282.722770
  0
LINE
  8
CSLAYER1
  6
CONTINUOUS
 62
     7
 10
875.367797
 20
543.375000
 11
875.367797
 21
530.337436
  0
LINE
  8
CSLAYER1
  6
CONTINUOUS
 62
     7
 10
868.767797
 20
543.375000
 11
868.767797
 21
530.337436
  0
LINE
  8
CSLAYER1
  6
CONTINUOUS
 62
     7
 10
870.867797
 20
529.125000
 11
868.767797
 21
530.337436
  0
LINE
  8
CSLAYER1
  6
CONTINUOUS
 62
     7
 10
875.367797
 20
529.125000
 11
875.367797
 21
522.750000
  0
LINE
  8
CSLAYER1
  6
CONTINUOUS
 62
     7
 10
875.367797
 20
522.750000
 11
876.867797
 21
521.250000
  0
LINE
  8
CSLAYER1
  6
CONTINUOUS
 62
     7
 10
876.492797
 20
529.125000
 11
876.492797
 21
521.625000
  0
LINE
  8
CSLAYER1
  6
CONTINUOUS
 62
     7
 10
875.367797
 20
522.750000
 11
893.367797
 21
522.750000
  0
LINE
  8
CSLAYER1
  6
CONTINUOUS
 62
     7
 10
876.867797
 20
521.250000
 11
891.867797
 21
521.250000
  0
LINE
  8
CSLAYER1
  6
CONTINUOUS
 62
     7
 10
891.867797
 20
521.250000
 11
893.367797
 21
522.750000
  0
LINE
  8
CSLAYER1
  6
CONTINUOUS
 62
     7
 10
893.367797
 20
522.750000
 11
893.367797
 21
529.125000
  0
LINE
  8
CSLAYER1
  6
CONTINUOUS
 62
     7
 10
892.242797
 20
521.625000
 11
892.242797
 21
529.125000
  0
LINE
  8
CSLAYER1
  6
CENTER
 62
     2
 10
884.367797
 20
508.500000
 11
884.367797
 21
613.500000
  0
LINE
  8
CSLAYER1
  6
CONTINUOUS
 62
     7
 10
1450.992797
 20
615.750000
 11
1450.992797
 21
606.000000
  0
LINE
  8
CSLAYER1
  6
CONTINUOUS
 62
     7
 10
1460.367797
 20
568.500000
 11
1460.367797
 21
567.000000
  0
LINE
  8
CSLAYER1
  6
CONTINUOUS
 62
     7
 10
1487.367797
 20
606.000000
 11
1489.467797
 21
604.787565
  0
LINE
  8
CSLAYER1
  6
CONTINUOUS
 62
     7
 10
1489.467797
 20
604.787565
 11
1489.467797
 21
594.750000
  0
LINE
  8
CSLAYER1
  6
CONTINUOUS
 62
     7
 10
1487.367797
 20
606.000000
 11
1460.367797
 21
606.000000
  0
LINE
  8
CSLAYER1
  6
CONTINUOUS
 62
     7
 10
1489.467797
 20
594.750000
 11
1458.267797
 21
594.750000
  0
ARC
  8
CSLAYER1
  6
CONTINUOUS
 62
     7
 10
1486.167797
 20
600.902822
 40
5.097178
 50
49.652860
 51
130.347140
  0
ARC
  8
CSLAYER1
  6
CONTINUOUS
 62
     7
 10
1473.867797
 20
571.989946
 40
34.010055
 50
74.655173
 51
102.722770
  0
LINE
  8
CSLAYER1
  6
CONTINUOUS
 62
     7
 10
1482.867797
 20
604.787565
 11
1482.867797
 21
594.750000
  0
LINE
  8
CSLAYER1
  6
CONTINUOUS
 62
     7
 10
1487.367797
 20
529.125000
 11
1460.367797
 21
529.125000
  0
ARC
  8
CSLAYER1
  6
CONTINUOUS
 62
     7
 10
1486.167797
 20
534.222178
 40
5.097178
 50
229.652860
 51
310.347140
  0
ARC
  8
CSLAYER1
  6
CONTINUOUS
 62
     7
 10
1473.867797
 20
563.135055
 40
34.010055
 50
257.277230
 51
285.344827
  0
LINE
  8
CSLAYER1
  6
CONTINUOUS
 62
     7
 10
1482.867797
 20
543.375000
 11
1482.867797
 21
530.337436
  0
LINE
  8
CSLAYER1
  6
CONTINUOUS
 62
     7
 10
1489.467797
 20
543.375000
 11
1489.467797
 21
530.337436
  0
LINE
  8
CSLAYER1
  6
CONTINUOUS
 62
     7
 10
1487.367797
 20
529.125000
 11
1489.467797
 21
530.337436
  0
LINE
  8
CSLAYER1
  6
CONTINUOUS
 62
     7
 10
1482.867797
 20
529.125000
 11
1482.867797
 21
522.750000
  0
LINE
  8
CSLAYER1
  6
CONTINUOUS
 62
     7
 10
1482.867797
 20
522.750000
 11
1481.367797
 21
521.250000
  0
LINE
  8
CSLAYER1
  6
CONTINUOUS
 62
     7
 10
1481.742797
 20
529.125000
 11
1481.742797
 21
521.625000
  0
LINE
  8
CSLAYER1
  6
CONTINUOUS
 62
     7
 10
1482.867797
 20
522.750000
 11
1464.867797
 21
522.750000
  0
LINE
  8
CSLAYER1
  6
CONTINUOUS
 62
     7
 10
1481.367797
 20
521.250000
 11
1466.367797
 21
521.250000
  0
LINE
  8
CSLAYER1
  6
CONTINUOUS
 62
     7
 10
1466.367797
 20
521.250000
 11
1464.867797
 21
522.750000
  0
LINE
  8
CSLAYER1
  6
CONTINUOUS
 62
     7
 10
1464.867797
 20
522.750000
 11
1464.867797
 21
529.125000
  0
LINE
  8
CSLAYER1
  6
CONTINUOUS
 62
     7
 10
1465.992797
 20
521.625000
 11
1465.992797
 21
529.125000
  0
LINE
  8
CSLAYER1
  6
CENTER
 62
     2
 10
1473.867797
 20
508.500000
 11
1473.867797
 21
613.500000
  0
LINE
  8
CSLAYER1
  6
CENTER
 62
     2
 10
1140.645202
 20
508.500000
 11
1140.645202
 21
613.500000
  0
LINE
  8
CSLAYER1
  6
CONTINUOUS
 62
     7
 10
1127.145202
 20
606.000000
 11
1125.045202
 21
604.787565
  0
LINE
  8
CSLAYER1
  6
CONTINUOUS
 62
     7
 10
1125.045202
 20
604.787565
 11
1125.045202
 21
594.750000
  0
LINE
  8
CSLAYER1
  6
CONTINUOUS
 62
     7
 10
1154.145202
 20
606.000000
 11
1156.245202
 21
604.787565
  0
LINE
  8
CSLAYER1
  6
CONTINUOUS
 62
     7
 10
1156.245202
 20
604.787565
 11
1156.245202
 21
594.750000
  0
LINE
  8
CSLAYER1
  6
CONTINUOUS
 62
     7
 10
1127.145202
 20
606.000000
 11
1154.145202
 21
606.000000
  0
LINE
  8
CSLAYER1
  6
CONTINUOUS
 62
     7
 10
1125.045202
 20
594.750000
 11
1156.245202
 21
594.750000
  0
ARC
  8
CSLAYER1
  6
CONTINUOUS
 62
     7
 10
1128.345202
 20
600.902822
 40
5.097178
 50
49.652860
 51
130.347140
  0
ARC
  8
CSLAYER1
  6
CONTINUOUS
 62
     7
 10
1140.645202
 20
571.989946
 40
34.010055
 50
74.655173
 51
105.344827
  0
ARC
  8
CSLAYER1
  6
CONTINUOUS
 62
     7
 10
1152.945202
 20
600.902822
 40
5.097178
 50
49.652860
 51
130.347140
  0
LINE
  8
CSLAYER1
  6
CONTINUOUS
 62
     7
 10
1131.645202
 20
604.787565
 11
1131.645202
 21
594.750000
  0
LINE
  8
CSLAYER1
  6
CONTINUOUS
 62
     7
 10
1149.645202
 20
604.787565
 11
1149.645202
 21
594.750000
  0
LINE
  8
CSLAYER1
  6
CONTINUOUS
 62
     7
 10
1149.645202
 20
543.375000
 11
1149.645202
 21
530.337436
  0
LINE
  8
CSLAYER1
  6
CONTINUOUS
 62
     7
 10
1156.245202
 20
543.375000
 11
1156.245202
 21
530.337436
  0
ARC
  8
CSLAYER1
  6
CONTINUOUS
 62
     7
 10
1152.945202
 20
534.222178
 40
5.097178
 50
229.652860
 51
310.347140
  0
LINE
  8
CSLAYER1
  6
CONTINUOUS
 62
     7
 10
1154.145202
 20
529.125000
 11
1156.245202
 21
530.337436
  0
LINE
  8
CSLAYER1
  6
CONTINUOUS
 62
     7
 10
1127.145202
 20
529.125000
 11
1154.145202
 21
529.125000
  0
ARC
  8
CSLAYER1
  6
CONTINUOUS
 62
     7
 10
1128.345202
 20
534.222178
 40
5.097178
 50
229.652860
 51
310.347140
  0
ARC
  8
CSLAYER1
  6
CONTINUOUS
 62
     7
 10
1140.645202
 20
563.135055
 40
34.010055
 50
254.655173
 51
285.344827
  0
LINE
  8
CSLAYER1
  6
CONTINUOUS
 62
     7
 10
1131.645202
 20
543.375000
 11
1131.645202
 21
530.337436
  0
LINE
  8
CSLAYER1
  6
CONTINUOUS
 62
     7
 10
1125.045202
 20
543.375000
 11
1125.045202
 21
530.337436
  0
LINE
  8
CSLAYER1
  6
CONTINUOUS
 62
     7
 10
1127.145202
 20
529.125000
 11
1125.045202
 21
530.337436
  0
LINE
  8
CSLAYER1
  6
CONTINUOUS
 62
     7
 10
1131.645202
 20
529.125000
 11
1131.645202
 21
522.750000
  0
LINE
  8
CSLAYER1
  6
CONTINUOUS
 62
     7
 10
1131.645202
 20
522.750000
 11
1133.145202
 21
521.250000
  0
LINE
  8
CSLAYER1
  6
CONTINUOUS
 62
     7
 10
1132.770202
 20
529.125000
 11
1132.770202
 21
521.625000
  0
LINE
  8
CSLAYER1
  6
CONTINUOUS
 62
     7
 10
1131.645202
 20
522.750000
 11
1149.645202
 21
522.750000
  0
LINE
  8
CSLAYER1
  6
CONTINUOUS
 62
     7
 10
1133.145202
 20
521.250000
 11
1148.145202
 21
521.250000
  0
LINE
  8
CSLAYER1
  6
CONTINUOUS
 62
     7
 10
1148.145202
 20
521.250000
 11
1149.645202
 21
522.750000
  0
LINE
  8
CSLAYER1
  6
CONTINUOUS
 62
     7
 10
1149.645202
 20
522.750000
 11
1149.645202
 21
529.125000
  0
LINE
  8
CSLAYER1
  6
CONTINUOUS
 62
     7
 10
1148.520202
 20
521.625000
 11
1148.520202
 21
529.125000
  0
LINE
  8
CSLAYER1
  6
CENTER
 62
     2
 10
1066.321855
 20
508.500000
 11
1066.321855
 21
613.500000
  0
LINE
  8
CSLAYER1
  6
CONTINUOUS
 62
     7
 10
1052.821855
 20
606.000000
 11
1050.721855
 21
604.787565
  0
LINE
  8
CSLAYER1
  6
CONTINUOUS
 62
     7
 10
1050.721855
 20
604.787565
 11
1050.721855
 21
594.750000
  0
LINE
  8
CSLAYER1
  6
CONTINUOUS
 62
     7
 10
1079.821855
 20
606.000000
 11
1081.921855
 21
604.787565
  0
LINE
  8
CSLAYER1
  6
CONTINUOUS
 62
     7
 10
1081.921855
 20
604.787565
 11
1081.921855
 21
594.750000
  0
LINE
  8
CSLAYER1
  6
CONTINUOUS
 62
     7
 10
1052.821855
 20
606.000000
 11
1079.821855
 21
606.000000
  0
LINE
  8
CSLAYER1
  6
CONTINUOUS
 62
     7
 10
1050.721855
 20
594.750000
 11
1081.921855
 21
594.750000
  0
ARC
  8
CSLAYER1
  6
CONTINUOUS
 62
     7
 10
1054.021855
 20
600.902822
 40
5.097178
 50
49.652860
 51
130.347140
  0
ARC
  8
CSLAYER1
  6
CONTINUOUS
 62
     7
 10
1066.321855
 20
571.989946
 40
34.010055
 50
74.655173
 51
105.344827
  0
ARC
  8
CSLAYER1
  6
CONTINUOUS
 62
     7
 10
1078.621855
 20
600.902822
 40
5.097178
 50
49.652860
 51
130.347140
  0
LINE
  8
CSLAYER1
  6
CONTINUOUS
 62
     7
 10
1057.321855
 20
604.787565
 11
1057.321855
 21
594.750000
  0
LINE
  8
CSLAYER1
  6
CONTINUOUS
 62
     7
 10
1075.321855
 20
604.787565
 11
1075.321855
 21
594.750000
  0
LINE
  8
CSLAYER1
  6
CONTINUOUS
 62
     7
 10
1075.321855
 20
543.375000
 11
1075.321855
 21
530.337436
  0
LINE
  8
CSLAYER1
  6
CONTINUOUS
 62
     7
 10
1081.921855
 20
543.375000
 11
1081.921855
 21
530.337436
  0
ARC
  8
CSLAYER1
  6
CONTINUOUS
 62
     7
 10
1078.621855
 20
534.222178
 40
5.097178
 50
229.652860
 51
310.347140
  0
LINE
  8
CSLAYER1
  6
CONTINUOUS
 62
     7
 10
1079.821855
 20
529.125000
 11
1081.921855
 21
530.337436
  0
LINE
  8
CSLAYER1
  6
CONTINUOUS
 62
     7
 10
1052.821855
 20
529.125000
 11
1079.821855
 21
529.125000
  0
ARC
  8
CSLAYER1
  6
CONTINUOUS
 62
     7
 10
1054.021855
 20
534.222178
 40
5.097178
 50
229.652860
 51
310.347140
  0
ARC
  8
CSLAYER1
  6
CONTINUOUS
 62
     7
 10
1066.321855
 20
563.135055
 40
34.010055
 50
254.655173
 51
285.344827
  0
LINE
  8
CSLAYER1
  6
CONTINUOUS
 62
     7
 10
1057.321855
 20
543.375000
 11
1057.321855
 21
530.337436
  0
LINE
  8
CSLAYER1
  6
CONTINUOUS
 62
     7
 10
1050.721855
 20
543.375000
 11
1050.721855
 21
530.337436
  0
LINE
  8
CSLAYER1
  6
CONTINUOUS
 62
     7
 10
1052.821855
 20
529.125000
 11
1050.721855
 21
530.337436
  0
LINE
  8
CSLAYER1
  6
CONTINUOUS
 62
     7
 10
1057.321855
 20
529.125000
 11
1057.321855
 21
522.750000
  0
LINE
  8
CSLAYER1
  6
CONTINUOUS
 62
     7
 10
1057.321855
 20
522.750000
 11
1058.821855
 21
521.250000
  0
LINE
  8
CSLAYER1
  6
CONTINUOUS
 62
     7
 10
1058.446855
 20
529.125000
 11
1058.446855
 21
521.625000
  0
LINE
  8
CSLAYER1
  6
CONTINUOUS
 62
     7
 10
1057.321855
 20
522.750000
 11
1075.321855
 21
522.750000
  0
LINE
  8
CSLAYER1
  6
CONTINUOUS
 62
     7
 10
1058.821855
 20
521.250000
 11
1073.821855
 21
521.250000
  0
LINE
  8
CSLAYER1
  6
CONTINUOUS
 62
     7
 10
1073.821855
 20
521.250000
 11
1075.321855
 21
522.750000
  0
LINE
  8
CSLAYER1
  6
CONTINUOUS
 62
     7
 10
1075.321855
 20
522.750000
 11
1075.321855
 21
529.125000
  0
LINE
  8
CSLAYER1
  6
CONTINUOUS
 62
     7
 10
1074.196855
 20
521.625000
 11
1074.196855
 21
529.125000
  0
LINE
  8
CSLAYER1
  6
CENTER
 62
     2
 10
999.685366
 20
508.500000
 11
999.685366
 21
613.500000
  0
LINE
  8
CSLAYER1
  6
CONTINUOUS
 62
     7
 10
986.185366
 20
606.000000
 11
984.085366
 21
604.787565
  0
LINE
  8
CSLAYER1
  6
CONTINUOUS
 62
     7
 10
984.085366
 20
604.787565
 11
984.085366
 21
594.750000
  0
LINE
  8
CSLAYER1
  6
CONTINUOUS
 62
     7
 10
1013.185366
 20
606.000000
 11
1015.285366
 21
604.787565
  0
LINE
  8
CSLAYER1
  6
CONTINUOUS
 62
     7
 10
1015.285366
 20
604.787565
 11
1015.285366
 21
594.750000
  0
LINE
  8
CSLAYER1
  6
CONTINUOUS
 62
     7
 10
986.185366
 20
606.000000
 11
1013.185366
 21
606.000000
  0
LINE
  8
CSLAYER1
  6
CONTINUOUS
 62
     7
 10
984.085366
 20
594.750000
 11
1015.285366
 21
594.750000
  0
ARC
  8
CSLAYER1
  6
CONTINUOUS
 62
     7
 10
987.385366
 20
600.902822
 40
5.097178
 50
49.652860
 51
130.347140
  0
ARC
  8
CSLAYER1
  6
CONTINUOUS
 62
     7
 10
999.685366
 20
571.989946
 40
34.010055
 50
74.655173
 51
105.344827
  0
ARC
  8
CSLAYER1
  6
CONTINUOUS
 62
     7
 10
1011.985366
 20
600.902822
 40
5.097178
 50
49.652860
 51
130.347140
  0
LINE
  8
CSLAYER1
  6
CONTINUOUS
 62
     7
 10
990.685366
 20
604.787565
 11
990.685366
 21
594.750000
  0
LINE
  8
CSLAYER1
  6
CONTINUOUS
 62
     7
 10
1008.685366
 20
604.787565
 11
1008.685366
 21
594.750000
  0
LINE
  8
CSLAYER1
  6
CONTINUOUS
 62
     7
 10
1008.685366
 20
543.375000
 11
1008.685366
 21
530.337436
  0
LINE
  8
CSLAYER1
  6
CONTINUOUS
 62
     7
 10
1015.285366
 20
543.375000
 11
1015.285366
 21
530.337436
  0
ARC
  8
CSLAYER1
  6
CONTINUOUS
 62
     7
 10
1011.985366
 20
534.222178
 40
5.097178
 50
229.652860
 51
310.347140
  0
LINE
  8
CSLAYER1
  6
CONTINUOUS
 62
     7
 10
1013.185366
 20
529.125000
 11
1015.285366
 21
530.337436
  0
LINE
  8
CSLAYER1
  6
CONTINUOUS
 62
     7
 10
986.185366
 20
529.125000
 11
1013.185366
 21
529.125000
  0
ARC
  8
CSLAYER1
  6
CONTINUOUS
 62
     7
 10
987.385366
 20
534.222178
 40
5.097178
 50
229.652860
 51
310.347140
  0
ARC
  8
CSLAYER1
  6
CONTINUOUS
 62
     7
 10
999.685366
 20
563.135055
 40
34.010055
 50
254.655173
 51
285.344827
  0
LINE
  8
CSLAYER1
  6
CONTINUOUS
 62
     7
 10
990.685366
 20
543.375000
 11
990.685366
 21
530.337436
  0
LINE
  8
CSLAYER1
  6
CONTINUOUS
 62
     7
 10
984.085366
 20
543.375000
 11
984.085366
 21
530.337436
  0
LINE
  8
CSLAYER1
  6
CONTINUOUS
 62
     7
 10
986.185366
 20
529.125000
 11
984.085366
 21
530.337436
  0
LINE
  8
CSLAYER1
  6
CONTINUOUS
 62
     7
 10
990.685366
 20
529.125000
 11
990.685366
 21
522.750000
  0
LINE
  8
CSLAYER1
  6
CONTINUOUS
 62
     7
 10
990.685366
 20
522.750000
 11
992.185366
 21
521.250000
  0
LINE
  8
CSLAYER1
  6
CONTINUOUS
 62
     7
 10
991.810366
 20
529.125000
 11
991.810366
 21
521.625000
  0
LINE
  8
CSLAYER1
  6
CONTINUOUS
 62
     7
 10
990.685366
 20
522.750000
 11
1008.685366
 21
522.750000
  0
LINE
  8
CSLAYER1
  6
CONTINUOUS
 62
     7
 10
992.185366
 20
521.250000
 11
1007.185366
 21
521.250000
  0
LINE
  8
CSLAYER1
  6
CONTINUOUS
 62
     7
 10
1007.185366
 20
521.250000
 11
1008.685366
 21
522.750000
  0
LINE
  8
CSLAYER1
  6
CONTINUOUS
 62
     7
 10
1008.685366
 20
522.750000
 11
1008.685366
 21
529.125000
  0
LINE
  8
CSLAYER1
  6
CONTINUOUS
 62
     7
 10
1007.560366
 20
521.625000
 11
1007.560366
 21
529.125000
  0
LINE
  8
CSLAYER1
  6
CENTER
 62
     2
 10
945.276900
 20
508.500000
 11
945.276900
 21
613.500000
  0
LINE
  8
CSLAYER1
  6
CONTINUOUS
 62
     7
 10
931.776900
 20
606.000000
 11
929.676900
 21
604.787565
  0
LINE
  8
CSLAYER1
  6
CONTINUOUS
 62
     7
 10
929.676900
 20
604.787565
 11
929.676900
 21
594.750000
  0
LINE
  8
CSLAYER1
  6
CONTINUOUS
 62
     7
 10
958.776900
 20
606.000000
 11
960.876900
 21
604.787565
  0
LINE
  8
CSLAYER1
  6
CONTINUOUS
 62
     7
 10
960.876900
 20
604.787565
 11
960.876900
 21
594.750000
  0
LINE
  8
CSLAYER1
  6
CONTINUOUS
 62
     7
 10
931.776900
 20
606.000000
 11
958.776900
 21
606.000000
  0
LINE
  8
CSLAYER1
  6
CONTINUOUS
 62
     7
 10
929.676900
 20
594.750000
 11
960.876900
 21
594.750000
  0
ARC
  8
CSLAYER1
  6
CONTINUOUS
 62
     7
 10
932.976900
 20
600.902822
 40
5.097178
 50
49.652860
 51
130.347140
  0
ARC
  8
CSLAYER1
  6
CONTINUOUS
 62
     7
 10
945.276900
 20
571.989946
 40
34.010055
 50
74.655173
 51
105.344827
  0
ARC
  8
CSLAYER1
  6
CONTINUOUS
 62
     7
 10
957.576900
 20
600.902822
 40
5.097178
 50
49.652860
 51
130.347140
  0
LINE
  8
CSLAYER1
  6
CONTINUOUS
 62
     7
 10
936.276900
 20
604.787565
 11
936.276900
 21
594.750000
  0
LINE
  8
CSLAYER1
  6
CONTINUOUS
 62
     7
 10
954.276900
 20
604.787565
 11
954.276900
 21
594.750000
  0
LINE
  8
CSLAYER1
  6
CONTINUOUS
 62
     7
 10
954.276900
 20
543.375000
 11
954.276900
 21
530.337436
  0
LINE
  8
CSLAYER1
  6
CONTINUOUS
 62
     7
 10
960.876900
 20
543.375000
 11
960.876900
 21
530.337436
  0
ARC
  8
CSLAYER1
  6
CONTINUOUS
 62
     7
 10
957.576900
 20
534.222178
 40
5.097178
 50
229.652860
 51
310.347140
  0
LINE
  8
CSLAYER1
  6
CONTINUOUS
 62
     7
 10
958.776900
 20
529.125000
 11
960.876900
 21
530.337436
  0
LINE
  8
CSLAYER1
  6
CONTINUOUS
 62
     7
 10
931.776900
 20
529.125000
 11
958.776900
 21
529.125000
  0
ARC
  8
CSLAYER1
  6
CONTINUOUS
 62
     7
 10
932.976900
 20
534.222178
 40
5.097178
 50
229.652860
 51
310.347140
  0
ARC
  8
CSLAYER1
  6
CONTINUOUS
 62
     7
 10
945.276900
 20
563.135055
 40
34.010055
 50
254.655173
 51
285.344827
  0
LINE
  8
CSLAYER1
  6
CONTINUOUS
 62
     7
 10
936.276900
 20
543.375000
 11
936.276900
 21
530.337436
  0
LINE
  8
CSLAYER1
  6
CONTINUOUS
 62
     7
 10
929.676900
 20
543.375000
 11
929.676900
 21
530.337436
  0
LINE
  8
CSLAYER1
  6
CONTINUOUS
 62
     7
 10
931.776900
 20
529.125000
 11
929.676900
 21
530.337436
  0
LINE
  8
CSLAYER1
  6
CONTINUOUS
 62
     7
 10
936.276900
 20
529.125000
 11
936.276900
 21
522.750000
  0
LINE
  8
CSLAYER1
  6
CONTINUOUS
 62
     7
 10
936.276900
 20
522.750000
 11
937.776900
 21
521.250000
  0
LINE
  8
CSLAYER1
  6
CONTINUOUS
 62
     7
 10
937.401900
 20
529.125000
 11
937.401900
 21
521.625000
  0
LINE
  8
CSLAYER1
  6
CONTINUOUS
 62
     7
 10
936.276900
 20
522.750000
 11
954.276900
 21
522.750000
  0
LINE
  8
CSLAYER1
  6
CONTINUOUS
 62
     7
 10
937.776900
 20
521.250000
 11
952.776900
 21
521.250000
  0
LINE
  8
CSLAYER1
  6
CONTINUOUS
 62
     7
 10
952.776900
 20
521.250000
 11
954.276900
 21
522.750000
  0
LINE
  8
CSLAYER1
  6
CONTINUOUS
 62
     7
 10
954.276900
 20
522.750000
 11
954.276900
 21
529.125000
  0
LINE
  8
CSLAYER1
  6
CONTINUOUS
 62
     7
 10
953.151900
 20
521.625000
 11
953.151900
 21
529.125000
  0
LINE
  8
CSLAYER1
  6
CENTER
 62
     2
 10
906.804305
 20
508.500000
 11
906.804305
 21
613.500000
  0
LINE
  8
CSLAYER1
  6
CONTINUOUS
 62
     7
 10
893.304305
 20
606.000000
 11
891.204305
 21
604.787565
  0
LINE
  8
CSLAYER1
  6
CONTINUOUS
 62
     7
 10
891.204305
 20
604.787565
 11
891.204305
 21
594.750000
  0
LINE
  8
CSLAYER1
  6
CONTINUOUS
 62
     7
 10
920.304305
 20
606.000000
 11
922.404305
 21
604.787565
  0
LINE
  8
CSLAYER1
  6
CONTINUOUS
 62
     7
 10
922.404305
 20
604.787565
 11
922.404305
 21
594.750000
  0
LINE
  8
CSLAYER1
  6
CONTINUOUS
 62
     7
 10
893.304305
 20
606.000000
 11
920.304305
 21
606.000000
  0
LINE
  8
CSLAYER1
  6
CONTINUOUS
 62
     7
 10
891.204305
 20
594.750000
 11
922.404305
 21
594.750000
  0
ARC
  8
CSLAYER1
  6
CONTINUOUS
 62
     7
 10
894.504305
 20
600.902822
 40
5.097178
 50
49.652860
 51
130.347140
  0
ARC
  8
CSLAYER1
  6
CONTINUOUS
 62
     7
 10
906.804305
 20
571.989946
 40
34.010055
 50
74.655173
 51
105.344827
  0
ARC
  8
CSLAYER1
  6
CONTINUOUS
 62
     7
 10
919.104305
 20
600.902822
 40
5.097178
 50
49.652860
 51
130.347140
  0
LINE
  8
CSLAYER1
  6
CONTINUOUS
 62
     7
 10
897.804305
 20
604.787565
 11
897.804305
 21
594.750000
  0
LINE
  8
CSLAYER1
  6
CONTINUOUS
 62
     7
 10
915.804305
 20
604.787565
 11
915.804305
 21
594.750000
  0
LINE
  8
CSLAYER1
  6
CONTINUOUS
 62
     7
 10
915.804305
 20
543.375000
 11
915.804305
 21
530.337436
  0
LINE
  8
CSLAYER1
  6
CONTINUOUS
 62
     7
 10
922.404305
 20
543.375000
 11
922.404305
 21
530.337436
  0
ARC
  8
CSLAYER1
  6
CONTINUOUS
 62
     7
 10
919.104305
 20
534.222178
 40
5.097178
 50
229.652860
 51
310.347140
  0
LINE
  8
CSLAYER1
  6
CONTINUOUS
 62
     7
 10
920.304305
 20
529.125000
 11
922.404305
 21
530.337436
  0
LINE
  8
CSLAYER1
  6
CONTINUOUS
 62
     7
 10
893.304305
 20
529.125000
 11
920.304305
 21
529.125000
  0
ARC
  8
CSLAYER1
  6
CONTINUOUS
 62
     7
 10
894.504305
 20
534.222178
 40
5.097178
 50
229.652860
 51
310.347140
  0
ARC
  8
CSLAYER1
  6
CONTINUOUS
 62
     7
 10
906.804305
 20
563.135055
 40
34.010055
 50
254.655173
 51
285.344827
  0
LINE
  8
CSLAYER1
  6
CONTINUOUS
 62
     7
 10
897.804305
 20
543.375000
 11
897.804305
 21
530.337436
  0
LINE
  8
CSLAYER1
  6
CONTINUOUS
 62
     7
 10
891.204305
 20
543.375000
 11
891.204305
 21
530.337436
  0
LINE
  8
CSLAYER1
  6
CONTINUOUS
 62
     7
 10
893.304305
 20
529.125000
 11
891.204305
 21
530.337436
  0
LINE
  8
CSLAYER1
  6
CONTINUOUS
 62
     7
 10
897.804305
 20
529.125000
 11
897.804305
 21
522.750000
  0
LINE
  8
CSLAYER1
  6
CONTINUOUS
 62
     7
 10
897.804305
 20
522.750000
 11
899.304305
 21
521.250000
  0
LINE
  8
CSLAYER1
  6
CONTINUOUS
 62
     7
 10
898.929305
 20
529.125000
 11
898.929305
 21
521.625000
  0
LINE
  8
CSLAYER1
  6
CONTINUOUS
 62
     7
 10
897.804305
 20
522.750000
 11
915.804305
 21
522.750000
  0
LINE
  8
CSLAYER1
  6
CONTINUOUS
 62
     7
 10
899.304305
 20
521.250000
 11
914.304305
 21
521.250000
  0
LINE
  8
CSLAYER1
  6
CONTINUOUS
 62
     7
 10
914.304305
 20
521.250000
 11
915.804305
 21
522.750000
  0
LINE
  8
CSLAYER1
  6
CONTINUOUS
 62
     7
 10
915.804305
 20
522.750000
 11
915.804305
 21
529.125000
  0
LINE
  8
CSLAYER1
  6
CONTINUOUS
 62
     7
 10
914.679305
 20
521.625000
 11
914.679305
 21
529.125000
  0
LINE
  8
CSLAYER1
  6
CONTINUOUS
 62
     7
 10
1450.992797
 20
615.750000
 11
1450.992797
 21
606.000000
  0
LINE
  8
CSLAYER1
  6
CONTINUOUS
 62
     7
 10
1460.367797
 20
568.500000
 11
1460.367797
 21
567.000000
  0
LINE
  8
CSLAYER1
  6
CONTINUOUS
 62
     7
 10
1487.367797
 20
606.000000
 11
1489.467797
 21
604.787565
  0
LINE
  8
CSLAYER1
  6
CONTINUOUS
 62
     7
 10
1489.467797
 20
604.787565
 11
1489.467797
 21
594.750000
  0
LINE
  8
CSLAYER1
  6
CONTINUOUS
 62
     7
 10
1487.367797
 20
606.000000
 11
1460.367797
 21
606.000000
  0
LINE
  8
CSLAYER1
  6
CONTINUOUS
 62
     7
 10
1489.467797
 20
594.750000
 11
1458.267797
 21
594.750000
  0
ARC
  8
CSLAYER1
  6
CONTINUOUS
 62
     7
 10
1486.167797
 20
600.902822
 40
5.097178
 50
49.652860
 51
130.347140
  0
ARC
  8
CSLAYER1
  6
CONTINUOUS
 62
     7
 10
1473.867797
 20
571.989946
 40
34.010055
 50
74.655173
 51
102.722770
  0
LINE
  8
CSLAYER1
  6
CONTINUOUS
 62
     7
 10
1482.867797
 20
604.787565
 11
1482.867797
 21
594.750000
  0
LINE
  8
CSLAYER1
  6
CONTINUOUS
 62
     7
 10
1487.367797
 20
529.125000
 11
1460.367797
 21
529.125000
  0
ARC
  8
CSLAYER1
  6
CONTINUOUS
 62
     7
 10
1486.167797
 20
534.222178
 40
5.097178
 50
229.652860
 51
310.347140
  0
ARC
  8
CSLAYER1
  6
CONTINUOUS
 62
     7
 10
1473.867797
 20
563.135055
 40
34.010055
 50
257.277230
 51
285.344827
  0
LINE
  8
CSLAYER1
  6
CONTINUOUS
 62
     7
 10
1482.867797
 20
543.375000
 11
1482.867797
 21
530.337436
  0
LINE
  8
CSLAYER1
  6
CONTINUOUS
 62
     7
 10
1489.467797
 20
543.375000
 11
1489.467797
 21
530.337436
  0
LINE
  8
CSLAYER1
  6
CONTINUOUS
 62
     7
 10
1487.367797
 20
529.125000
 11
1489.467797
 21
530.337436
  0
LINE
  8
CSLAYER1
  6
CONTINUOUS
 62
     7
 10
1482.867797
 20
529.125000
 11
1482.867797
 21
522.750000
  0
LINE
  8
CSLAYER1
  6
CONTINUOUS
 62
     7
 10
1482.867797
 20
522.750000
 11
1481.367797
 21
521.250000
  0
LINE
  8
CSLAYER1
  6
CONTINUOUS
 62
     7
 10
1481.742797
 20
529.125000
 11
1481.742797
 21
521.625000
  0
LINE
  8
CSLAYER1
  6
CONTINUOUS
 62
     7
 10
1482.867797
 20
522.750000
 11
1464.867797
 21
522.750000
  0
LINE
  8
CSLAYER1
  6
CONTINUOUS
 62
     7
 10
1481.367797
 20
521.250000
 11
1466.367797
 21
521.250000
  0
LINE
  8
CSLAYER1
  6
CONTINUOUS
 62
     7
 10
1466.367797
 20
521.250000
 11
1464.867797
 21
522.750000
  0
LINE
  8
CSLAYER1
  6
CONTINUOUS
 62
     7
 10
1464.867797
 20
522.750000
 11
1464.867797
 21
529.125000
  0
LINE
  8
CSLAYER1
  6
CONTINUOUS
 62
     7
 10
1465.992797
 20
521.625000
 11
1465.992797
 21
529.125000
  0
LINE
  8
CSLAYER1
  6
CENTER
 62
     2
 10
1473.867797
 20
508.500000
 11
1473.867797
 21
613.500000
  0
LINE
  8
CSLAYER1
  6
CENTER
 62
     2
 10
1217.590392
 20
508.500000
 11
1217.590392
 21
613.500000
  0
LINE
  8
CSLAYER1
  6
CONTINUOUS
 62
     7
 10
1231.090392
 20
606.000000
 11
1233.190392
 21
604.787565
  0
LINE
  8
CSLAYER1
  6
CONTINUOUS
 62
     7
 10
1233.190392
 20
604.787565
 11
1233.190392
 21
594.750000
  0
LINE
  8
CSLAYER1
  6
CONTINUOUS
 62
     7
 10
1204.090392
 20
606.000000
 11
1201.990392
 21
604.787565
  0
LINE
  8
CSLAYER1
  6
CONTINUOUS
 62
     7
 10
1201.990392
 20
604.787565
 11
1201.990392
 21
594.750000
  0
LINE
  8
CSLAYER1
  6
CONTINUOUS
 62
     7
 10
1231.090392
 20
606.000000
 11
1204.090392
 21
606.000000
  0
LINE
  8
CSLAYER1
  6
CONTINUOUS
 62
     7
 10
1233.190392
 20
594.750000
 11
1201.990392
 21
594.750000
  0
ARC
  8
CSLAYER1
  6
CONTINUOUS
 62
     7
 10
1229.890392
 20
600.902822
 40
5.097178
 50
49.652860
 51
130.347140
  0
ARC
  8
CSLAYER1
  6
CONTINUOUS
 62
     7
 10
1217.590392
 20
571.989946
 40
34.010055
 50
74.655173
 51
105.344827
  0
ARC
  8
CSLAYER1
  6
CONTINUOUS
 62
     7
 10
1205.290392
 20
600.902822
 40
5.097178
 50
49.652860
 51
130.347140
  0
LINE
  8
CSLAYER1
  6
CONTINUOUS
 62
     7
 10
1226.590392
 20
604.787565
 11
1226.590392
 21
594.750000
  0
LINE
  8
CSLAYER1
  6
CONTINUOUS
 62
     7
 10
1208.590392
 20
604.787565
 11
1208.590392
 21
594.750000
  0
LINE
  8
CSLAYER1
  6
CONTINUOUS
 62
     7
 10
1208.590392
 20
543.375000
 11
1208.590392
 21
530.337436
  0
LINE
  8
CSLAYER1
  6
CONTINUOUS
 62
     7
 10
1201.990392
 20
543.375000
 11
1201.990392
 21
530.337436
  0
ARC
  8
CSLAYER1
  6
CONTINUOUS
 62
     7
 10
1205.290392
 20
534.222178
 40
5.097178
 50
229.652860
 51
310.347140
  0
LINE
  8
CSLAYER1
  6
CONTINUOUS
 62
     7
 10
1204.090392
 20
529.125000
 11
1201.990392
 21
530.337436
  0
LINE
  8
CSLAYER1
  6
CONTINUOUS
 62
     7
 10
1231.090392
 20
529.125000
 11
1204.090392
 21
529.125000
  0
ARC
  8
CSLAYER1
  6
CONTINUOUS
 62
     7
 10
1229.890392
 20
534.222178
 40
5.097178
 50
229.652860
 51
310.347140
  0
ARC
  8
CSLAYER1
  6
CONTINUOUS
 62
     7
 10
1217.590392
 20
563.135055
 40
34.010055
 50
254.655173
 51
285.344827
  0
LINE
  8
CSLAYER1
  6
CONTINUOUS
 62
     7
 10
1226.590392
 20
543.375000
 11
1226.590392
 21
530.337436
  0
LINE
  8
CSLAYER1
  6
CONTINUOUS
 62
     7
 10
1233.190392
 20
543.375000
 11
1233.190392
 21
530.337436
  0
LINE
  8
CSLAYER1
  6
CONTINUOUS
 62
     7
 10
1231.090392
 20
529.125000
 11
1233.190392
 21
530.337436
  0
LINE
  8
CSLAYER1
  6
CONTINUOUS
 62
     7
 10
1226.590392
 20
529.125000
 11
1226.590392
 21
522.750000
  0
LINE
  8
CSLAYER1
  6
CONTINUOUS
 62
     7
 10
1226.590392
 20
522.750000
 11
1225.090392
 21
521.250000
  0
LINE
  8
CSLAYER1
  6
CONTINUOUS
 62
     7
 10
1225.465392
 20
529.125000
 11
1225.465392
 21
521.625000
  0
LINE
  8
CSLAYER1
  6
CONTINUOUS
 62
     7
 10
1226.590392
 20
522.750000
 11
1208.590392
 21
522.750000
  0
LINE
  8
CSLAYER1
  6
CONTINUOUS
 62
     7
 10
1225.090392
 20
521.250000
 11
1210.090392
 21
521.250000
  0
LINE
  8
CSLAYER1
  6
CONTINUOUS
 62
     7
 10
1210.090392
 20
521.250000
 11
1208.590392
 21
522.750000
  0
LINE
  8
CSLAYER1
  6
CONTINUOUS
 62
     7
 10
1208.590392
 20
522.750000
 11
1208.590392
 21
529.125000
  0
LINE
  8
CSLAYER1
  6
CONTINUOUS
 62
     7
 10
1209.715392
 20
521.625000
 11
1209.715392
 21
529.125000
  0
LINE
  8
CSLAYER1
  6
CENTER
 62
     2
 10
1291.913739
 20
508.500000
 11
1291.913739
 21
613.500000
  0
LINE
  8
CSLAYER1
  6
CONTINUOUS
 62
     7
 10
1305.413739
 20
606.000000
 11
1307.513739
 21
604.787565
  0
LINE
  8
CSLAYER1
  6
CONTINUOUS
 62
     7
 10
1307.513739
 20
604.787565
 11
1307.513739
 21
594.750000
  0
LINE
  8
CSLAYER1
  6
CONTINUOUS
 62
     7
 10
1278.413739
 20
606.000000
 11
1276.313739
 21
604.787565
  0
LINE
  8
CSLAYER1
  6
CONTINUOUS
 62
     7
 10
1276.313739
 20
604.787565
 11
1276.313739
 21
594.750000
  0
LINE
  8
CSLAYER1
  6
CONTINUOUS
 62
     7
 10
1305.413739
 20
606.000000
 11
1278.413739
 21
606.000000
  0
LINE
  8
CSLAYER1
  6
CONTINUOUS
 62
     7
 10
1307.513739
 20
594.750000
 11
1276.313739
 21
594.750000
  0
ARC
  8
CSLAYER1
  6
CONTINUOUS
 62
     7
 10
1304.213739
 20
600.902822
 40
5.097178
 50
49.652860
 51
130.347140
  0
ARC
  8
CSLAYER1
  6
CONTINUOUS
 62
     7
 10
1291.913739
 20
571.989946
 40
34.010055
 50
74.655173
 51
105.344827
  0
ARC
  8
CSLAYER1
  6
CONTINUOUS
 62
     7
 10
1279.613739
 20
600.902822
 40
5.097178
 50
49.652860
 51
130.347140
  0
LINE
  8
CSLAYER1
  6
CONTINUOUS
 62
     7
 10
1300.913739
 20
604.787565
 11
1300.913739
 21
594.750000
  0
LINE
  8
CSLAYER1
  6
CONTINUOUS
 62
     7
 10
1282.913739
 20
604.787565
 11
1282.913739
 21
594.750000
  0
LINE
  8
CSLAYER1
  6
CONTINUOUS
 62
     7
 10
1282.913739
 20
543.375000
 11
1282.913739
 21
530.337436
  0
LINE
  8
CSLAYER1
  6
CONTINUOUS
 62
     7
 10
1276.313739
 20
543.375000
 11
1276.313739
 21
530.337436
  0
ARC
  8
CSLAYER1
  6
CONTINUOUS
 62
     7
 10
1279.613739
 20
534.222178
 40
5.097178
 50
229.652860
 51
310.347140
  0
LINE
  8
CSLAYER1
  6
CONTINUOUS
 62
     7
 10
1278.413739
 20
529.125000
 11
1276.313739
 21
530.337436
  0
LINE
  8
CSLAYER1
  6
CONTINUOUS
 62
     7
 10
1305.413739
 20
529.125000
 11
1278.413739
 21
529.125000
  0
ARC
  8
CSLAYER1
  6
CONTINUOUS
 62
     7
 10
1304.213739
 20
534.222178
 40
5.097178
 50
229.652860
 51
310.347140
  0
ARC
  8
CSLAYER1
  6
CONTINUOUS
 62
     7
 10
1291.913739
 20
563.135055
 40
34.010055
 50
254.655173
 51
285.344827
  0
LINE
  8
CSLAYER1
  6
CONTINUOUS
 62
     7
 10
1300.913739
 20
543.375000
 11
1300.913739
 21
530.337436
  0
LINE
  8
CSLAYER1
  6
CONTINUOUS
 62
     7
 10
1307.513739
 20
543.375000
 11
1307.513739
 21
530.337436
  0
LINE
  8
CSLAYER1
  6
CONTINUOUS
 62
     7
 10
1305.413739
 20
529.125000
 11
1307.513739
 21
530.337436
  0
LINE
  8
CSLAYER1
  6
CONTINUOUS
 62
     7
 10
1300.913739
 20
529.125000
 11
1300.913739
 21
522.750000
  0
LINE
  8
CSLAYER1
  6
CONTINUOUS
 62
     7
 10
1300.913739
 20
522.750000
 11
1299.413739
 21
521.250000
  0
LINE
  8
CSLAYER1
  6
CONTINUOUS
 62
     7
 10
1299.788739
 20
529.125000
 11
1299.788739
 21
521.625000
  0
LINE
  8
CSLAYER1
  6
CONTINUOUS
 62
     7
 10
1300.913739
 20
522.750000
 11
1282.913739
 21
522.750000
  0
LINE
  8
CSLAYER1
  6
CONTINUOUS
 62
     7
 10
1299.413739
 20
521.250000
 11
1284.413739
 21
521.250000
  0
LINE
  8
CSLAYER1
  6
CONTINUOUS
 62
     7
 10
1284.413739
 20
521.250000
 11
1282.913739
 21
522.750000
  0
LINE
  8
CSLAYER1
  6
CONTINUOUS
 62
     7
 10
1282.913739
 20
522.750000
 11
1282.913739
 21
529.125000
  0
LINE
  8
CSLAYER1
  6
CONTINUOUS
 62
     7
 10
1284.038739
 20
521.625000
 11
1284.038739
 21
529.125000
  0
LINE
  8
CSLAYER1
  6
CENTER
 62
     2
 10
1358.550228
 20
508.500000
 11
1358.550228
 21
613.500000
  0
LINE
  8
CSLAYER1
  6
CONTINUOUS
 62
     7
 10
1372.050228
 20
606.000000
 11
1374.150228
 21
604.787565
  0
LINE
  8
CSLAYER1
  6
CONTINUOUS
 62
     7
 10
1374.150228
 20
604.787565
 11
1374.150228
 21
594.750000
  0
LINE
  8
CSLAYER1
  6
CONTINUOUS
 62
     7
 10
1345.050228
 20
606.000000
 11
1342.950228
 21
604.787565
  0
LINE
  8
CSLAYER1
  6
CONTINUOUS
 62
     7
 10
1342.950228
 20
604.787565
 11
1342.950228
 21
594.750000
  0
LINE
  8
CSLAYER1
  6
CONTINUOUS
 62
     7
 10
1372.050228
 20
606.000000
 11
1345.050228
 21
606.000000
  0
LINE
  8
CSLAYER1
  6
CONTINUOUS
 62
     7
 10
1374.150228
 20
594.750000
 11
1342.950228
 21
594.750000
  0
ARC
  8
CSLAYER1
  6
CONTINUOUS
 62
     7
 10
1370.850228
 20
600.902822
 40
5.097178
 50
49.652860
 51
130.347140
  0
ARC
  8
CSLAYER1
  6
CONTINUOUS
 62
     7
 10
1358.550228
 20
571.989946
 40
34.010055
 50
74.655173
 51
105.344827
  0
ARC
  8
CSLAYER1
  6
CONTINUOUS
 62
     7
 10
1346.250228
 20
600.902822
 40
5.097178
 50
49.652860
 51
130.347140
  0
LINE
  8
CSLAYER1
  6
CONTINUOUS
 62
     7
 10
1367.550228
 20
604.787565
 11
1367.550228
 21
594.750000
  0
LINE
  8
CSLAYER1
  6
CONTINUOUS
 62
     7
 10
1349.550228
 20
604.787565
 11
1349.550228
 21
594.750000
  0
LINE
  8
CSLAYER1
  6
CONTINUOUS
 62
     7
 10
1349.550228
 20
543.375000
 11
1349.550228
 21
530.337436
  0
LINE
  8
CSLAYER1
  6
CONTINUOUS
 62
     7
 10
1342.950228
 20
543.375000
 11
1342.950228
 21
530.337436
  0
ARC
  8
CSLAYER1
  6
CONTINUOUS
 62
     7
 10
1346.250228
 20
534.222178
 40
5.097178
 50
229.652860
 51
310.347140
  0
LINE
  8
CSLAYER1
  6
CONTINUOUS
 62
     7
 10
1345.050228
 20
529.125000
 11
1342.950228
 21
530.337436
  0
LINE
  8
CSLAYER1
  6
CONTINUOUS
 62
     7
 10
1372.050228
 20
529.125000
 11
1345.050228
 21
529.125000
  0
ARC
  8
CSLAYER1
  6
CONTINUOUS
 62
     7
 10
1370.850228
 20
534.222178
 40
5.097178
 50
229.652860
 51
310.347140
  0
ARC
  8
CSLAYER1
  6
CONTINUOUS
 62
     7
 10
1358.550228
 20
563.135055
 40
34.010055
 50
254.655173
 51
285.344827
  0
LINE
  8
CSLAYER1
  6
CONTINUOUS
 62
     7
 10
1367.550228
 20
543.375000
 11
1367.550228
 21
530.337436
  0
LINE
  8
CSLAYER1
  6
CONTINUOUS
 62
     7
 10
1374.150228
 20
543.375000
 11
1374.150228
 21
530.337436
  0
LINE
  8
CSLAYER1
  6
CONTINUOUS
 62
     7
 10
1372.050228
 20
529.125000
 11
1374.150228
 21
530.337436
  0
LINE
  8
CSLAYER1
  6
CONTINUOUS
 62
     7
 10
1367.550228
 20
529.125000
 11
1367.550228
 21
522.750000
  0
LINE
  8
CSLAYER1
  6
CONTINUOUS
 62
     7
 10
1367.550228
 20
522.750000
 11
1366.050228
 21
521.250000
  0
LINE
  8
CSLAYER1
  6
CONTINUOUS
 62
     7
 10
1366.425228
 20
529.125000
 11
1366.425228
 21
521.625000
  0
LINE
  8
CSLAYER1
  6
CONTINUOUS
 62
     7
 10
1367.550228
 20
522.750000
 11
1349.550228
 21
522.750000
  0
LINE
  8
CSLAYER1
  6
CONTINUOUS
 62
     7
 10
1366.050228
 20
521.250000
 11
1351.050228
 21
521.250000
  0
LINE
  8
CSLAYER1
  6
CONTINUOUS
 62
     7
 10
1351.050228
 20
521.250000
 11
1349.550228
 21
522.750000
  0
LINE
  8
CSLAYER1
  6
CONTINUOUS
 62
     7
 10
1349.550228
 20
522.750000
 11
1349.550228
 21
529.125000
  0
LINE
  8
CSLAYER1
  6
CONTINUOUS
 62
     7
 10
1350.675228
 20
521.625000
 11
1350.675228
 21
529.125000
  0
LINE
  8
CSLAYER1
  6
CENTER
 62
     2
 10
1412.958694
 20
508.500000
 11
1412.958694
 21
613.500000
  0
LINE
  8
CSLAYER1
  6
CONTINUOUS
 62
     7
 10
1426.458694
 20
606.000000
 11
1428.558694
 21
604.787565
  0
LINE
  8
CSLAYER1
  6
CONTINUOUS
 62
     7
 10
1428.558694
 20
604.787565
 11
1428.558694
 21
594.750000
  0
LINE
  8
CSLAYER1
  6
CONTINUOUS
 62
     7
 10
1399.458694
 20
606.000000
 11
1397.358694
 21
604.787565
  0
LINE
  8
CSLAYER1
  6
CONTINUOUS
 62
     7
 10
1397.358694
 20
604.787565
 11
1397.358694
 21
594.750000
  0
LINE
  8
CSLAYER1
  6
CONTINUOUS
 62
     7
 10
1426.458694
 20
606.000000
 11
1399.458694
 21
606.000000
  0
LINE
  8
CSLAYER1
  6
CONTINUOUS
 62
     7
 10
1428.558694
 20
594.750000
 11
1397.358694
 21
594.750000
  0
ARC
  8
CSLAYER1
  6
CONTINUOUS
 62
     7
 10
1425.258694
 20
600.902822
 40
5.097178
 50
49.652860
 51
130.347140
  0
ARC
  8
CSLAYER1
  6
CONTINUOUS
 62
     7
 10
1412.958694
 20
571.989946
 40
34.010055
 50
74.655173
 51
105.344827
  0
ARC
  8
CSLAYER1
  6
CONTINUOUS
 62
     7
 10
1400.658694
 20
600.902822
 40
5.097178
 50
49.652860
 51
130.347140
  0
LINE
  8
CSLAYER1
  6
CONTINUOUS
 62
     7
 10
1421.958694
 20
604.787565
 11
1421.958694
 21
594.750000
  0
LINE
  8
CSLAYER1
  6
CONTINUOUS
 62
     7
 10
1403.958694
 20
604.787565
 11
1403.958694
 21
594.750000
  0
LINE
  8
CSLAYER1
  6
CONTINUOUS
 62
     7
 10
1403.958694
 20
543.375000
 11
1403.958694
 21
530.337436
  0
LINE
  8
CSLAYER1
  6
CONTINUOUS
 62
     7
 10
1397.358694
 20
543.375000
 11
1397.358694
 21
530.337436
  0
ARC
  8
CSLAYER1
  6
CONTINUOUS
 62
     7
 10
1400.658694
 20
534.222178
 40
5.097178
 50
229.652860
 51
310.347140
  0
LINE
  8
CSLAYER1
  6
CONTINUOUS
 62
     7
 10
1399.458694
 20
529.125000
 11
1397.358694
 21
530.337436
  0
LINE
  8
CSLAYER1
  6
CONTINUOUS
 62
     7
 10
1426.458694
 20
529.125000
 11
1399.458694
 21
529.125000
  0
ARC
  8
CSLAYER1
  6
CONTINUOUS
 62
     7
 10
1425.258694
 20
534.222178
 40
5.097178
 50
229.652860
 51
310.347140
  0
ARC
  8
CSLAYER1
  6
CONTINUOUS
 62
     7
 10
1412.958694
 20
563.135055
 40
34.010055
 50
254.655173
 51
285.344827
  0
LINE
  8
CSLAYER1
  6
CONTINUOUS
 62
     7
 10
1421.958694
 20
543.375000
 11
1421.958694
 21
530.337436
  0
LINE
  8
CSLAYER1
  6
CONTINUOUS
 62
     7
 10
1428.558694
 20
543.375000
 11
1428.558694
 21
530.337436
  0
LINE
  8
CSLAYER1
  6
CONTINUOUS
 62
     7
 10
1426.458694
 20
529.125000
 11
1428.558694
 21
530.337436
  0
LINE
  8
CSLAYER1
  6
CONTINUOUS
 62
     7
 10
1421.958694
 20
529.125000
 11
1421.958694
 21
522.750000
  0
LINE
  8
CSLAYER1
  6
CONTINUOUS
 62
     7
 10
1421.958694
 20
522.750000
 11
1420.458694
 21
521.250000
  0
LINE
  8
CSLAYER1
  6
CONTINUOUS
 62
     7
 10
1420.833694
 20
529.125000
 11
1420.833694
 21
521.625000
  0
LINE
  8
CSLAYER1
  6
CONTINUOUS
 62
     7
 10
1421.958694
 20
522.750000
 11
1403.958694
 21
522.750000
  0
LINE
  8
CSLAYER1
  6
CONTINUOUS
 62
     7
 10
1420.458694
 20
521.250000
 11
1405.458694
 21
521.250000
  0
LINE
  8
CSLAYER1
  6
CONTINUOUS
 62
     7
 10
1405.458694
 20
521.250000
 11
1403.958694
 21
522.750000
  0
LINE
  8
CSLAYER1
  6
CONTINUOUS
 62
     7
 10
1403.958694
 20
522.750000
 11
1403.958694
 21
529.125000
  0
LINE
  8
CSLAYER1
  6
CONTINUOUS
 62
     7
 10
1405.083694
 20
521.625000
 11
1405.083694
 21
529.125000
  0
LINE
  8
CSLAYER1
  6
CENTER
 62
     2
 10
1451.431289
 20
508.500000
 11
1451.431289
 21
613.500000
  0
LINE
  8
CSLAYER1
  6
CONTINUOUS
 62
     7
 10
1464.931289
 20
606.000000
 11
1467.031289
 21
604.787565
  0
LINE
  8
CSLAYER1
  6
CONTINUOUS
 62
     7
 10
1467.031289
 20
604.787565
 11
1467.031289
 21
594.750000
  0
LINE
  8
CSLAYER1
  6
CONTINUOUS
 62
     7
 10
1437.931289
 20
606.000000
 11
1435.831289
 21
604.787565
  0
LINE
  8
CSLAYER1
  6
CONTINUOUS
 62
     7
 10
1435.831289
 20
604.787565
 11
1435.831289
 21
594.750000
  0
LINE
  8
CSLAYER1
  6
CONTINUOUS
 62
     7
 10
1464.931289
 20
606.000000
 11
1437.931289
 21
606.000000
  0
LINE
  8
CSLAYER1
  6
CONTINUOUS
 62
     7
 10
1467.031289
 20
594.750000
 11
1435.831289
 21
594.750000
  0
ARC
  8
CSLAYER1
  6
CONTINUOUS
 62
     7
 10
1463.731289
 20
600.902822
 40
5.097178
 50
49.652860
 51
130.347140
  0
ARC
  8
CSLAYER1
  6
CONTINUOUS
 62
     7
 10
1451.431289
 20
571.989946
 40
34.010055
 50
74.655173
 51
105.344827
  0
ARC
  8
CSLAYER1
  6
CONTINUOUS
 62
     7
 10
1439.131289
 20
600.902822
 40
5.097178
 50
49.652860
 51
130.347140
  0
LINE
  8
CSLAYER1
  6
CONTINUOUS
 62
     7
 10
1460.431289
 20
604.787565
 11
1460.431289
 21
594.750000
  0
LINE
  8
CSLAYER1
  6
CONTINUOUS
 62
     7
 10
1442.431289
 20
604.787565
 11
1442.431289
 21
594.750000
  0
LINE
  8
CSLAYER1
  6
CONTINUOUS
 62
     7
 10
1442.431289
 20
543.375000
 11
1442.431289
 21
530.337436
  0
LINE
  8
CSLAYER1
  6
CONTINUOUS
 62
     7
 10
1435.831289
 20
543.375000
 11
1435.831289
 21
530.337436
  0
ARC
  8
CSLAYER1
  6
CONTINUOUS
 62
     7
 10
1439.131289
 20
534.222178
 40
5.097178
 50
229.652860
 51
310.347140
  0
LINE
  8
CSLAYER1
  6
CONTINUOUS
 62
     7
 10
1437.931289
 20
529.125000
 11
1435.831289
 21
530.337436
  0
LINE
  8
CSLAYER1
  6
CONTINUOUS
 62
     7
 10
1464.931289
 20
529.125000
 11
1437.931289
 21
529.125000
  0
ARC
  8
CSLAYER1
  6
CONTINUOUS
 62
     7
 10
1463.731289
 20
534.222178
 40
5.097178
 50
229.652860
 51
310.347140
  0
ARC
  8
CSLAYER1
  6
CONTINUOUS
 62
     7
 10
1451.431289
 20
563.135055
 40
34.010055
 50
254.655173
 51
285.344827
  0
LINE
  8
CSLAYER1
  6
CONTINUOUS
 62
     7
 10
1460.431289
 20
543.375000
 11
1460.431289
 21
530.337436
  0
LINE
  8
CSLAYER1
  6
CONTINUOUS
 62
     7
 10
1467.031289
 20
543.375000
 11
1467.031289
 21
530.337436
  0
LINE
  8
CSLAYER1
  6
CONTINUOUS
 62
     7
 10
1464.931289
 20
529.125000
 11
1467.031289
 21
530.337436
  0
LINE
  8
CSLAYER1
  6
CONTINUOUS
 62
     7
 10
1460.431289
 20
529.125000
 11
1460.431289
 21
522.750000
  0
LINE
  8
CSLAYER1
  6
CONTINUOUS
 62
     7
 10
1460.431289
 20
522.750000
 11
1458.931289
 21
521.250000
  0
LINE
  8
CSLAYER1
  6
CONTINUOUS
 62
     7
 10
1459.306289
 20
529.125000
 11
1459.306289
 21
521.625000
  0
LINE
  8
CSLAYER1
  6
CONTINUOUS
 62
     7
 10
1460.431289
 20
522.750000
 11
1442.431289
 21
522.750000
  0
LINE
  8
CSLAYER1
  6
CONTINUOUS
 62
     7
 10
1458.931289
 20
521.250000
 11
1443.931289
 21
521.250000
  0
LINE
  8
CSLAYER1
  6
CONTINUOUS
 62
     7
 10
1443.931289
 20
521.250000
 11
1442.431289
 21
522.750000
  0
LINE
  8
CSLAYER1
  6
CONTINUOUS
 62
     7
 10
1442.431289
 20
522.750000
 11
1442.431289
 21
529.125000
  0
LINE
  8
CSLAYER1
  6
CONTINUOUS
 62
     7
 10
1443.556289
 20
521.625000
 11
1443.556289
 21
529.125000
  0
LINE
  8
CSLAYER1
  6
CONTINUOUS
 62
     7
 10
897.867797
 20
292.500000
 11
897.867797
 21
291.000000
  0
LINE
  8
CSLAYER1
  6
CONTINUOUS
 62
     7
 10
870.867797
 20
327.750000
 11
868.767797
 21
326.537565
  0
LINE
  8
CSLAYER1
  6
CONTINUOUS
 62
     7
 10
868.767797
 20
326.537565
 11
868.767797
 21
316.500000
  0
LINE
  8
CSLAYER1
  6
CONTINUOUS
 62
     7
 10
870.867797
 20
327.750000
 11
897.867797
 21
327.750000
  0
LINE
  8
CSLAYER1
  6
CONTINUOUS
 62
     7
 10
868.767797
 20
316.500000
 11
899.967797
 21
316.500000
  0
ARC
  8
CSLAYER1
  6
CONTINUOUS
 62
     7
 10
872.067797
 20
322.652822
 40
5.097178
 50
49.652860
 51
130.347140
  0
ARC
  8
CSLAYER1
  6
CONTINUOUS
 62
     7
 10
884.367797
 20
293.739946
 40
34.010055
 50
77.277230
 51
105.344827
  0
LINE
  8
CSLAYER1
  6
CONTINUOUS
 62
     7
 10
875.367797
 20
326.537565
 11
875.367797
 21
316.500000
  0
LINE
  8
CSLAYER1
  6
CONTINUOUS
 62
     7
 10
870.867797
 20
250.500000
 11
897.867797
 21
250.500000
  0
ARC
  8
CSLAYER1
  6
CONTINUOUS
 62
     7
 10
872.067797
 20
255.597178
 40
5.097178
 50
229.652860
 51
310.347140
  0
ARC
  8
CSLAYER1
  6
CONTINUOUS
 62
     7
 10
884.367797
 20
284.510055
 40
34.010055
 50
254.655173
 51
282.722770
  0
LINE
  8
CSLAYER1
  6
CONTINUOUS
 62
     7
 10
875.367797
 20
264.750000
 11
875.367797
 21
251.712436
  0
LINE
  8
CSLAYER1
  6
CONTINUOUS
 62
     7
 10
868.767797
 20
264.750000
 11
868.767797
 21
251.712436
  0
LINE
  8
CSLAYER1
  6
CONTINUOUS
 62
     7
 10
870.867797
 20
250.500000
 11
868.767797
 21
251.712436
  0
LINE
  8
CSLAYER1
  6
CONTINUOUS
 62
     7
 10
875.367797
 20
250.500000
 11
875.367797
 21
244.500000
  0
LINE
  8
CSLAYER1
  6
CONTINUOUS
 62
     7
 10
875.367797
 20
244.500000
 11
876.867797
 21
243.000000
  0
LINE
  8
CSLAYER1
  6
CONTINUOUS
 62
     7
 10
876.492797
 20
250.500000
 11
876.492797
 21
243.375000
  0
LINE
  8
CSLAYER1
  6
CONTINUOUS
 62
     7
 10
875.367797
 20
244.500000
 11
893.367797
 21
244.500000
  0
LINE
  8
CSLAYER1
  6
CONTINUOUS
 62
     7
 10
876.867797
 20
243.000000
 11
891.867797
 21
243.000000
  0
LINE
  8
CSLAYER1
  6
CONTINUOUS
 62
     7
 10
891.867797
 20
243.000000
 11
893.367797
 21
244.500000
  0
LINE
  8
CSLAYER1
  6
CONTINUOUS
 62
     7
 10
893.367797
 20
244.500000
 11
893.367797
 21
250.500000
  0
LINE
  8
CSLAYER1
  6
CONTINUOUS
 62
     7
 10
892.242797
 20
243.375000
 11
892.242797
 21
250.500000
  0
LINE
  8
CSLAYER1
  6
CENTER
 62
     2
 10
884.367797
 20
230.250000
 11
884.367797
 21
335.250000
  0
LINE
  8
CSLAYER1
  6
CENTER
 62
     2
 10
1140.645202
 20
230.250000
 11
1140.645202
 21
335.250000
  0
LINE
  8
CSLAYER1
  6
CONTINUOUS
 62
     7
 10
1127.145202
 20
327.750000
 11
1125.045202
 21
326.537565
  0
LINE
  8
CSLAYER1
  6
CONTINUOUS
 62
     7
 10
1125.045202
 20
326.537565
 11
1125.045202
 21
316.500000
  0
LINE
  8
CSLAYER1
  6
CONTINUOUS
 62
     7
 10
1127.145202
 20
327.750000
 11
1151.180465
 21
327.750000
  0
LINE
  8
CSLAYER1
  6
CONTINUOUS
 62
     7
 10
1125.045202
 20
316.500000
 11
1136.749838
 21
316.500000
  0
ARC
  8
CSLAYER1
  6
CONTINUOUS
 62
     7
 10
1128.345202
 20
322.652822
 40
5.097178
 50
49.652860
 51
130.347140
  0
ARC
  8
CSLAYER1
  6
CONTINUOUS
 62
     7
 10
1140.645202
 20
293.739946
 40
34.010055
 50
74.655173
 51
105.344827
  0
ARC
  8
CSLAYER1
  6
CONTINUOUS
 62
     7
 10
1152.945202
 20
322.652822
 40
5.097178
 50
111.482997
 51
130.347140
  0
LINE
  8
CSLAYER1
  6
CONTINUOUS
 62
     7
 10
1131.645202
 20
326.537565
 11
1131.645202
 21
316.500000
  0
LINE
  8
CSLAYER1
  6
CONTINUOUS
 62
     7
 10
1149.645202
 20
326.537565
 11
1149.645202
 21
323.452562
  0
LINE
  8
CSLAYER1
  6
CONTINUOUS
 62
     7
 10
1149.645202
 20
264.750000
 11
1149.645202
 21
257.307713
  0
LINE
  8
CSLAYER1
  6
CONTINUOUS
 62
     7
 10
1127.145202
 20
250.500000
 11
1148.030299
 21
250.500000
  0
ARC
  8
CSLAYER1
  6
CONTINUOUS
 62
     7
 10
1128.345202
 20
255.597178
 40
5.097178
 50
229.652860
 51
310.347140
  0
ARC
  8
CSLAYER1
  6
CONTINUOUS
 62
     7
 10
1140.645202
 20
284.510055
 40
34.010055
 50
254.655173
 51
282.541373
  0
LINE
  8
CSLAYER1
  6
CONTINUOUS
 62
     7
 10
1131.645202
 20
264.750000
 11
1131.645202
 21
251.712436
  0
LINE
  8
CSLAYER1
  6
CONTINUOUS
 62
     7
 10
1125.045202
 20
264.750000
 11
1125.045202
 21
251.712436
  0
LINE
  8
CSLAYER1
  6
CONTINUOUS
 62
     7
 10
1127.145202
 20
250.500000
 11
1125.045202
 21
251.712436
  0
LINE
  8
CSLAYER1
  6
CONTINUOUS
 62
     7
 10
1131.645202
 20
250.500000
 11
1131.645202
 21
244.500000
  0
LINE
  8
CSLAYER1
  6
CONTINUOUS
 62
     7
 10
1131.645202
 20
244.500000
 11
1133.145202
 21
243.000000
  0
LINE
  8
CSLAYER1
  6
CONTINUOUS
 62
     7
 10
1132.770202
 20
250.500000
 11
1132.770202
 21
243.375000
  0
LINE
  8
CSLAYER1
  6
CONTINUOUS
 62
     7
 10
1131.645202
 20
244.500000
 11
1149.645202
 21
244.500000
  0
LINE
  8
CSLAYER1
  6
CONTINUOUS
 62
     7
 10
1133.145202
 20
243.000000
 11
1148.145202
 21
243.000000
  0
LINE
  8
CSLAYER1
  6
CONTINUOUS
 62
     7
 10
1148.145202
 20
243.000000
 11
1149.645202
 21
244.500000
  0
LINE
  8
CSLAYER1
  6
CONTINUOUS
 62
     7
 10
1149.645202
 20
244.500000
 11
1149.645202
 21
244.875000
  0
LINE
  8
CSLAYER1
  6
CONTINUOUS
 62
     7
 10
1148.520202
 20
243.375000
 11
1148.520202
 21
244.875000
  0
LINE
  8
CSLAYER1
  6
CENTER
 62
     2
 10
1066.321855
 20
230.250000
 11
1066.321855
 21
335.250000
  0
LINE
  8
CSLAYER1
  6
CONTINUOUS
 62
     7
 10
1079.821855
 20
327.750000
 11
1081.921855
 21
326.537565
  0
LINE
  8
CSLAYER1
  6
CONTINUOUS
 62
     7
 10
1081.921855
 20
326.537565
 11
1081.921855
 21
316.500000
  0
LINE
  8
CSLAYER1
  6
CONTINUOUS
 62
     7
 10
1063.668040
 20
327.750000
 11
1079.821855
 21
327.750000
  0
ARC
  8
CSLAYER1
  6
CONTINUOUS
 62
     7
 10
1066.321855
 20
293.739946
 40
34.010055
 50
74.655173
 51
94.475358
  0
ARC
  8
CSLAYER1
  6
CONTINUOUS
 62
     7
 10
1078.621855
 20
322.652822
 40
5.097178
 50
49.652860
 51
130.347140
  0
LINE
  8
CSLAYER1
  6
CONTINUOUS
 62
     7
 10
1075.321855
 20
326.537565
 11
1075.321855
 21
316.500000
  0
LINE
  8
CSLAYER1
  6
CONTINUOUS
 62
     7
 10
1075.321855
 20
264.750000
 11
1075.321855
 21
251.712436
  0
LINE
  8
CSLAYER1
  6
CONTINUOUS
 62
     7
 10
1081.921855
 20
264.750000
 11
1081.921855
 21
251.712436
  0
ARC
  8
CSLAYER1
  6
CONTINUOUS
 62
     7
 10
1078.621855
 20
255.597178
 40
5.097178
 50
229.652860
 51
310.347140
  0
LINE
  8
CSLAYER1
  6
CONTINUOUS
 62
     7
 10
1079.821855
 20
250.500000
 11
1081.921855
 21
251.712436
  0
LINE
  8
CSLAYER1
  6
CONTINUOUS
 62
     7
 10
1063.668040
 20
250.500000
 11
1079.821855
 21
250.500000
  0
ARC
  8
CSLAYER1
  6
CONTINUOUS
 62
     7
 10
1066.321855
 20
284.510055
 40
34.010055
 50
265.524642
 51
285.344827
  0
LINE
  8
CSLAYER1
  6
CONTINUOUS
 62
     7
 10
1057.321855
 20
247.282005
 11
1057.321855
 21
244.500000
  0
LINE
  8
CSLAYER1
  6
CONTINUOUS
 62
     7
 10
1057.321855
 20
244.500000
 11
1058.821855
 21
243.000000
  0
LINE
  8
CSLAYER1
  6
CONTINUOUS
 62
     7
 10
1058.446855
 20
247.089723
 11
1058.446855
 21
243.375000
  0
LINE
  8
CSLAYER1
  6
CONTINUOUS
 62
     7
 10
1057.321855
 20
244.500000
 11
1075.321855
 21
244.500000
  0
LINE
  8
CSLAYER1
  6
CONTINUOUS
 62
     7
 10
1058.821855
 20
243.000000
 11
1073.821855
 21
243.000000
  0
LINE
  8
CSLAYER1
  6
CONTINUOUS
 62
     7
 10
1073.821855
 20
243.000000
 11
1075.321855
 21
244.500000
  0
LINE
  8
CSLAYER1
  6
CONTINUOUS
 62
     7
 10
1075.321855
 20
244.500000
 11
1075.321855
 21
250.500000
  0
LINE
  8
CSLAYER1
  6
CONTINUOUS
 62
     7
 10
1074.196855
 20
243.375000
 11
1074.196855
 21
250.500000
  0
LINE
  8
CSLAYER1
  6
CENTER
 62
     2
 10
999.685366
 20
230.250000
 11
999.685366
 21
335.250000
  0
LINE
  8
CSLAYER1
  6
CONTINUOUS
 62
     7
 10
986.185366
 20
327.750000
 11
984.085366
 21
326.537565
  0
LINE
  8
CSLAYER1
  6
CONTINUOUS
 62
     7
 10
984.085366
 20
326.537565
 11
984.085366
 21
316.500000
  0
LINE
  8
CSLAYER1
  6
CONTINUOUS
 62
     7
 10
1013.185366
 20
327.750000
 11
1015.285366
 21
326.537565
  0
LINE
  8
CSLAYER1
  6
CONTINUOUS
 62
     7
 10
1015.285366
 20
326.537565
 11
1015.285366
 21
316.500000
  0
LINE
  8
CSLAYER1
  6
CONTINUOUS
 62
     7
 10
986.185366
 20
327.750000
 11
1013.185366
 21
327.750000
  0
LINE
  8
CSLAYER1
  6
CONTINUOUS
 62
     7
 10
984.085366
 20
316.500000
 11
1015.285366
 21
316.500000
  0
ARC
  8
CSLAYER1
  6
CONTINUOUS
 62
     7
 10
987.385366
 20
322.652822
 40
5.097178
 50
49.652860
 51
130.347140
  0
ARC
  8
CSLAYER1
  6
CONTINUOUS
 62
     7
 10
999.685366
 20
293.739946
 40
34.010055
 50
74.655173
 51
105.344827
  0
ARC
  8
CSLAYER1
  6
CONTINUOUS
 62
     7
 10
1011.985366
 20
322.652822
 40
5.097178
 50
49.652860
 51
130.347140
  0
LINE
  8
CSLAYER1
  6
CONTINUOUS
 62
     7
 10
990.685366
 20
326.537565
 11
990.685366
 21
316.500000
  0
LINE
  8
CSLAYER1
  6
CONTINUOUS
 62
     7
 10
1008.685366
 20
326.537565
 11
1008.685366
 21
316.500000
  0
LINE
  8
CSLAYER1
  6
CONTINUOUS
 62
     7
 10
1008.685366
 20
264.750000
 11
1008.685366
 21
251.712436
  0
LINE
  8
CSLAYER1
  6
CONTINUOUS
 62
     7
 10
1015.285366
 20
264.750000
 11
1015.285366
 21
251.712436
  0
ARC
  8
CSLAYER1
  6
CONTINUOUS
 62
     7
 10
1011.985366
 20
255.597178
 40
5.097178
 50
229.652860
 51
310.347140
  0
LINE
  8
CSLAYER1
  6
CONTINUOUS
 62
     7
 10
1013.185366
 20
250.500000
 11
1015.285366
 21
251.712436
  0
LINE
  8
CSLAYER1
  6
CONTINUOUS
 62
     7
 10
986.185366
 20
250.500000
 11
1013.185366
 21
250.500000
  0
ARC
  8
CSLAYER1
  6
CONTINUOUS
 62
     7
 10
987.385366
 20
255.597178
 40
5.097178
 50
229.652860
 51
310.347140
  0
ARC
  8
CSLAYER1
  6
CONTINUOUS
 62
     7
 10
999.685366
 20
284.510055
 40
34.010055
 50
254.655173
 51
285.344827
  0
LINE
  8
CSLAYER1
  6
CONTINUOUS
 62
     7
 10
990.685366
 20
264.750000
 11
990.685366
 21
251.712436
  0
LINE
  8
CSLAYER1
  6
CONTINUOUS
 62
     7
 10
984.085366
 20
264.750000
 11
984.085366
 21
251.712436
  0
LINE
  8
CSLAYER1
  6
CONTINUOUS
 62
     7
 10
986.185366
 20
250.500000
 11
984.085366
 21
251.712436
  0
LINE
  8
CSLAYER1
  6
CONTINUOUS
 62
     7
 10
990.685366
 20
250.500000
 11
990.685366
 21
244.500000
  0
LINE
  8
CSLAYER1
  6
CONTINUOUS
 62
     7
 10
990.685366
 20
244.500000
 11
992.185366
 21
243.000000
  0
LINE
  8
CSLAYER1
  6
CONTINUOUS
 62
     7
 10
991.810366
 20
250.500000
 11
991.810366
 21
243.375000
  0
LINE
  8
CSLAYER1
  6
CONTINUOUS
 62
     7
 10
990.685366
 20
244.500000
 11
1008.685366
 21
244.500000
  0
LINE
  8
CSLAYER1
  6
CONTINUOUS
 62
     7
 10
992.185366
 20
243.000000
 11
1007.185366
 21
243.000000
  0
LINE
  8
CSLAYER1
  6
CONTINUOUS
 62
     7
 10
1007.185366
 20
243.000000
 11
1008.685366
 21
244.500000
  0
LINE
  8
CSLAYER1
  6
CONTINUOUS
 62
     7
 10
1008.685366
 20
244.500000
 11
1008.685366
 21
250.500000
  0
LINE
  8
CSLAYER1
  6
CONTINUOUS
 62
     7
 10
1007.560366
 20
243.375000
 11
1007.560366
 21
250.500000
  0
LINE
  8
CSLAYER1
  6
CENTER
 62
     2
 10
945.276900
 20
230.250000
 11
945.276900
 21
335.250000
  0
LINE
  8
CSLAYER1
  6
CONTINUOUS
 62
     7
 10
931.776900
 20
327.750000
 11
929.676900
 21
326.537565
  0
LINE
  8
CSLAYER1
  6
CONTINUOUS
 62
     7
 10
929.676900
 20
326.537565
 11
929.676900
 21
316.500000
  0
LINE
  8
CSLAYER1
  6
CONTINUOUS
 62
     7
 10
958.776900
 20
327.750000
 11
960.876900
 21
326.537565
  0
LINE
  8
CSLAYER1
  6
CONTINUOUS
 62
     7
 10
960.876900
 20
326.537565
 11
960.876900
 21
316.500000
  0
LINE
  8
CSLAYER1
  6
CONTINUOUS
 62
     7
 10
931.776900
 20
327.750000
 11
958.776900
 21
327.750000
  0
LINE
  8
CSLAYER1
  6
CONTINUOUS
 62
     7
 10
929.676900
 20
316.500000
 11
960.876900
 21
316.500000
  0
ARC
  8
CSLAYER1
  6
CONTINUOUS
 62
     7
 10
932.976900
 20
322.652822
 40
5.097178
 50
49.652860
 51
130.347140
  0
ARC
  8
CSLAYER1
  6
CONTINUOUS
 62
     7
 10
945.276900
 20
293.739946
 40
34.010055
 50
74.655173
 51
105.344827
  0
ARC
  8
CSLAYER1
  6
CONTINUOUS
 62
     7
 10
957.576900
 20
322.652822
 40
5.097178
 50
49.652860
 51
130.347140
  0
LINE
  8
CSLAYER1
  6
CONTINUOUS
 62
     7
 10
936.276900
 20
326.537565
 11
936.276900
 21
316.500000
  0
LINE
  8
CSLAYER1
  6
CONTINUOUS
 62
     7
 10
954.276900
 20
326.537565
 11
954.276900
 21
316.500000
  0
LINE
  8
CSLAYER1
  6
CONTINUOUS
 62
     7
 10
954.276900
 20
264.750000
 11
954.276900
 21
251.712436
  0
LINE
  8
CSLAYER1
  6
CONTINUOUS
 62
     7
 10
960.876900
 20
264.750000
 11
960.876900
 21
251.712436
  0
ARC
  8
CSLAYER1
  6
CONTINUOUS
 62
     7
 10
957.576900
 20
255.597178
 40
5.097178
 50
229.652860
 51
310.347140
  0
LINE
  8
CSLAYER1
  6
CONTINUOUS
 62
     7
 10
958.776900
 20
250.500000
 11
960.876900
 21
251.712436
  0
LINE
  8
CSLAYER1
  6
CONTINUOUS
 62
     7
 10
931.776900
 20
250.500000
 11
958.776900
 21
250.500000
  0
ARC
  8
CSLAYER1
  6
CONTINUOUS
 62
     7
 10
932.976900
 20
255.597178
 40
5.097178
 50
229.652860
 51
310.347140
  0
ARC
  8
CSLAYER1
  6
CONTINUOUS
 62
     7
 10
945.276900
 20
284.510055
 40
34.010055
 50
254.655173
 51
285.344827
  0
LINE
  8
CSLAYER1
  6
CONTINUOUS
 62
     7
 10
936.276900
 20
264.750000
 11
936.276900
 21
251.712436
  0
LINE
  8
CSLAYER1
  6
CONTINUOUS
 62
     7
 10
929.676900
 20
264.750000
 11
929.676900
 21
251.712436
  0
LINE
  8
CSLAYER1
  6
CONTINUOUS
 62
     7
 10
931.776900
 20
250.500000
 11
929.676900
 21
251.712436
  0
LINE
  8
CSLAYER1
  6
CONTINUOUS
 62
     7
 10
936.276900
 20
250.500000
 11
936.276900
 21
244.500000
  0
LINE
  8
CSLAYER1
  6
CONTINUOUS
 62
     7
 10
936.276900
 20
244.500000
 11
937.776900
 21
243.000000
  0
LINE
  8
CSLAYER1
  6
CONTINUOUS
 62
     7
 10
937.401900
 20
250.500000
 11
937.401900
 21
243.375000
  0
LINE
  8
CSLAYER1
  6
CONTINUOUS
 62
     7
 10
936.276900
 20
244.500000
 11
954.276900
 21
244.500000
  0
LINE
  8
CSLAYER1
  6
CONTINUOUS
 62
     7
 10
937.776900
 20
243.000000
 11
952.776900
 21
243.000000
  0
LINE
  8
CSLAYER1
  6
CONTINUOUS
 62
     7
 10
952.776900
 20
243.000000
 11
954.276900
 21
244.500000
  0
LINE
  8
CSLAYER1
  6
CONTINUOUS
 62
     7
 10
954.276900
 20
244.500000
 11
954.276900
 21
250.500000
  0
LINE
  8
CSLAYER1
  6
CONTINUOUS
 62
     7
 10
953.151900
 20
243.375000
 11
953.151900
 21
250.500000
  0
LINE
  8
CSLAYER1
  6
CENTER
 62
     2
 10
906.804305
 20
230.250000
 11
906.804305
 21
335.250000
  0
LINE
  8
CSLAYER1
  6
CONTINUOUS
 62
     7
 10
893.304305
 20
327.750000
 11
891.204305
 21
326.537565
  0
LINE
  8
CSLAYER1
  6
CONTINUOUS
 62
     7
 10
891.204305
 20
326.537565
 11
891.204305
 21
316.500000
  0
LINE
  8
CSLAYER1
  6
CONTINUOUS
 62
     7
 10
920.304305
 20
327.750000
 11
922.404305
 21
326.537565
  0
LINE
  8
CSLAYER1
  6
CONTINUOUS
 62
     7
 10
922.404305
 20
326.537565
 11
922.404305
 21
316.500000
  0
LINE
  8
CSLAYER1
  6
CONTINUOUS
 62
     7
 10
893.304305
 20
327.750000
 11
920.304305
 21
327.750000
  0
LINE
  8
CSLAYER1
  6
CONTINUOUS
 62
     7
 10
891.204305
 20
316.500000
 11
922.404305
 21
316.500000
  0
ARC
  8
CSLAYER1
  6
CONTINUOUS
 62
     7
 10
894.504305
 20
322.652822
 40
5.097178
 50
49.652860
 51
130.347140
  0
ARC
  8
CSLAYER1
  6
CONTINUOUS
 62
     7
 10
906.804305
 20
293.739946
 40
34.010055
 50
74.655173
 51
105.344827
  0
ARC
  8
CSLAYER1
  6
CONTINUOUS
 62
     7
 10
919.104305
 20
322.652822
 40
5.097178
 50
49.652860
 51
130.347140
  0
LINE
  8
CSLAYER1
  6
CONTINUOUS
 62
     7
 10
897.804305
 20
326.537565
 11
897.804305
 21
316.500000
  0
LINE
  8
CSLAYER1
  6
CONTINUOUS
 62
     7
 10
915.804305
 20
326.537565
 11
915.804305
 21
316.500000
  0
LINE
  8
CSLAYER1
  6
CONTINUOUS
 62
     7
 10
915.804305
 20
264.750000
 11
915.804305
 21
251.712436
  0
LINE
  8
CSLAYER1
  6
CONTINUOUS
 62
     7
 10
922.404305
 20
264.750000
 11
922.404305
 21
251.712436
  0
ARC
  8
CSLAYER1
  6
CONTINUOUS
 62
     7
 10
919.104305
 20
255.597178
 40
5.097178
 50
229.652860
 51
310.347140
  0
LINE
  8
CSLAYER1
  6
CONTINUOUS
 62
     7
 10
920.304305
 20
250.500000
 11
922.404305
 21
251.712436
  0
LINE
  8
CSLAYER1
  6
CONTINUOUS
 62
     7
 10
893.304305
 20
250.500000
 11
920.304305
 21
250.500000
  0
ARC
  8
CSLAYER1
  6
CONTINUOUS
 62
     7
 10
894.504305
 20
255.597178
 40
5.097178
 50
229.652860
 51
310.347140
  0
ARC
  8
CSLAYER1
  6
CONTINUOUS
 62
     7
 10
906.804305
 20
284.510055
 40
34.010055
 50
254.655173
 51
285.344827
  0
LINE
  8
CSLAYER1
  6
CONTINUOUS
 62
     7
 10
897.804305
 20
264.750000
 11
897.804305
 21
251.712436
  0
LINE
  8
CSLAYER1
  6
CONTINUOUS
 62
     7
 10
891.204305
 20
264.750000
 11
891.204305
 21
251.712436
  0
LINE
  8
CSLAYER1
  6
CONTINUOUS
 62
     7
 10
893.304305
 20
250.500000
 11
891.204305
 21
251.712436
  0
LINE
  8
CSLAYER1
  6
CONTINUOUS
 62
     7
 10
897.804305
 20
250.500000
 11
897.804305
 21
244.500000
  0
LINE
  8
CSLAYER1
  6
CONTINUOUS
 62
     7
 10
897.804305
 20
244.500000
 11
899.304305
 21
243.000000
  0
LINE
  8
CSLAYER1
  6
CONTINUOUS
 62
     7
 10
898.929305
 20
250.500000
 11
898.929305
 21
243.375000
  0
LINE
  8
CSLAYER1
  6
CONTINUOUS
 62
     7
 10
897.804305
 20
244.500000
 11
915.804305
 21
244.500000
  0
LINE
  8
CSLAYER1
  6
CONTINUOUS
 62
     7
 10
899.304305
 20
243.000000
 11
914.304305
 21
243.000000
  0
LINE
  8
CSLAYER1
  6
CONTINUOUS
 62
     7
 10
914.304305
 20
243.000000
 11
915.804305
 21
244.500000
  0
LINE
  8
CSLAYER1
  6
CONTINUOUS
 62
     7
 10
915.804305
 20
244.500000
 11
915.804305
 21
250.500000
  0
LINE
  8
CSLAYER1
  6
CONTINUOUS
 62
     7
 10
914.679305
 20
243.375000
 11
914.679305
 21
250.500000
  0
LINE
  8
CSLAYER1
  6
CENTER
 62
     2
 10
1217.590392
 20
230.250000
 11
1217.590392
 21
335.250000
  0
LINE
  8
CSLAYER1
  6
CONTINUOUS
 62
     7
 10
1231.090392
 20
327.750000
 11
1233.190392
 21
326.537565
  0
LINE
  8
CSLAYER1
  6
CONTINUOUS
 62
     7
 10
1233.190392
 20
326.537565
 11
1233.190392
 21
316.500000
  0
LINE
  8
CSLAYER1
  6
CONTINUOUS
 62
     7
 10
1231.090392
 20
327.750000
 11
1207.055129
 21
327.750000
  0
LINE
  8
CSLAYER1
  6
CONTINUOUS
 62
     7
 10
1233.190392
 20
316.500000
 11
1209.678825
 21
316.500000
  0
ARC
  8
CSLAYER1
  6
CONTINUOUS
 62
     7
 10
1229.890392
 20
322.652822
 40
5.097178
 50
49.652860
 51
130.347140
  0
ARC
  8
CSLAYER1
  6
CONTINUOUS
 62
     7
 10
1217.590392
 20
293.739946
 40
34.010055
 50
74.655173
 51
105.344827
  0
ARC
  8
CSLAYER1
  6
CONTINUOUS
 62
     7
 10
1205.290392
 20
322.652822
 40
5.097178
 50
49.652860
 51
68.517003
  0
LINE
  8
CSLAYER1
  6
CONTINUOUS
 62
     7
 10
1226.590392
 20
326.537565
 11
1226.590392
 21
316.500000
  0
LINE
  8
CSLAYER1
  6
CONTINUOUS
 62
     7
 10
1208.590392
 20
326.537565
 11
1208.590392
 21
321.838333
  0
LINE
  8
CSLAYER1
  6
CONTINUOUS
 62
     7
 10
1208.590392
 20
264.750000
 11
1208.590392
 21
257.307713
  0
LINE
  8
CSLAYER1
  6
CONTINUOUS
 62
     7
 10
1231.090392
 20
250.500000
 11
1210.205295
 21
250.500000
  0
ARC
  8
CSLAYER1
  6
CONTINUOUS
 62
     7
 10
1229.890392
 20
255.597178
 40
5.097178
 50
229.652860
 51
310.347140
  0
ARC
  8
CSLAYER1
  6
CONTINUOUS
 62
     7
 10
1217.590392
 20
284.510055
 40
34.010055
 50
257.458627
 51
285.344827
  0
LINE
  8
CSLAYER1
  6
CONTINUOUS
 62
     7
 10
1226.590392
 20
264.750000
 11
1226.590392
 21
251.712436
  0
LINE
  8
CSLAYER1
  6
CONTINUOUS
 62
     7
 10
1233.190392
 20
264.750000
 11
1233.190392
 21
251.712436
  0
LINE
  8
CSLAYER1
  6
CONTINUOUS
 62
     7
 10
1231.090392
 20
250.500000
 11
1233.190392
 21
251.712436
  0
LINE
  8
CSLAYER1
  6
CONTINUOUS
 62
     7
 10
1226.590392
 20
250.500000
 11
1226.590392
 21
244.500000
  0
LINE
  8
CSLAYER1
  6
CONTINUOUS
 62
     7
 10
1226.590392
 20
244.500000
 11
1225.090392
 21
243.000000
  0
LINE
  8
CSLAYER1
  6
CONTINUOUS
 62
     7
 10
1225.465392
 20
250.500000
 11
1225.465392
 21
243.375000
  0
LINE
  8
CSLAYER1
  6
CONTINUOUS
 62
     7
 10
1226.590392
 20
244.500000
 11
1208.590392
 21
244.500000
  0
LINE
  8
CSLAYER1
  6
CONTINUOUS
 62
     7
 10
1225.090392
 20
243.000000
 11
1210.090392
 21
243.000000
  0
LINE
  8
CSLAYER1
  6
CONTINUOUS
 62
     7
 10
1210.090392
 20
243.000000
 11
1208.590392
 21
244.500000
  0
LINE
  8
CSLAYER1
  6
CONTINUOUS
 62
     7
 10
1208.590392
 20
244.500000
 11
1208.590392
 21
244.875000
  0
LINE
  8
CSLAYER1
  6
CONTINUOUS
 62
     7
 10
1209.715392
 20
243.375000
 11
1209.715392
 21
244.875000
  0
LINE
  8
CSLAYER1
  6
CENTER
 62
     2
 10
1291.913739
 20
230.250000
 11
1291.913739
 21
335.250000
  0
LINE
  8
CSLAYER1
  6
CONTINUOUS
 62
     7
 10
1305.413739
 20
327.750000
 11
1307.513739
 21
326.537565
  0
LINE
  8
CSLAYER1
  6
CONTINUOUS
 62
     7
 10
1307.513739
 20
326.537565
 11
1307.513739
 21
316.500000
  0
LINE
  8
CSLAYER1
  6
CONTINUOUS
 62
     7
 10
1278.413739
 20
327.750000
 11
1276.313739
 21
326.537565
  0
LINE
  8
CSLAYER1
  6
CONTINUOUS
 62
     7
 10
1276.313739
 20
326.537565
 11
1276.313739
 21
316.500000
  0
LINE
  8
CSLAYER1
  6
CONTINUOUS
 62
     7
 10
1305.413739
 20
327.750000
 11
1278.413739
 21
327.750000
  0
LINE
  8
CSLAYER1
  6
CONTINUOUS
 62
     7
 10
1307.513739
 20
316.500000
 11
1276.313739
 21
316.500000
  0
ARC
  8
CSLAYER1
  6
CONTINUOUS
 62
     7
 10
1304.213739
 20
322.652822
 40
5.097178
 50
49.652860
 51
130.347140
  0
ARC
  8
CSLAYER1
  6
CONTINUOUS
 62
     7
 10
1291.913739
 20
293.739946
 40
34.010055
 50
74.655173
 51
105.344827
  0
ARC
  8
CSLAYER1
  6
CONTINUOUS
 62
     7
 10
1279.613739
 20
322.652822
 40
5.097178
 50
49.652860
 51
130.347140
  0
LINE
  8
CSLAYER1
  6
CONTINUOUS
 62
     7
 10
1300.913739
 20
326.537565
 11
1300.913739
 21
316.500000
  0
LINE
  8
CSLAYER1
  6
CONTINUOUS
 62
     7
 10
1282.913739
 20
326.537565
 11
1282.913739
 21
316.500000
  0
LINE
  8
CSLAYER1
  6
CONTINUOUS
 62
     7
 10
1282.913739
 20
264.750000
 11
1282.913739
 21
251.712436
  0
LINE
  8
CSLAYER1
  6
CONTINUOUS
 62
     7
 10
1276.313739
 20
264.750000
 11
1276.313739
 21
251.712436
  0
ARC
  8
CSLAYER1
  6
CONTINUOUS
 62
     7
 10
1279.613739
 20
255.597178
 40
5.097178
 50
229.652860
 51
310.347140
  0
LINE
  8
CSLAYER1
  6
CONTINUOUS
 62
     7
 10
1278.413739
 20
250.500000
 11
1276.313739
 21
251.712436
  0
LINE
  8
CSLAYER1
  6
CONTINUOUS
 62
     7
 10
1305.413739
 20
250.500000
 11
1278.413739
 21
250.500000
  0
ARC
  8
CSLAYER1
  6
CONTINUOUS
 62
     7
 10
1304.213739
 20
255.597178
 40
5.097178
 50
229.652860
 51
310.347140
  0
ARC
  8
CSLAYER1
  6
CONTINUOUS
 62
     7
 10
1291.913739
 20
284.510055
 40
34.010055
 50
254.655173
 51
285.344827
  0
LINE
  8
CSLAYER1
  6
CONTINUOUS
 62
     7
 10
1300.913739
 20
264.750000
 11
1300.913739
 21
251.712436
  0
LINE
  8
CSLAYER1
  6
CONTINUOUS
 62
     7
 10
1307.513739
 20
264.750000
 11
1307.513739
 21
251.712436
  0
LINE
  8
CSLAYER1
  6
CONTINUOUS
 62
     7
 10
1305.413739
 20
250.500000
 11
1307.513739
 21
251.712436
  0
LINE
  8
CSLAYER1
  6
CONTINUOUS
 62
     7
 10
1300.913739
 20
250.500000
 11
1300.913739
 21
244.500000
  0
LINE
  8
CSLAYER1
  6
CONTINUOUS
 62
     7
 10
1300.913739
 20
244.500000
 11
1299.413739
 21
243.000000
  0
LINE
  8
CSLAYER1
  6
CONTINUOUS
 62
     7
 10
1299.788739
 20
250.500000
 11
1299.788739
 21
243.375000
  0
LINE
  8
CSLAYER1
  6
CONTINUOUS
 62
     7
 10
1300.913739
 20
244.500000
 11
1282.913739
 21
244.500000
  0
LINE
  8
CSLAYER1
  6
CONTINUOUS
 62
     7
 10
1299.413739
 20
243.000000
 11
1284.413739
 21
243.000000
  0
LINE
  8
CSLAYER1
  6
CONTINUOUS
 62
     7
 10
1284.413739
 20
243.000000
 11
1282.913739
 21
244.500000
  0
LINE
  8
CSLAYER1
  6
CONTINUOUS
 62
     7
 10
1282.913739
 20
244.500000
 11
1282.913739
 21
250.500000
  0
LINE
  8
CSLAYER1
  6
CONTINUOUS
 62
     7
 10
1284.038739
 20
243.375000
 11
1284.038739
 21
250.500000
  0
LINE
  8
CSLAYER1
  6
CENTER
 62
     2
 10
1358.550228
 20
230.250000
 11
1358.550228
 21
335.250000
  0
LINE
  8
CSLAYER1
  6
CONTINUOUS
 62
     7
 10
1372.050228
 20
327.750000
 11
1374.150228
 21
326.537565
  0
LINE
  8
CSLAYER1
  6
CONTINUOUS
 62
     7
 10
1374.150228
 20
326.537565
 11
1374.150228
 21
316.500000
  0
LINE
  8
CSLAYER1
  6
CONTINUOUS
 62
     7
 10
1345.050228
 20
327.750000
 11
1342.950228
 21
326.537565
  0
LINE
  8
CSLAYER1
  6
CONTINUOUS
 62
     7
 10
1342.950228
 20
326.537565
 11
1342.950228
 21
316.500000
  0
LINE
  8
CSLAYER1
  6
CONTINUOUS
 62
     7
 10
1372.050228
 20
327.750000
 11
1345.050228
 21
327.750000
  0
LINE
  8
CSLAYER1
  6
CONTINUOUS
 62
     7
 10
1374.150228
 20
316.500000
 11
1342.950228
 21
316.500000
  0
ARC
  8
CSLAYER1
  6
CONTINUOUS
 62
     7
 10
1370.850228
 20
322.652822
 40
5.097178
 50
49.652860
 51
130.347140
  0
ARC
  8
CSLAYER1
  6
CONTINUOUS
 62
     7
 10
1358.550228
 20
293.739946
 40
34.010055
 50
74.655173
 51
105.344827
  0
ARC
  8
CSLAYER1
  6
CONTINUOUS
 62
     7
 10
1346.250228
 20
322.652822
 40
5.097178
 50
49.652860
 51
130.347140
  0
LINE
  8
CSLAYER1
  6
CONTINUOUS
 62
     7
 10
1367.550228
 20
326.537565
 11
1367.550228
 21
316.500000
  0
LINE
  8
CSLAYER1
  6
CONTINUOUS
 62
     7
 10
1349.550228
 20
326.537565
 11
1349.550228
 21
316.500000
  0
LINE
  8
CSLAYER1
  6
CONTINUOUS
 62
     7
 10
1349.550228
 20
264.750000
 11
1349.550228
 21
251.712436
  0
LINE
  8
CSLAYER1
  6
CONTINUOUS
 62
     7
 10
1342.950228
 20
264.750000
 11
1342.950228
 21
251.712436
  0
ARC
  8
CSLAYER1
  6
CONTINUOUS
 62
     7
 10
1346.250228
 20
255.597178
 40
5.097178
 50
229.652860
 51
310.347140
  0
LINE
  8
CSLAYER1
  6
CONTINUOUS
 62
     7
 10
1345.050228
 20
250.500000
 11
1342.950228
 21
251.712436
  0
LINE
  8
CSLAYER1
  6
CONTINUOUS
 62
     7
 10
1372.050228
 20
250.500000
 11
1345.050228
 21
250.500000
  0
ARC
  8
CSLAYER1
  6
CONTINUOUS
 62
     7
 10
1370.850228
 20
255.597178
 40
5.097178
 50
229.652860
 51
310.347140
  0
ARC
  8
CSLAYER1
  6
CONTINUOUS
 62
     7
 10
1358.550228
 20
284.510055
 40
34.010055
 50
254.655173
 51
285.344827
  0
LINE
  8
CSLAYER1
  6
CONTINUOUS
 62
     7
 10
1367.550228
 20
264.750000
 11
1367.550228
 21
251.712436
  0
LINE
  8
CSLAYER1
  6
CONTINUOUS
 62
     7
 10
1374.150228
 20
264.750000
 11
1374.150228
 21
251.712436
  0
LINE
  8
CSLAYER1
  6
CONTINUOUS
 62
     7
 10
1372.050228
 20
250.500000
 11
1374.150228
 21
251.712436
  0
LINE
  8
CSLAYER1
  6
CONTINUOUS
 62
     7
 10
1367.550228
 20
250.500000
 11
1367.550228
 21
244.500000
  0
LINE
  8
CSLAYER1
  6
CONTINUOUS
 62
     7
 10
1367.550228
 20
244.500000
 11
1366.050228
 21
243.000000
  0
LINE
  8
CSLAYER1
  6
CONTINUOUS
 62
     7
 10
1366.425228
 20
250.500000
 11
1366.425228
 21
243.375000
  0
LINE
  8
CSLAYER1
  6
CONTINUOUS
 62
     7
 10
1367.550228
 20
244.500000
 11
1349.550228
 21
244.500000
  0
LINE
  8
CSLAYER1
  6
CONTINUOUS
 62
     7
 10
1366.050228
 20
243.000000
 11
1351.050228
 21
243.000000
  0
LINE
  8
CSLAYER1
  6
CONTINUOUS
 62
     7
 10
1351.050228
 20
243.000000
 11
1349.550228
 21
244.500000
  0
LINE
  8
CSLAYER1
  6
CONTINUOUS
 62
     7
 10
1349.550228
 20
244.500000
 11
1349.550228
 21
250.500000
  0
LINE
  8
CSLAYER1
  6
CONTINUOUS
 62
     7
 10
1350.675228
 20
243.375000
 11
1350.675228
 21
250.500000
  0
LINE
  8
CSLAYER1
  6
CONTINUOUS
 62
     7
 10
1460.367797
 20
292.500000
 11
1460.367797
 21
291.000000
  0
LINE
  8
CSLAYER1
  6
CONTINUOUS
 62
     7
 10
1460.367797
 20
292.500000
 11
1460.367797
 21
291.000000
  0
LINE
  8
CSLAYER1
  6
CONTINUOUS
 62
     7
 10
1487.367797
 20
327.750000
 11
1489.467797
 21
326.537565
  0
LINE
  8
CSLAYER1
  6
CONTINUOUS
 62
     7
 10
1489.467797
 20
326.537565
 11
1489.467797
 21
316.500000
  0
LINE
  8
CSLAYER1
  6
CONTINUOUS
 62
     7
 10
1487.367797
 20
327.750000
 11
1460.367797
 21
327.750000
  0
LINE
  8
CSLAYER1
  6
CONTINUOUS
 62
     7
 10
1489.467797
 20
316.500000
 11
1458.267797
 21
316.500000
  0
ARC
  8
CSLAYER1
  6
CONTINUOUS
 62
     7
 10
1486.167797
 20
322.652822
 40
5.097178
 50
49.652860
 51
130.347140
  0
ARC
  8
CSLAYER1
  6
CONTINUOUS
 62
     7
 10
1473.867797
 20
293.739946
 40
34.010055
 50
74.655173
 51
102.722770
  0
LINE
  8
CSLAYER1
  6
CONTINUOUS
 62
     7
 10
1482.867797
 20
326.537565
 11
1482.867797
 21
316.500000
  0
LINE
  8
CSLAYER1
  6
CONTINUOUS
 62
     7
 10
1487.367797
 20
250.500000
 11
1460.367797
 21
250.500000
  0
ARC
  8
CSLAYER1
  6
CONTINUOUS
 62
     7
 10
1486.167797
 20
255.597178
 40
5.097178
 50
229.652860
 51
310.347140
  0
ARC
  8
CSLAYER1
  6
CONTINUOUS
 62
     7
 10
1473.867797
 20
284.510055
 40
34.010055
 50
257.277230
 51
285.344827
  0
LINE
  8
CSLAYER1
  6
CONTINUOUS
 62
     7
 10
1482.867797
 20
264.750000
 11
1482.867797
 21
251.712436
  0
LINE
  8
CSLAYER1
  6
CONTINUOUS
 62
     7
 10
1489.467797
 20
264.750000
 11
1489.467797
 21
251.712436
  0
LINE
  8
CSLAYER1
  6
CONTINUOUS
 62
     7
 10
1487.367797
 20
250.500000
 11
1489.467797
 21
251.712436
  0
LINE
  8
CSLAYER1
  6
CONTINUOUS
 62
     7
 10
1482.867797
 20
250.500000
 11
1482.867797
 21
244.500000
  0
LINE
  8
CSLAYER1
  6
CONTINUOUS
 62
     7
 10
1482.867797
 20
244.500000
 11
1481.367797
 21
243.000000
  0
LINE
  8
CSLAYER1
  6
CONTINUOUS
 62
     7
 10
1481.742797
 20
250.500000
 11
1481.742797
 21
243.375000
  0
LINE
  8
CSLAYER1
  6
CONTINUOUS
 62
     7
 10
1482.867797
 20
244.500000
 11
1464.867797
 21
244.500000
  0
LINE
  8
CSLAYER1
  6
CONTINUOUS
 62
     7
 10
1481.367797
 20
243.000000
 11
1466.367797
 21
243.000000
  0
LINE
  8
CSLAYER1
  6
CONTINUOUS
 62
     7
 10
1466.367797
 20
243.000000
 11
1464.867797
 21
244.500000
  0
LINE
  8
CSLAYER1
  6
CONTINUOUS
 62
     7
 10
1464.867797
 20
244.500000
 11
1464.867797
 21
250.500000
  0
LINE
  8
CSLAYER1
  6
CONTINUOUS
 62
     7
 10
1465.992797
 20
243.375000
 11
1465.992797
 21
250.500000
  0
LINE
  8
CSLAYER1
  6
CENTER
 62
     2
 10
1473.867797
 20
230.250000
 11
1473.867797
 21
335.250000
  0
LINE
  8
CSLAYER1
  6
CENTER
 62
     2
 10
1412.958694
 20
230.250000
 11
1412.958694
 21
335.250000
  0
LINE
  8
CSLAYER1
  6
CONTINUOUS
 62
     7
 10
1426.458694
 20
327.750000
 11
1428.558694
 21
326.537565
  0
LINE
  8
CSLAYER1
  6
CONTINUOUS
 62
     7
 10
1428.558694
 20
326.537565
 11
1428.558694
 21
316.500000
  0
LINE
  8
CSLAYER1
  6
CONTINUOUS
 62
     7
 10
1399.458694
 20
327.750000
 11
1397.358694
 21
326.537565
  0
LINE
  8
CSLAYER1
  6
CONTINUOUS
 62
     7
 10
1397.358694
 20
326.537565
 11
1397.358694
 21
316.500000
  0
LINE
  8
CSLAYER1
  6
CONTINUOUS
 62
     7
 10
1426.458694
 20
327.750000
 11
1399.458694
 21
327.750000
  0
LINE
  8
CSLAYER1
  6
CONTINUOUS
 62
     7
 10
1428.558694
 20
316.500000
 11
1397.358694
 21
316.500000
  0
ARC
  8
CSLAYER1
  6
CONTINUOUS
 62
     7
 10
1425.258694
 20
322.652822
 40
5.097178
 50
49.652860
 51
130.347140
  0
ARC
  8
CSLAYER1
  6
CONTINUOUS
 62
     7
 10
1412.958694
 20
293.739946
 40
34.010055
 50
74.655173
 51
105.344827
  0
ARC
  8
CSLAYER1
  6
CONTINUOUS
 62
     7
 10
1400.658694
 20
322.652822
 40
5.097178
 50
49.652860
 51
130.347140
  0
LINE
  8
CSLAYER1
  6
CONTINUOUS
 62
     7
 10
1421.958694
 20
326.537565
 11
1421.958694
 21
316.500000
  0
LINE
  8
CSLAYER1
  6
CONTINUOUS
 62
     7
 10
1403.958694
 20
326.537565
 11
1403.958694
 21
316.500000
  0
LINE
  8
CSLAYER1
  6
CONTINUOUS
 62
     7
 10
1403.958694
 20
264.750000
 11
1403.958694
 21
251.712436
  0
LINE
  8
CSLAYER1
  6
CONTINUOUS
 62
     7
 10
1397.358694
 20
264.750000
 11
1397.358694
 21
251.712436
  0
ARC
  8
CSLAYER1
  6
CONTINUOUS
 62
     7
 10
1400.658694
 20
255.597178
 40
5.097178
 50
229.652860
 51
310.347140
  0
LINE
  8
CSLAYER1
  6
CONTINUOUS
 62
     7
 10
1399.458694
 20
250.500000
 11
1397.358694
 21
251.712436
  0
LINE
  8
CSLAYER1
  6
CONTINUOUS
 62
     7
 10
1426.458694
 20
250.500000
 11
1399.458694
 21
250.500000
  0
ARC
  8
CSLAYER1
  6
CONTINUOUS
 62
     7
 10
1425.258694
 20
255.597178
 40
5.097178
 50
229.652860
 51
310.347140
  0
ARC
  8
CSLAYER1
  6
CONTINUOUS
 62
     7
 10
1412.958694
 20
284.510055
 40
34.010055
 50
254.655173
 51
285.344827
  0
LINE
  8
CSLAYER1
  6
CONTINUOUS
 62
     7
 10
1421.958694
 20
264.750000
 11
1421.958694
 21
251.712436
  0
LINE
  8
CSLAYER1
  6
CONTINUOUS
 62
     7
 10
1428.558694
 20
264.750000
 11
1428.558694
 21
251.712436
  0
LINE
  8
CSLAYER1
  6
CONTINUOUS
 62
     7
 10
1426.458694
 20
250.500000
 11
1428.558694
 21
251.712436
  0
LINE
  8
CSLAYER1
  6
CONTINUOUS
 62
     7
 10
1421.958694
 20
250.500000
 11
1421.958694
 21
244.500000
  0
LINE
  8
CSLAYER1
  6
CONTINUOUS
 62
     7
 10
1421.958694
 20
244.500000
 11
1420.458694
 21
243.000000
  0
LINE
  8
CSLAYER1
  6
CONTINUOUS
 62
     7
 10
1420.833694
 20
250.500000
 11
1420.833694
 21
243.375000
  0
LINE
  8
CSLAYER1
  6
CONTINUOUS
 62
     7
 10
1421.958694
 20
244.500000
 11
1403.958694
 21
244.500000
  0
LINE
  8
CSLAYER1
  6
CONTINUOUS
 62
     7
 10
1420.458694
 20
243.000000
 11
1405.458694
 21
243.000000
  0
LINE
  8
CSLAYER1
  6
CONTINUOUS
 62
     7
 10
1405.458694
 20
243.000000
 11
1403.958694
 21
244.500000
  0
LINE
  8
CSLAYER1
  6
CONTINUOUS
 62
     7
 10
1403.958694
 20
244.500000
 11
1403.958694
 21
250.500000
  0
LINE
  8
CSLAYER1
  6
CONTINUOUS
 62
     7
 10
1405.083694
 20
243.375000
 11
1405.083694
 21
250.500000
  0
LINE
  8
CSLAYER1
  6
CENTER
 62
     2
 10
1451.431289
 20
230.250000
 11
1451.431289
 21
335.250000
  0
LINE
  8
CSLAYER1
  6
CONTINUOUS
 62
     7
 10
1464.931289
 20
327.750000
 11
1467.031289
 21
326.537565
  0
LINE
  8
CSLAYER1
  6
CONTINUOUS
 62
     7
 10
1467.031289
 20
326.537565
 11
1467.031289
 21
316.500000
  0
LINE
  8
CSLAYER1
  6
CONTINUOUS
 62
     7
 10
1437.931289
 20
327.750000
 11
1435.831289
 21
326.537565
  0
LINE
  8
CSLAYER1
  6
CONTINUOUS
 62
     7
 10
1435.831289
 20
326.537565
 11
1435.831289
 21
316.500000
  0
LINE
  8
CSLAYER1
  6
CONTINUOUS
 62
     7
 10
1464.931289
 20
327.750000
 11
1437.931289
 21
327.750000
  0
LINE
  8
CSLAYER1
  6
CONTINUOUS
 62
     7
 10
1467.031289
 20
316.500000
 11
1435.831289
 21
316.500000
  0
ARC
  8
CSLAYER1
  6
CONTINUOUS
 62
     7
 10
1463.731289
 20
322.652822
 40
5.097178
 50
49.652860
 51
130.347140
  0
ARC
  8
CSLAYER1
  6
CONTINUOUS
 62
     7
 10
1451.431289
 20
293.739946
 40
34.010055
 50
74.655173
 51
105.344827
  0
ARC
  8
CSLAYER1
  6
CONTINUOUS
 62
     7
 10
1439.131289
 20
322.652822
 40
5.097178
 50
49.652860
 51
130.347140
  0
LINE
  8
CSLAYER1
  6
CONTINUOUS
 62
     7
 10
1460.431289
 20
326.537565
 11
1460.431289
 21
316.500000
  0
LINE
  8
CSLAYER1
  6
CONTINUOUS
 62
     7
 10
1442.431289
 20
326.537565
 11
1442.431289
 21
316.500000
  0
LINE
  8
CSLAYER1
  6
CONTINUOUS
 62
     7
 10
1442.431289
 20
264.750000
 11
1442.431289
 21
251.712436
  0
LINE
  8
CSLAYER1
  6
CONTINUOUS
 62
     7
 10
1435.831289
 20
264.750000
 11
1435.831289
 21
251.712436
  0
ARC
  8
CSLAYER1
  6
CONTINUOUS
 62
     7
 10
1439.131289
 20
255.597178
 40
5.097178
 50
229.652860
 51
310.347140
  0
LINE
  8
CSLAYER1
  6
CONTINUOUS
 62
     7
 10
1437.931289
 20
250.500000
 11
1435.831289
 21
251.712436
  0
LINE
  8
CSLAYER1
  6
CONTINUOUS
 62
     7
 10
1464.931289
 20
250.500000
 11
1437.931289
 21
250.500000
  0
ARC
  8
CSLAYER1
  6
CONTINUOUS
 62
     7
 10
1463.731289
 20
255.597178
 40
5.097178
 50
229.652860
 51
310.347140
  0
ARC
  8
CSLAYER1
  6
CONTINUOUS
 62
     7
 10
1451.431289
 20
284.510055
 40
34.010055
 50
254.655173
 51
285.344827
  0
LINE
  8
CSLAYER1
  6
CONTINUOUS
 62
     7
 10
1460.431289
 20
264.750000
 11
1460.431289
 21
251.712436
  0
LINE
  8
CSLAYER1
  6
CONTINUOUS
 62
     7
 10
1467.031289
 20
264.750000
 11
1467.031289
 21
251.712436
  0
LINE
  8
CSLAYER1
  6
CONTINUOUS
 62
     7
 10
1464.931289
 20
250.500000
 11
1467.031289
 21
251.712436
  0
LINE
  8
CSLAYER1
  6
CONTINUOUS
 62
     7
 10
1460.431289
 20
250.500000
 11
1460.431289
 21
244.500000
  0
LINE
  8
CSLAYER1
  6
CONTINUOUS
 62
     7
 10
1460.431289
 20
244.500000
 11
1458.931289
 21
243.000000
  0
LINE
  8
CSLAYER1
  6
CONTINUOUS
 62
     7
 10
1459.306289
 20
250.500000
 11
1459.306289
 21
243.375000
  0
LINE
  8
CSLAYER1
  6
CONTINUOUS
 62
     7
 10
1460.431289
 20
244.500000
 11
1442.431289
 21
244.500000
  0
LINE
  8
CSLAYER1
  6
CONTINUOUS
 62
     7
 10
1458.931289
 20
243.000000
 11
1443.931289
 21
243.000000
  0
LINE
  8
CSLAYER1
  6
CONTINUOUS
 62
     7
 10
1443.931289
 20
243.000000
 11
1442.431289
 21
244.500000
  0
LINE
  8
CSLAYER1
  6
CONTINUOUS
 62
     7
 10
1442.431289
 20
244.500000
 11
1442.431289
 21
250.500000
  0
LINE
  8
CSLAYER1
  6
CONTINUOUS
 62
     7
 10
1443.556289
 20
243.375000
 11
1443.556289
 21
250.500000
  0
LINE
  8
CSLAYER1
  6
CONTINUOUS
 62
     7
 10
265.774988
 20
379.916669
 11
265.774988
 21
477.990744
  0
LINE
  8
CSLAYER1
  6
CONTINUOUS
 62
     7
 10
272.441655
 20
379.916669
 11
272.441655
 21
440.657410
  0
LINE
  8
CSLAYER1
  6
CONTINUOUS
 62
     7
 10
265.774988
 20
477.990744
 11
277.441655
 21
440.657410
  0
LINE
  8
CSLAYER1
  6
CONTINUOUS
 62
     7
 10
272.441655
 20
440.657410
 11
277.441655
 21
440.657410
  0
LINE
  8
CSLAYER1
  6
CONTINUOUS
 62
     7
 10
295.691638
 20
373.250003
 11
299.441639
 21
373.250003
  0
LINE
  8
CSLAYER1
  6
CONTINUOUS
 62
     7
 10
295.691638
 20
403.250010
 11
299.441639
 21
403.250010
  0
LINE
  8
CSLAYER1
  6
CONTINUOUS
 62
     7
 10
295.691638
 20
403.250010
 11
295.691638
 21
373.250003
  0
LINE
  8
CSLAYER1
  6
CONTINUOUS
 62
     7
 10
299.441639
 20
403.250010
 11
299.441639
 21
373.250003
  0
LINE
  8
CSLAYER1
  6
CONTINUOUS
 62
     7
 10
303.941640
 20
398.250009
 11
303.941640
 21
392.490055
  0
LINE
  8
CSLAYER1
  6
CONTINUOUS
 62
     7
 10
321.441645
 20
398.250009
 11
321.441645
 21
396.375009
  0
LINE
  8
CSLAYER1
  6
CONTINUOUS
 62
     7
 10
307.691641
 20
397.000009
 11
307.691641
 21
393.449214
  0
LINE
  8
CSLAYER1
  6
CONTINUOUS
 62
     7
 10
325.941646
 20
403.250010
 11
325.941646
 21
373.250003
  0
LINE
  8
CSLAYER1
  6
CONTINUOUS
 62
     7
 10
329.691647
 20
403.250010
 11
329.691647
 21
390.125007
  0
LINE
  8
CSLAYER1
  6
CONTINUOUS
 62
     7
 10
339.691649
 20
403.250010
 11
339.691649
 21
390.125007
  0
LINE
  8
CSLAYER1
  6
CONTINUOUS
 62
     7
 10
343.441650
 20
403.250010
 11
343.441650
 21
373.250003
  0
LINE
  8
CSLAYER1
  6
CONTINUOUS
 62
     7
 10
329.691647
 20
390.125007
 11
339.691649
 21
390.125007
  0
LINE
  8
CSLAYER1
  6
CONTINUOUS
 62
     7
 10
329.691647
 20
386.375006
 11
339.691649
 21
386.375006
  0
LINE
  8
CSLAYER1
  6
CONTINUOUS
 62
     7
 10
347.941651
 20
403.250010
 11
347.941651
 21
373.250003
  0
LINE
  8
CSLAYER1
  6
CONTINUOUS
 62
     7
 10
351.691652
 20
403.250010
 11
351.691652
 21
373.250003
  0
LINE
  8
CSLAYER1
  6
CONTINUOUS
 62
     7
 10
356.191653
 20
403.250010
 11
356.191653
 21
399.500009
  0
LINE
  8
CSLAYER1
  6
CONTINUOUS
 62
     7
 10
373.691658
 20
403.250010
 11
373.691658
 21
398.875009
  0
LINE
  8
CSLAYER1
  6
CONTINUOUS
 62
     7
 10
356.191653
 20
399.500009
 11
369.059304
 21
399.500009
  0
LINE
  8
CSLAYER1
  6
CONTINUOUS
 62
     7
 10
360.824007
 20
377.000004
 11
373.691658
 21
377.000004
  0
LINE
  8
CSLAYER1
  6
CONTINUOUS
 62
     7
 10
369.059304
 20
399.500009
 11
356.191653
 21
377.625004
  0
LINE
  8
CSLAYER1
  6
CONTINUOUS
 62
     7
 10
360.824007
 20
377.000004
 11
373.691658
 21
398.875009
  0
LINE
  8
CSLAYER1
  6
CONTINUOUS
 62
     7
 10
373.691658
 20
377.000004
 11
373.691658
 21
373.250003
  0
LINE
  8
CSLAYER1
  6
CONTINUOUS
 62
     7
 10
356.191653
 20
377.625004
 11
356.191653
 21
373.250003
  0
LINE
  8
CSLAYER1
  6
CONTINUOUS
 62
     7
 10
385.104704
 20
403.250010
 11
377.278615
 21
373.250003
  0
LINE
  8
CSLAYER1
  6
CONTINUOUS
 62
     7
 10
389.778618
 20
403.250010
 11
397.604707
 21
373.250003
  0
LINE
  8
CSLAYER1
  6
CONTINUOUS
 62
     7
 10
387.441661
 20
397.352262
 11
391.283554
 21
382.625005
  0
LINE
  8
CSLAYER1
  6
CONTINUOUS
 62
     7
 10
387.441661
 20
397.352262
 11
383.599768
 21
382.625005
  0
LINE
  8
CSLAYER1
  6
CONTINUOUS
 62
     7
 10
382.621507
 20
378.875004
 11
392.261815
 21
378.875004
  0
LINE
  8
CSLAYER1
  6
CONTINUOUS
 62
     7
 10
383.599768
 20
382.625005
 11
391.283554
 21
382.625005
  0
LINE
  8
CSLAYER1
  6
CONTINUOUS
 62
     7
 10
382.621507
 20
378.875004
 11
381.154115
 21
373.250003
  0
LINE
  8
CSLAYER1
  6
CONTINUOUS
 62
     7
 10
392.261815
 20
378.875004
 11
393.729207
 21
373.250003
  0
LINE
  8
CSLAYER1
  6
CONTINUOUS
 62
     7
 10
401.191665
 20
403.250010
 11
401.191665
 21
373.250003
  0
LINE
  8
CSLAYER1
  6
CONTINUOUS
 62
     7
 10
404.941665
 20
403.250010
 11
404.941665
 21
392.625008
  0
LINE
  8
CSLAYER1
  6
CONTINUOUS
 62
     7
 10
414.238543
 20
403.250010
 11
404.941665
 21
392.625008
  0
LINE
  8
CSLAYER1
  6
CONTINUOUS
 62
     7
 10
419.221425
 20
403.250010
 11
411.784982
 21
394.751219
  0
LINE
  8
CSLAYER1
  6
CONTINUOUS
 62
     7
 10
411.784982
 20
394.751219
 11
418.898444
 21
373.250003
  0
LINE
  8
CSLAYER1
  6
CONTINUOUS
 62
     7
 10
408.918795
 20
391.475576
 11
414.948543
 21
373.250003
  0
LINE
  8
CSLAYER1
  6
CONTINUOUS
 62
     7
 10
404.941665
 20
386.930285
 11
404.941665
 21
373.250003
  0
LINE
  8
CSLAYER1
  6
CONTINUOUS
 62
     7
 10
408.918795
 20
391.475576
 11
404.941665
 21
386.930285
  0
LINE
  8
CSLAYER1
  6
CONTINUOUS
 62
     7
 10
423.191670
 20
403.250010
 11
423.191670
 21
373.250003
  0
LINE
  8
CSLAYER1
  6
CONTINUOUS
 62
     7
 10
426.941671
 20
403.250010
 11
426.941671
 21
373.250003
  0
LINE
  8
CSLAYER1
  6
CONTINUOUS
 62
     7
 10
310.191642
 20
399.500009
 11
315.191643
 21
399.500009
  0
LINE
  8
CSLAYER1
  6
CONTINUOUS
 62
     7
 10
310.191642
 20
377.000004
 11
315.191643
 21
377.000004
  0
LINE
  8
CSLAYER1
  6
CONTINUOUS
 62
     7
 10
317.691644
 20
396.375009
 11
321.441645
 21
396.375009
  0
LINE
  8
CSLAYER1
  6
CONTINUOUS
 62
     7
 10
303.941640
 20
380.125004
 11
307.691641
 21
380.125004
  0
LINE
  8
CSLAYER1
  6
CONTINUOUS
 62
     7
 10
303.941640
 20
380.125004
 11
303.941640
 21
378.250004
  0
LINE
  8
CSLAYER1
  6
CONTINUOUS
 62
     7
 10
317.691644
 20
383.050799
 11
317.691644
 21
379.500004
  0
LINE
  8
CSLAYER1
  6
CONTINUOUS
 62
     7
 10
309.544594
 20
391.034399
 11
317.735739
 21
388.839588
  0
LINE
  8
CSLAYER1
  6
CONTINUOUS
 62
     7
 10
307.647546
 20
387.660425
 11
315.838691
 21
385.465614
  0
ARC
  8
CSLAYER1
  6
CONTINUOUS
 62
     7
 10
310.191642
 20
397.000009
 40
2.500001
 50
90.000000
 51
180.000000
  0
ARC
  8
CSLAYER1
  6
CONTINUOUS
 62
     7
 10
315.191643
 20
397.000009
 40
2.500001
 50
0.000000
 51
90.000000
  0
ARC
  8
CSLAYER1
  6
CONTINUOUS
 62
     7
 10
310.191642
 20
393.449214
 40
2.500001
 50
180.000000
 51
255.000000
  0
ARC
  8
CSLAYER1
  6
CONTINUOUS
 62
     7
 10
315.191643
 20
383.050799
 40
2.500001
 50
0.000000
 51
75.000000
  0
ARC
  8
CSLAYER1
  6
CONTINUOUS
 62
     7
 10
315.191643
 20
379.500004
 40
2.500001
 50
270.000000
 51
360.000000
  0
ARC
  8
CSLAYER1
  6
CONTINUOUS
 62
     7
 10
310.191642
 20
379.500004
 40
2.500001
 50
180.000000
 51
270.000000
  0
LINE
  8
CSLAYER1
  6
CONTINUOUS
 62
     7
 10
308.941641
 20
403.250010
 11
316.441643
 21
403.250010
  0
LINE
  8
CSLAYER1
  6
CONTINUOUS
 62
     7
 10
308.941641
 20
373.250003
 11
316.441643
 21
373.250003
  0
LINE
  8
CSLAYER1
  6
CONTINUOUS
 62
     7
 10
325.941646
 20
403.250010
 11
329.691647
 21
403.250010
  0
LINE
  8
CSLAYER1
  6
CONTINUOUS
 62
     7
 10
325.941646
 20
373.250003
 11
329.691647
 21
373.250003
  0
LINE
  8
CSLAYER1
  6
CONTINUOUS
 62
     7
 10
347.941651
 20
373.250003
 11
351.691652
 21
373.250003
  0
LINE
  8
CSLAYER1
  6
CONTINUOUS
 62
     7
 10
347.941651
 20
403.250010
 11
351.691652
 21
403.250010
  0
LINE
  8
CSLAYER1
  6
CONTINUOUS
 62
     7
 10
339.691649
 20
403.250010
 11
343.441650
 21
403.250010
  0
LINE
  8
CSLAYER1
  6
CONTINUOUS
 62
     7
 10
339.691649
 20
373.250003
 11
343.441650
 21
373.250003
  0
LINE
  8
CSLAYER1
  6
CONTINUOUS
 62
     7
 10
356.191653
 20
403.250010
 11
373.691658
 21
403.250010
  0
LINE
  8
CSLAYER1
  6
CONTINUOUS
 62
     7
 10
356.191653
 20
373.250003
 11
373.691658
 21
373.250003
  0
LINE
  8
CSLAYER1
  6
CONTINUOUS
 62
     7
 10
384.941660
 20
403.250010
 11
389.941662
 21
403.250010
  0
LINE
  8
CSLAYER1
  6
CONTINUOUS
 62
     7
 10
377.278615
 20
373.250003
 11
381.154115
 21
373.250003
  0
LINE
  8
CSLAYER1
  6
CONTINUOUS
 62
     7
 10
393.729207
 20
373.250003
 11
397.604707
 21
373.250003
  0
LINE
  8
CSLAYER1
  6
CONTINUOUS
 62
     7
 10
401.191665
 20
373.250003
 11
404.941665
 21
373.250003
  0
LINE
  8
CSLAYER1
  6
CONTINUOUS
 62
     7
 10
414.948543
 20
373.250003
 11
418.898444
 21
373.250003
  0
LINE
  8
CSLAYER1
  6
CONTINUOUS
 62
     7
 10
423.191670
 20
373.250003
 11
426.941671
 21
373.250003
  0
LINE
  8
CSLAYER1
  6
CONTINUOUS
 62
     7
 10
423.191670
 20
403.250010
 11
426.941671
 21
403.250010
  0
LINE
  8
CSLAYER1
  6
CONTINUOUS
 62
     7
 10
414.238543
 20
403.250010
 11
419.221425
 21
403.250010
  0
LINE
  8
CSLAYER1
  6
CONTINUOUS
 62
     7
 10
401.191665
 20
403.250010
 11
404.941665
 21
403.250010
  0
ARC
  8
CSLAYER1
  6
CONTINUOUS
 62
     7
 10
308.941641
 20
398.250009
 40
5.000001
 50
90.000000
 51
180.000000
  0
ARC
  8
CSLAYER1
  6
CONTINUOUS
 62
     7
 10
316.441643
 20
398.250009
 40
5.000001
 50
0.000000
 51
90.000000
  0
ARC
  8
CSLAYER1
  6
CONTINUOUS
 62
     7
 10
308.941641
 20
392.490055
 40
5.000001
 50
180.000000
 51
255.000000
  0
ARC
  8
CSLAYER1
  6
CONTINUOUS
 62
     7
 10
316.441643
 20
384.009958
 40
5.000001
 50
0.000000
 51
75.000000
  0
ARC
  8
CSLAYER1
  6
CONTINUOUS
 62
     7
 10
316.441643
 20
378.250004
 40
5.000001
 50
270.000000
 51
360.000000
  0
ARC
  8
CSLAYER1
  6
CONTINUOUS
 62
     7
 10
308.941641
 20
378.250004
 40
5.000001
 50
180.000000
 51
270.000000
  0
LINE
  8
CSLAYER1
  6
CONTINUOUS
 62
     7
 10
329.691647
 20
386.375006
 11
329.691647
 21
373.250003
  0
LINE
  8
CSLAYER1
  6
CONTINUOUS
 62
     7
 10
339.691649
 20
386.375006
 11
339.691649
 21
373.250003
  0
LINE
  8
CSLAYER1
  6
CONTINUOUS
 62
     7
 10
321.441645
 20
384.009958
 11
321.441645
 21
378.250004
  0
LINE
  8
CSLAYER1
  6
CONTINUOUS
 62
     7
 10
317.691644
 20
396.375009
 11
317.691644
 21
397.000009
  0
LINE
  8
CSLAYER1
  6
CONTINUOUS
 62
     7
 10
307.691641
 20
379.500004
 11
307.691641
 21
380.125004
  0
LINE
  8
CSLAYER1
  6
CONTINUOUS
 62
     7
 10
307.809558
 20
413.250003
 11
311.559557
 21
413.250003
  0
LINE
  8
CSLAYER1
  6
CONTINUOUS
 62
     7
 10
307.809558
 20
443.250000
 11
311.559557
 21
443.250000
  0
LINE
  8
CSLAYER1
  6
CONTINUOUS
 62
     7
 10
307.809558
 20
438.032609
 11
307.809558
 21
413.250003
  0
LINE
  8
CSLAYER1
  6
CONTINUOUS
 62
     7
 10
338.059564
 20
443.250000
 11
338.059564
 21
423.684785
  0
LINE
  8
CSLAYER1
  6
CONTINUOUS
 62
     7
 10
340.668260
 20
443.250000
 11
340.668260
 21
436.728262
  0
LINE
  8
CSLAYER1
  6
CONTINUOUS
 62
     7
 10
353.711737
 20
443.250000
 11
353.711737
 21
442.839196
  0
LINE
  8
CSLAYER1
  6
CONTINUOUS
 62
     7
 10
338.059564
 20
423.684785
 11
340.668260
 21
423.684785
  0
LINE
  8
CSLAYER1
  6
CONTINUOUS
 62
     7
 10
322.536829
 20
443.250000
 11
327.082292
 21
443.250000
  0
LINE
  8
CSLAYER1
  6
CONTINUOUS
 62
     7
 10
338.059564
 20
443.250000
 11
340.668260
 21
443.250000
  0
LINE
  8
CSLAYER1
  6
CONTINUOUS
 62
     7
 10
338.059564
 20
415.858698
 11
353.711737
 21
415.858698
  0
LINE
  8
CSLAYER1
  6
CONTINUOUS
 62
     7
 10
338.059564
 20
418.467394
 11
353.711737
 21
418.467394
  0
LINE
  8
CSLAYER1
  6
CONTINUOUS
 62
     7
 10
338.059564
 20
418.467394
 11
338.059564
 21
415.858698
  0
LINE
  8
CSLAYER1
  6
CONTINUOUS
 62
     7
 10
353.711737
 20
418.467394
 11
353.711737
 21
415.858698
  0
LINE
  8
CSLAYER1
  6
CONTINUOUS
 62
     7
 10
349.798694
 20
443.250000
 11
340.668260
 21
436.728262
  0
LINE
  8
CSLAYER1
  6
CONTINUOUS
 62
     7
 10
353.711737
 20
442.839196
 11
345.156429
 21
436.728262
  0
LINE
  8
CSLAYER1
  6
CONTINUOUS
 62
     7
 10
345.156429
 20
436.728262
 11
353.711737
 21
423.684785
  0
LINE
  8
CSLAYER1
  6
CONTINUOUS
 62
     7
 10
343.031970
 20
435.210791
 11
350.591957
 21
423.684785
  0
LINE
  8
CSLAYER1
  6
CONTINUOUS
 62
     7
 10
349.798694
 20
443.250000
 11
353.711737
 21
443.250000
  0
LINE
  8
CSLAYER1
  6
CONTINUOUS
 62
     7
 10
350.591957
 20
423.684785
 11
353.711737
 21
423.684785
  0
LINE
  8
CSLAYER1
  6
CONTINUOUS
 62
     7
 10
340.668260
 20
433.522426
 11
340.668260
 21
423.684785
  0
LINE
  8
CSLAYER1
  6
CONTINUOUS
 62
     7
 10
343.031970
 20
435.210791
 11
340.668260
 21
433.522426
  0
LINE
  8
CSLAYER1
  6
CONTINUOUS
 62
     7
 10
306.505210
 20
438.032609
 11
307.809558
 21
438.032609
  0
LINE
  8
CSLAYER1
  6
CONTINUOUS
 62
     7
 10
307.809558
 20
443.250000
 11
306.505210
 21
438.032609
  0
LINE
  8
CSLAYER1
  6
CONTINUOUS
 62
     7
 10
316.059557
 20
436.728262
 11
316.059557
 21
419.771741
  0
LINE
  8
CSLAYER1
  6
CONTINUOUS
 62
     7
 10
319.809557
 20
436.772728
 11
319.809557
 21
419.771741
  0
LINE
  8
CSLAYER1
  6
CONTINUOUS
 62
     7
 10
322.536829
 20
439.500001
 11
327.082292
 21
439.500001
  0
ARC
  8
CSLAYER1
  6
CONTINUOUS
 62
     7
 10
322.536829
 20
436.772728
 40
2.727273
 50
90.000000
 51
180.000000
  0
ARC
  8
CSLAYER1
  6
CONTINUOUS
 62
     7
 10
322.536829
 20
436.772728
 40
6.477272
 50
90.000000
 51
180.000000
  0
ARC
  8
CSLAYER1
  6
CONTINUOUS
 62
     7
 10
322.536829
 20
419.727275
 40
2.727273
 50
180.000000
 51
270.000000
  0
ARC
  8
CSLAYER1
  6
CONTINUOUS
 62
     7
 10
322.536829
 20
419.727275
 40
6.477272
 50
180.000000
 51
270.000000
  0
LINE
  8
CSLAYER1
  6
CONTINUOUS
 62
     7
 10
333.559565
 20
436.728262
 11
333.559565
 21
419.771741
  0
LINE
  8
CSLAYER1
  6
CONTINUOUS
 62
     7
 10
329.809565
 20
436.772728
 11
329.809565
 21
419.771741
  0
ARC
  8
CSLAYER1
  6
CONTINUOUS
 62
     7
 10
327.082292
 20
436.772728
 40
2.727273
 50
0.000000
 51
90.000000
  0
ARC
  8
CSLAYER1
  6
CONTINUOUS
 62
     7
 10
327.082292
 20
436.772728
 40
6.477272
 50
0.000000
 51
90.000000
  0
ARC
  8
CSLAYER1
  6
CONTINUOUS
 62
     7
 10
327.082292
 20
419.727275
 40
2.727273
 50
270.000000
 51
360.000000
  0
ARC
  8
CSLAYER1
  6
CONTINUOUS
 62
     7
 10
327.082292
 20
419.727275
 40
6.477272
 50
270.000000
 51
360.000000
  0
LINE
  8
CSLAYER1
  6
CONTINUOUS
 62
     7
 10
322.536829
 20
417.000002
 11
327.082292
 21
417.000002
  0
LINE
  8
CSLAYER1
  6
CONTINUOUS
 62
     7
 10
322.536829
 20
413.250003
 11
327.082292
 21
413.250003
  0
LINE
  8
CSLAYER1
  6
CONTINUOUS
 62
     7
 10
311.559557
 20
443.250000
 11
311.559557
 21
413.250003
  0
LINE
  8
CSLAYER1
  6
CONTINUOUS
 62
     7
 10
360.104698
 20
483.250010
 11
352.278609
 21
453.250003
  0
LINE
  8
CSLAYER1
  6
CONTINUOUS
 62
     7
 10
364.778612
 20
483.250010
 11
372.604701
 21
453.250003
  0
LINE
  8
CSLAYER1
  6
CONTINUOUS
 62
     7
 10
362.441655
 20
477.352262
 11
366.283548
 21
462.625005
  0
LINE
  8
CSLAYER1
  6
CONTINUOUS
 62
     7
 10
362.441655
 20
477.352262
 11
358.599762
 21
462.625005
  0
LINE
  8
CSLAYER1
  6
CONTINUOUS
 62
     7
 10
357.621501
 20
458.875004
 11
367.261809
 21
458.875004
  0
LINE
  8
CSLAYER1
  6
CONTINUOUS
 62
     7
 10
358.599762
 20
462.625005
 11
366.283548
 21
462.625005
  0
LINE
  8
CSLAYER1
  6
CONTINUOUS
 62
     7
 10
357.621501
 20
458.875004
 11
356.154109
 21
453.250003
  0
LINE
  8
CSLAYER1
  6
CONTINUOUS
 62
     7
 10
367.261809
 20
458.875004
 11
368.729201
 21
453.250003
  0
LINE
  8
CSLAYER1
  6
CONTINUOUS
 62
     7
 10
359.941654
 20
483.250010
 11
364.941655
 21
483.250010
  0
LINE
  8
CSLAYER1
  6
CONTINUOUS
 62
     7
 10
352.278609
 20
453.250003
 11
356.154109
 21
453.250003
  0
LINE
  8
CSLAYER1
  6
CONTINUOUS
 62
     7
 10
368.729201
 20
453.250003
 11
372.604701
 21
453.250003
  0
LINE
  8
CSLAYER1
  6
CONTINUOUS
 62
     7
 10
330.278604
 20
483.250010
 11
330.278604
 21
453.250003
  0
LINE
  8
CSLAYER1
  6
CONTINUOUS
 62
     7
 10
347.778609
 20
478.250009
 11
347.778609
 21
476.375009
  0
LINE
  8
CSLAYER1
  6
CONTINUOUS
 62
     7
 10
334.028605
 20
470.125003
 11
334.028605
 21
479.500009
  0
LINE
  8
CSLAYER1
  6
CONTINUOUS
 62
     7
 10
334.028605
 20
479.500009
 11
341.528607
 21
479.500009
  0
ARC
  8
CSLAYER1
  6
CONTINUOUS
 62
     7
 10
341.528607
 20
477.000009
 40
2.500001
 50
0.000000
 51
90.000000
  0
LINE
  8
CSLAYER1
  6
CONTINUOUS
 62
     7
 10
330.278604
 20
483.250010
 11
342.778608
 21
483.250010
  0
ARC
  8
CSLAYER1
  6
CONTINUOUS
 62
     7
 10
342.778608
 20
478.250009
 40
5.000001
 50
0.000000
 51
90.000000
  0
LINE
  8
CSLAYER1
  6
CONTINUOUS
 62
     7
 10
344.028608
 20
476.375009
 11
344.028608
 21
477.000009
  0
LINE
  8
CSLAYER1
  6
CONTINUOUS
 62
     7
 10
330.278604
 20
453.250003
 11
334.028605
 21
453.250003
  0
LINE
  8
CSLAYER1
  6
CONTINUOUS
 62
     7
 10
344.028608
 20
476.375009
 11
344.028608
 21
472.625003
  0
LINE
  8
CSLAYER1
  6
CONTINUOUS
 62
     7
 10
347.778609
 20
476.375009
 11
347.778609
 21
471.375003
  0
ARC
  8
CSLAYER1
  6
CONTINUOUS
 62
     7
 10
341.528607
 20
472.625003
 40
2.500001
 50
270.000000
 51
360.000000
  0
ARC
  8
CSLAYER1
  6
CONTINUOUS
 62
     7
 10
342.778608
 20
471.375003
 40
5.000001
 50
270.000000
 51
360.000000
  0
LINE
  8
CSLAYER1
  6
CONTINUOUS
 62
     7
 10
341.528607
 20
470.125003
 11
334.028605
 21
470.125003
  0
LINE
  8
CSLAYER1
  6
CONTINUOUS
 62
     7
 10
342.778608
 20
466.375002
 11
334.028605
 21
466.375002
  0
LINE
  8
CSLAYER1
  6
CONTINUOUS
 62
     7
 10
334.028605
 20
466.375002
 11
334.028605
 21
453.250003
  0
LINE
  8
CSLAYER1
  6
CONTINUOUS
 62
     7
 10
377.104701
 20
483.250010
 11
377.104701
 21
479.500009
  0
LINE
  8
CSLAYER1
  6
CONTINUOUS
 62
     7
 10
394.604705
 20
483.250010
 11
394.604705
 21
479.500009
  0
LINE
  8
CSLAYER1
  6
CONTINUOUS
 62
     7
 10
377.104701
 20
483.250010
 11
394.604705
 21
483.250010
  0
LINE
  8
CSLAYER1
  6
CONTINUOUS
 62
     7
 10
383.979704
 20
479.500009
 11
383.979704
 21
453.250003
  0
LINE
  8
CSLAYER1
  6
CONTINUOUS
 62
     7
 10
387.729705
 20
479.500009
 11
387.729705
 21
453.250003
  0
LINE
  8
CSLAYER1
  6
CONTINUOUS
 62
     7
 10
383.979704
 20
453.250003
 11
387.729705
 21
453.250003
  0
LINE
  8
CSLAYER1
  6
CONTINUOUS
 62
     7
 10
383.979704
 20
483.250010
 11
387.729705
 21
483.250010
  0
LINE
  8
CSLAYER1
  6
CONTINUOUS
 62
     7
 10
377.104701
 20
479.500009
 11
383.979704
 21
479.500009
  0
LINE
  8
CSLAYER1
  6
CONTINUOUS
 62
     7
 10
387.729705
 20
479.500009
 11
394.604705
 21
479.500009
  0
LINE
  8
CSLAYER1
  6
CONTINUOUS
 62
     7
 10
383.979704
 20
453.250003
 11
387.729705
 21
453.250003
  0
LINE
  8
CSLAYER1
  6
CONTINUOUS
 62
     7
 10
407.354475
 20
443.250000
 11
411.899938
 21
443.250000
  0
LINE
  8
CSLAYER1
  6
CONTINUOUS
 62
     7
 10
400.877203
 20
436.728262
 11
400.877203
 21
419.771741
  0
LINE
  8
CSLAYER1
  6
CONTINUOUS
 62
     7
 10
404.627202
 20
436.772728
 11
404.627202
 21
419.771741
  0
LINE
  8
CSLAYER1
  6
CONTINUOUS
 62
     7
 10
407.354475
 20
439.500001
 11
411.899938
 21
439.500001
  0
ARC
  8
CSLAYER1
  6
CONTINUOUS
 62
     7
 10
407.354475
 20
436.772728
 40
2.727273
 50
90.000000
 51
180.000000
  0
ARC
  8
CSLAYER1
  6
CONTINUOUS
 62
     7
 10
407.354475
 20
436.772728
 40
6.477272
 50
90.000000
 51
180.000000
  0
ARC
  8
CSLAYER1
  6
CONTINUOUS
 62
     7
 10
407.354475
 20
419.727275
 40
2.727273
 50
180.000000
 51
270.000000
  0
ARC
  8
CSLAYER1
  6
CONTINUOUS
 62
     7
 10
407.354475
 20
419.727275
 40
6.477272
 50
180.000000
 51
270.000000
  0
LINE
  8
CSLAYER1
  6
CONTINUOUS
 62
     7
 10
418.377210
 20
436.728262
 11
418.377210
 21
419.771741
  0
LINE
  8
CSLAYER1
  6
CONTINUOUS
 62
     7
 10
414.627211
 20
436.772728
 11
414.627211
 21
419.771741
  0
ARC
  8
CSLAYER1
  6
CONTINUOUS
 62
     7
 10
411.899938
 20
436.772728
 40
2.727273
 50
0.000000
 51
90.000000
  0
ARC
  8
CSLAYER1
  6
CONTINUOUS
 62
     7
 10
411.899938
 20
436.772728
 40
6.477272
 50
0.000000
 51
90.000000
  0
ARC
  8
CSLAYER1
  6
CONTINUOUS
 62
     7
 10
411.899938
 20
419.727275
 40
2.727273
 50
270.000000
 51
360.000000
  0
ARC
  8
CSLAYER1
  6
CONTINUOUS
 62
     7
 10
411.899938
 20
419.727275
 40
6.477272
 50
270.000000
 51
360.000000
  0
LINE
  8
CSLAYER1
  6
CONTINUOUS
 62
     7
 10
407.354475
 20
417.000002
 11
411.899938
 21
417.000002
  0
LINE
  8
CSLAYER1
  6
CONTINUOUS
 62
     7
 10
407.354475
 20
413.250003
 11
411.899938
 21
413.250003
  0
LINE
  8
CSLAYER1
  6
CONTINUOUS
 62
     7
 10
265.774988
 20
379.916669
 11
272.441655
 21
379.916669
  0
LINE
  8
CSLAYER1
  6
CONTINUOUS
 62
     7
 10
367.257924
 20
443.250003
 11
370.924591
 21
443.250003
  0
LINE
  8
CSLAYER1
  6
CONTINUOUS
 62
     7
 10
367.257924
 20
413.250003
 11
370.924591
 21
413.250003
  0
LINE
  8
CSLAYER1
  6
CONTINUOUS
 62
     7
 10
374.591258
 20
424.250003
 11
374.591258
 21
420.583336
  0
LINE
  8
CSLAYER1
  6
CONTINUOUS
 62
     7
 10
361.603849
 20
424.250003
 11
367.257924
 21
424.250003
  0
LINE
  8
CSLAYER1
  6
CONTINUOUS
 62
     7
 10
370.924591
 20
443.250003
 11
370.924591
 21
424.250003
  0
LINE
  8
CSLAYER1
  6
CONTINUOUS
 62
     7
 10
370.924591
 20
424.250003
 11
374.591258
 21
424.250003
  0
LINE
  8
CSLAYER1
  6
CONTINUOUS
 62
     7
 10
367.257924
 20
420.583336
 11
367.257924
 21
413.250003
  0
LINE
  8
CSLAYER1
  6
CONTINUOUS
 62
     7
 10
370.924591
 20
420.583336
 11
370.924591
 21
413.250003
  0
LINE
  8
CSLAYER1
  6
CONTINUOUS
 62
     7
 10
370.924591
 20
420.583336
 11
374.591258
 21
420.583336
  0
LINE
  8
CSLAYER1
  6
CONTINUOUS
 62
     7
 10
357.480138
 20
420.583336
 11
367.257924
 21
420.583336
  0
LINE
  8
CSLAYER1
  6
CONTINUOUS
 62
     7
 10
367.257924
 20
443.250003
 11
357.480138
 21
424.250003
  0
LINE
  8
CSLAYER1
  6
CONTINUOUS
 62
     7
 10
357.480138
 20
424.250003
 11
357.480138
 21
420.583336
  0
LINE
  8
CSLAYER1
  6
CONTINUOUS
 62
     7
 10
367.257924
 20
424.250003
 11
367.257924
 21
435.382096
  0
LINE
  8
CSLAYER1
  6
CONTINUOUS
 62
     7
 10
367.257924
 20
435.236890
 11
361.603849
 21
424.250003
  0
LINE
  8
CSLAYER1
  6
CONTINUOUS
 62
     7
 10
378.877195
 20
443.250000
 11
378.877195
 21
426.293479
  0
LINE
  8
CSLAYER1
  6
CONTINUOUS
 62
     7
 10
378.877195
 20
443.250000
 11
396.377204
 21
443.250000
  0
LINE
  8
CSLAYER1
  6
CONTINUOUS
 62
     7
 10
386.703282
 20
413.250000
 11
388.551117
 21
413.250000
  0
LINE
  8
CSLAYER1
  6
CONTINUOUS
 62
     7
 10
386.703282
 20
434.119566
 11
388.551117
 21
434.119566
  0
LINE
  8
CSLAYER1
  6
CONTINUOUS
 62
     7
 10
378.877195
 20
426.293479
 11
382.627195
 21
426.293479
  0
LINE
  8
CSLAYER1
  6
CONTINUOUS
 62
     7
 10
378.877195
 20
421.076087
 11
382.627195
 21
421.076087
  0
LINE
  8
CSLAYER1
  6
CONTINUOUS
 62
     7
 10
396.377204
 20
426.293479
 11
396.377204
 21
421.076087
  0
ARC
  8
CSLAYER1
  6
CONTINUOUS
 62
     7
 10
386.703282
 20
421.076087
 40
7.826087
 50
180.000000
 51
270.000000
  0
ARC
  8
CSLAYER1
  6
CONTINUOUS
 62
     7
 10
388.551117
 20
421.076087
 40
7.826087
 50
270.000000
 51
360.000000
  0
ARC
  8
CSLAYER1
  6
CONTINUOUS
 62
     7
 10
388.551117
 20
426.293479
 40
7.826087
 50
0.000000
 51
90.000000
  0
ARC
  8
CSLAYER1
  6
CONTINUOUS
 62
     7
 10
386.703282
 20
426.293479
 40
7.826087
 50
90.000000
 51
121.388166
  0
LINE
  8
CSLAYER1
  6
CONTINUOUS
 62
     7
 10
382.627195
 20
439.500000
 11
396.377204
 21
439.500000
  0
LINE
  8
CSLAYER1
  6
CONTINUOUS
 62
     7
 10
396.377204
 20
443.250000
 11
396.377204
 21
439.500000
  0
LINE
  8
CSLAYER1
  6
CONTINUOUS
 62
     7
 10
382.627195
 20
439.500000
 11
382.627195
 21
432.974283
  0
ARC
  8
CSLAYER1
  6
CONTINUOUS
 62
     7
 10
386.703282
 20
421.076087
 40
4.076087
 50
180.000000
 51
270.000000
  0
LINE
  8
CSLAYER1
  6
CONTINUOUS
 62
     7
 10
386.703282
 20
417.000000
 11
388.551117
 21
417.000000
  0
ARC
  8
CSLAYER1
  6
CONTINUOUS
 62
     7
 10
388.551117
 20
421.076087
 40
4.081542
 50
270.000000
 51
360.000000
  0
LINE
  8
CSLAYER1
  6
CONTINUOUS
 62
     7
 10
392.627204
 20
426.293479
 11
392.627204
 21
421.076087
  0
ARC
  8
CSLAYER1
  6
CONTINUOUS
 62
     7
 10
388.551117
 20
426.293479
 40
4.076087
 50
0.000000
 51
90.000000
  0
LINE
  8
CSLAYER1
  6
CONTINUOUS
 62
     7
 10
386.703282
 20
430.369566
 11
388.551117
 21
430.369566
  0
ARC
  8
CSLAYER1
  6
CONTINUOUS
 62
     7
 10
386.703282
 20
426.293479
 40
4.076087
 50
90.000000
 51
180.000000
  0
INSERT
  8
CSLAYER1
  2
BLKF0001
 10
0.0
 20
0.0
 30
0.0
  0
INSERT
  8
CSLAYER1
  2
BLKF0002
 10
0.0
 20
0.0
 30
0.0
  0
INSERT
  8
CSLAYER1
  2
BLKF0003
 10
0.0
 20
0.0
 30
0.0
  0
INSERT
  8
CSLAYER1
  2
BLKF0004
 10
0.0
 20
0.0
 30
0.0
  0
ENDSEC
  0
EOF
