  0
SECTION
  2
HEADER
  9
$ACADVER
  1
AC1006
  9
$INSBASE
 10
-15.997119
 20
-33.443845
 30
0.0
  9
$EXTMIN
 10
-15.997119
 20
-33.443845
  9
$EXTMAX
 10
446.721631
 20
420.300018
  9
$LIMMIN
 10
-15.997119
 20
-33.443845
  9
$LIMMAX
 10
446.721631
 20
420.300018
  9
$VIEWCTR
 10
215.362256
 20
193.428087
  9
$VIEWSIZE
 40
453.743863
  9
$SNAPMODE
 70
     0
  9
$SNAPUNIT
 10
1.0
 20
1.0
  9
$SNAPBASE
 10
0.0
 20
0.0
  9
$SNAPANG
 50
0.0
  9
$SNAPSTYLE
 70
     0
  9
$SNAPISOPAIR
 70
     0
  9
$GRIDMODE
 70
     0
  9
$GRIDUNIT
 10
0.0
 20
0.0
  9
$ORTHOMODE
 70
     0
  9
$REGENMODE
 70
     1
  9
$FILLMODE
 70
     1
  9
$QTEXTMODE
 70
     0
  9
$DRAGMODE
 70
     2
  9
$LTSCALE
 40
15.000000
  9
$OSMODE
 70
     0
  9
$ATTMODE
 70
     1
  9
$TEXTSIZE
 40
0.2
  9
$TRACEWID
 40
0.05
  9
$TEXTSTYLE
  7
STANDARD
  9
$CLAYER
  8
CSLAYER1
  9
$CELTYPE
  6
BYLAYER
  9
$CECOLOR
 62
   256
  9
$DIMSCALE
 40
1.0
  9
$DIMASZ
 40
0.18
  9
$DIMEXO
 40
0.0625
  9
$DIMDLI
 40
0.38
  9
$DIMRND
 40
0.0
  9
$DIMDLE
 40
0.0
  9
$DIMEXE
 40
0.18
  9
$DIMTP
 40
0.0
  9
$DIMTM
 40
0.0
  9
$DIMTXT
 40
0.18
  9
$DIMCEN
 40
0.09
  9
$DIMTSZ
 40
0.0
  9
$DIMTOL
 70
     0
  9
$DIMLIM
 70
     0
  9
$DIMTIH
 70
     1
  9
$DIMTOH
 70
     1
  9
$DIMSE1
 70
     0
  9
$DIMSE2
 70
     0
  9
$DIMTAD
 70
     0
  9
$DIMZIN
 70
     0
  9
$DIMBLK
  1

  9
$LUNITS
 70
     2
  9
$LUPREC
 70
     4
  9
$AXISMODE
 70
     0
  9
$AXISUNIT
 10
0.0
 20
0.0
  9
$SKETCHINC
 40
0.1
  9
$FILLETRAD
 40
0.0
  9
$AUNITS
 70
     0
  9
$AUPREC
 70
     0
  9
$MENU
  1
ACAD
  9
$ELEVATION
 40
0.0
  9
$THICKNESS
 40
0.0
  9
$VIEWDIR
 10
0.0
 20
0.0
 30
1.0
  9
$LIMCHECK
 70
     0
  9
$BLIPMODE
 70
     1
  9
$CHAMFERA
 40
0.0
  9
$CHAMFERB
 40
0.0
  9
$FASTZOOM
 70
     1
  9
$SKPOLY
 70
     0
  9
$TDCREATE
 40
2456637.000000
  9
$TDUPDATE
 40
2456637.000000
  9
$TDINDWG
 40
0.0
  9
$TDUSRTIMER
 40
0.0
  9
$USRTIMER
 70
     1
  9
$ANGBASE
 50
0.0
  9
$ANGDIR
 70
     0
  9
$PDMODE
 70
     0
  9
$PDSIZE
 40
0.0
  9
$PLINEWID
 40
0.0
  9
$COORDS
 70
     0
  9
$USERI1
 70
     0
  9
$USERI2
 70
     0
  9
$USERI3
 70
     0
  9
$USERI4
 70
     0
  9
$USERI5
 70
     0
  9
$USERR1
 40
0.0
  9
$USERR2
 40
0.0
  9
$USERR3
 40
0.0
  9
$USERR4
 40
0.0
  9
$USERR5
 40
0.0
  0
ENDSEC
  0
SECTION
  2
TABLES
  0
TABLE
  2
LTYPE
 70
     9
  0
LTYPE
  2
CONTINUOUS
 70
    64
  3
Solid line
 72
    65
 73
     0
 40
0.0
  0
LTYPE
  2
DASHED
 70
    64
  3
__ __ __ __ __ __ __ __ __ __ __ __ __ __ __
 72
    65
 73
     2
 40
0.75
 49
0.5
 49
-0.25
  0
LTYPE
  2
HIDDEN
 70
    64
  3
_ _ _ _ _ _ _ _ _ _ _ _ _ _ _ _ _ _ _ _ _ _ _
 72
    65
 73
     2
 40
0.375
 49
0.25
 49
-0.125
  0
LTYPE
  2
DOT
 70
    64
  3
...............................................
 72
    65
 73
     2
 40
0.25
 49
0.0
 49
-0.25
  0
LTYPE
  2
DASHDOT
 70
    64
  3
__ . __ . __ . __ . __ . __ . __ . __ . __ . __
 72
    65
 73
     4
 40
1.0
 49
0.5
 49
-0.25
 49
0.0
 49
-0.25
  0
LTYPE
  2
DIVIDE
 70
    64
  3
__ . . __ . . __ . . __ . . __ . . __ . . __
 72
    65
 73
     6
 40
1.25
 49
0.5
 49
-0.25
 49
0.0
 49
-0.25
 49
0.0
 49
-0.25
  0
LTYPE
  2
CENTER
 70
    64
  3
____ _ ____ _ ____ _ ____ _ ____ _ ____ _ ____ 
 72
    65
 73
     4
 40
2.0
 49
1.25
 49
-0.25
 49
0.25
 49
-0.25
  0
LTYPE
  2
PHANTOM
 70
    64
  3
______  __  __  ______  __  __  ______  __  __ 
 72
    65
 73
     6
 40
2.5
 49
1.25
 49
-0.25
 49
0.25
 49
-0.25
 49
0.25
 49
-0.25
  0
LTYPE
  2
BORDER
 70
    64
  3
__ __ . __ __ . __ __ . __ __ . __ __ . __ __ .
 72
    65
 73
     6
 40
1.75
 49
0.5
 49
-0.25
 49
0.5
 49
-0.25
 49
0.0
 49
-0.25
  0
ENDTAB
  0
TABLE
  2
LAYER
 70
    16
  0
LAYER
  2
CSLAYER1
 70
    64
 62
     7
  6
CONTINUOUS
  0
LAYER
  2
CSLAYER2
 70
    64
 62
     7
  6
CONTINUOUS
  0
LAYER
  2
CSLAYER3
 70
    64
 62
     7
  6
CONTINUOUS
  0
LAYER
  2
CSLAYER4
 70
    64
 62
     7
  6
CONTINUOUS
  0
LAYER
  2
CSLAYER5
 70
    64
 62
     7
  6
CONTINUOUS
  0
LAYER
  2
CSLAYER6
 70
    64
 62
     7
  6
CONTINUOUS
  0
LAYER
  2
CSLAYER7
 70
    64
 62
     7
  6
CONTINUOUS
  0
LAYER
  2
CSLAYER8
 70
    64
 62
     7
  6
CONTINUOUS
  0
LAYER
  2
CSLAYER9
 70
    64
 62
     7
  6
CONTINUOUS
  0
LAYER
  2
CSLAYER10
 70
    64
 62
     7
  6
CONTINUOUS
  0
LAYER
  2
CSLAYER11
 70
    64
 62
     7
  6
CONTINUOUS
  0
LAYER
  2
CSLAYER12
 70
    64
 62
     7
  6
CONTINUOUS
  0
LAYER
  2
CSLAYER13
 70
    64
 62
     7
  6
CONTINUOUS
  0
LAYER
  2
CSLAYER14
 70
    64
 62
     7
  6
CONTINUOUS
  0
LAYER
  2
CSLAYER15
 70
    64
 62
     7
  6
CONTINUOUS
  0
LAYER
  2
CSLAYER16
 70
    64
 62
     7
  6
CONTINUOUS
  0
ENDTAB
  0
TABLE
  2
STYLE
 70
     1
  0
STYLE
  2
EASYDRAW_FONT
 70
     0
 40
1.0
 41
1.0
 50
0.0
 71
     0
 42
1.0
  3
monotxt
  4
bigfont
  0
ENDTAB
  0
TABLE
  2
VIEW
 70
     0
  0
ENDTAB
  0
ENDSEC
  0
SECTION
  2
BLOCKS
  0
BLOCK
  8
CSLAYER1
  2
BLKF0000
 70
   64
 10
0.0
 20
0.0
 30
0.0
  0
TEXT
  8
CSLAYER1
 62
     7
 10
24.000000
 20
129.735962
 40
4.000000
 41
0.843750
  1
１６２
 50
90.000000
 51
0.000000
  7
EASYDRAW_FONT
 72
     5
 11
24.000000
 21
138.735962
  0
LINE
  8
CSLAYER1
  6
CONTINUOUS
 62
     7
 10
49.316024
 20
53.235966
 11
23.999983
 21
53.235966
  0
LINE
  8
CSLAYER1
  6
CONTINUOUS
 62
     7
 10
49.532923
 20
215.235966
 11
23.999983
 21
215.235966
  0
LINE
  8
CSLAYER1
  6
CONTINUOUS
 62
     7
 10
24.999983
 20
53.235966
 11
24.999983
 21
215.235966
  0
LINE
  8
CSLAYER1
  6
CONTINUOUS
 62
     7
 10
24.999983
 20
53.235966
 11
24.223526
 21
56.133743
  0
LINE
  8
CSLAYER1
  6
CONTINUOUS
 62
     7
 10
24.999983
 20
53.235966
 11
25.776440
 21
56.133743
  0
LINE
  8
CSLAYER1
  6
CONTINUOUS
 62
     7
 10
24.999983
 20
215.235966
 11
24.223526
 21
212.338188
  0
LINE
  8
CSLAYER1
  6
CONTINUOUS
 62
     7
 10
24.999983
 20
215.235966
 11
25.776440
 21
212.338188
  0
ENDBLK
  8
0
  0
BLOCK
  8
CSLAYER4
  2
BLKF0001
 70
   64
 10
0.0
 20
0.0
 30
0.0
  0
LINE
  8
CSLAYER4
  6
CONTINUOUS
 62
     7
 10
284.918888
 20
158.237087
 11
284.784115
 21
157.328875
  0
LINE
  8
CSLAYER4
  6
CONTINUOUS
 62
     7
 10
284.784115
 20
157.328875
 11
284.534615
 21
156.429588
  0
LINE
  8
CSLAYER4
  6
CONTINUOUS
 62
     7
 10
284.534615
 20
156.429588
 11
284.169968
 21
155.565846
  0
LINE
  8
CSLAYER4
  6
CONTINUOUS
 62
     7
 10
284.169968
 20
155.565846
 11
283.700131
 21
154.759867
  0
LINE
  8
CSLAYER4
  6
CONTINUOUS
 62
     7
 10
283.700131
 20
154.759867
 11
283.144940
 21
154.029667
  0
LINE
  8
CSLAYER4
  6
CONTINUOUS
 62
     7
 10
283.144940
 20
154.029667
 11
282.521656
 21
153.390152
  0
LINE
  8
CSLAYER4
  6
CONTINUOUS
 62
     7
 10
282.521656
 20
153.390152
 11
281.811436
 21
152.821839
  0
LINE
  8
CSLAYER4
  6
CONTINUOUS
 62
     7
 10
281.811436
 20
152.821839
 11
281.020821
 21
152.332365
  0
LINE
  8
CSLAYER4
  6
CONTINUOUS
 62
     7
 10
281.020821
 20
152.332365
 11
280.168007
 21
151.941034
  0
LINE
  8
CSLAYER4
  6
CONTINUOUS
 62
     7
 10
280.168007
 20
151.941034
 11
279.273423
 21
151.661722
  0
LINE
  8
CSLAYER4
  6
CONTINUOUS
 62
     7
 10
279.273423
 20
151.661722
 11
278.362969
 21
151.495106
  0
LINE
  8
CSLAYER4
  6
CONTINUOUS
 62
     7
 10
278.362969
 20
151.495106
 11
277.463387
 21
151.439860
  0
LINE
  8
CSLAYER4
  6
CONTINUOUS
 62
     7
 10
277.463387
 20
151.439860
 11
276.563786
 21
151.495106
  0
LINE
  8
CSLAYER4
  6
CONTINUOUS
 62
     7
 10
276.563786
 20
151.495106
 11
275.653332
 21
151.661722
  0
LINE
  8
CSLAYER4
  6
CONTINUOUS
 62
     7
 10
275.653332
 20
151.661722
 11
274.758767
 21
151.941034
  0
LINE
  8
CSLAYER4
  6
CONTINUOUS
 62
     7
 10
274.758767
 20
151.941034
 11
273.905953
 21
152.332365
  0
LINE
  8
CSLAYER4
  6
CONTINUOUS
 62
     7
 10
273.905953
 20
152.332365
 11
273.115338
 21
152.821839
  0
LINE
  8
CSLAYER4
  6
CONTINUOUS
 62
     7
 10
273.115338
 20
152.821839
 11
272.405117
 21
153.390152
  0
LINE
  8
CSLAYER4
  6
CONTINUOUS
 62
     7
 10
272.405117
 20
153.390152
 11
271.781834
 21
154.029667
  0
LINE
  8
CSLAYER4
  6
CONTINUOUS
 62
     7
 10
271.781834
 20
154.029667
 11
271.226643
 21
154.759867
  0
LINE
  8
CSLAYER4
  6
CONTINUOUS
 62
     7
 10
271.226643
 20
154.759867
 11
270.756806
 21
155.565846
  0
LINE
  8
CSLAYER4
  6
CONTINUOUS
 62
     7
 10
270.756806
 20
155.565846
 11
270.392159
 21
156.429588
  0
LINE
  8
CSLAYER4
  6
CONTINUOUS
 62
     7
 10
270.392159
 20
156.429588
 11
270.142640
 21
157.328875
  0
LINE
  8
CSLAYER4
  6
CONTINUOUS
 62
     7
 10
270.142640
 20
157.328875
 11
270.007885
 21
158.237087
  0
ENDBLK
  8
0
  0
BLOCK
  8
CSLAYER4
  2
BLKF0002
 70
   64
 10
0.0
 20
0.0
 30
0.0
  0
LINE
  8
CSLAYER4
  6
CONTINUOUS
 62
     7
 10
270.005253
 20
158.257591
 11
269.988964
 21
159.259722
  0
LINE
  8
CSLAYER4
  6
CONTINUOUS
 62
     7
 10
269.988964
 20
159.259722
 11
270.101689
 21
160.253994
  0
LINE
  8
CSLAYER4
  6
CONTINUOUS
 62
     7
 10
270.101689
 20
160.253994
 11
270.341748
 21
161.226122
  0
LINE
  8
CSLAYER4
  6
CONTINUOUS
 62
     7
 10
270.341748
 20
161.226122
 11
270.703610
 21
162.155239
  0
LINE
  8
CSLAYER4
  6
CONTINUOUS
 62
     7
 10
270.703610
 20
162.155239
 11
271.181763
 21
163.028567
  0
LINE
  8
CSLAYER4
  6
CONTINUOUS
 62
     7
 10
271.181763
 20
163.028567
 11
271.770028
 21
163.833449
  0
LINE
  8
CSLAYER4
  6
CONTINUOUS
 62
     7
 10
271.770028
 20
163.833449
 11
272.456826
 21
164.552910
  0
LINE
  8
CSLAYER4
  6
CONTINUOUS
 62
     7
 10
272.456826
 20
164.552910
 11
273.232697
 21
165.176127
  0
LINE
  8
CSLAYER4
  6
CONTINUOUS
 62
     7
 10
273.232697
 20
165.176127
 11
274.087132
 21
165.692398
  0
LINE
  8
CSLAYER4
  6
CONTINUOUS
 62
     7
 10
274.087132
 20
165.692398
 11
275.003384
 21
166.089623
  0
LINE
  8
CSLAYER4
  6
CONTINUOUS
 62
     7
 10
275.003384
 20
166.089623
 11
275.968312
 21
166.360314
  0
LINE
  8
CSLAYER4
  6
CONTINUOUS
 62
     7
 10
275.968312
 20
166.360314
 11
276.962670
 21
166.497290
  0
LINE
  8
CSLAYER4
  6
CONTINUOUS
 62
     7
 10
276.962670
 20
166.497290
 11
277.967137
 21
166.497080
  0
LINE
  8
CSLAYER4
  6
CONTINUOUS
 62
     7
 10
277.967137
 20
166.497080
 11
278.961438
 21
166.359684
  0
LINE
  8
CSLAYER4
  6
CONTINUOUS
 62
     7
 10
278.961438
 20
166.359684
 11
279.925507
 21
166.088869
  0
LINE
  8
CSLAYER4
  6
CONTINUOUS
 62
     7
 10
279.925507
 20
166.088869
 11
280.842827
 21
165.690748
  0
LINE
  8
CSLAYER4
  6
CONTINUOUS
 62
     7
 10
280.842827
 20
165.690748
 11
281.694954
 21
165.175516
  0
LINE
  8
CSLAYER4
  6
CONTINUOUS
 62
     7
 10
281.694954
 20
165.175516
 11
282.470044
 21
164.552824
  0
LINE
  8
CSLAYER4
  6
CONTINUOUS
 62
     7
 10
282.470044
 20
164.552824
 11
283.157853
 21
163.832133
  0
LINE
  8
CSLAYER4
  6
CONTINUOUS
 62
     7
 10
283.157853
 20
163.832133
 11
283.745011
 21
163.028567
  0
LINE
  8
CSLAYER4
  6
CONTINUOUS
 62
     7
 10
283.745011
 20
163.028567
 11
284.223488
 21
162.154505
  0
LINE
  8
CSLAYER4
  6
CONTINUOUS
 62
     7
 10
284.223488
 20
162.154505
 11
284.585923
 21
161.223366
  0
LINE
  8
CSLAYER4
  6
CONTINUOUS
 62
     7
 10
284.585923
 20
161.223366
 11
284.825047
 21
160.254337
  0
LINE
  8
CSLAYER4
  6
CONTINUOUS
 62
     7
 10
284.825047
 20
160.254337
 11
284.937771
 21
159.260180
  0
LINE
  8
CSLAYER4
  6
CONTINUOUS
 62
     7
 10
284.937771
 20
159.260180
 11
284.921521
 21
158.257591
  0
ENDBLK
  8
0
  0
BLOCK
  8
CSLAYER1
  2
BLKF0003
 70
   64
 10
0.0
 20
0.0
 30
0.0
  0
LINE
  8
CSLAYER4
  6
CONTINUOUS
 62
     7
 10
254.916999
 20
138.486448
 11
255.006318
 21
138.460781
  0
LINE
  8
CSLAYER4
  6
CONTINUOUS
 62
     7
 10
255.006318
 20
138.460781
 11
255.096186
 21
138.437806
  0
LINE
  8
CSLAYER4
  6
CONTINUOUS
 62
     7
 10
255.096186
 20
138.437806
 11
255.186576
 21
138.417632
  0
LINE
  8
CSLAYER4
  6
CONTINUOUS
 62
     7
 10
255.186576
 20
138.417632
 11
255.277467
 21
138.400370
  0
LINE
  8
CSLAYER4
  6
CONTINUOUS
 62
     7
 10
255.277467
 20
138.400370
 11
255.368826
 21
138.386143
  0
LINE
  8
CSLAYER4
  6
CONTINUOUS
 62
     7
 10
255.368826
 20
138.386143
 11
255.460616
 21
138.375047
  0
LINE
  8
CSLAYER4
  6
CONTINUOUS
 62
     7
 10
255.460616
 20
138.375047
 11
255.552819
 21
138.367205
  0
LINE
  8
CSLAYER4
  6
CONTINUOUS
 62
     7
 10
255.552819
 20
138.367205
 11
255.645399
 21
138.362722
  0
LINE
  8
CSLAYER4
  6
CONTINUOUS
 62
     7
 10
255.645399
 20
138.362722
 11
255.738337
 21
138.361705
  0
LINE
  8
CSLAYER4
  6
CONTINUOUS
 62
     7
 10
255.738337
 20
138.361705
 11
255.831151
 21
138.364253
  0
LINE
  8
CSLAYER4
  6
CONTINUOUS
 62
     7
 10
255.831151
 20
138.364253
 11
255.923347
 21
138.370378
  0
LINE
  8
CSLAYER4
  6
CONTINUOUS
 62
     7
 10
255.923347
 20
138.370378
 11
256.014932
 21
138.380080
  0
LINE
  8
CSLAYER4
  6
CONTINUOUS
 62
     7
 10
256.014932
 20
138.380080
 11
256.105898
 21
138.393373
  0
LINE
  8
CSLAYER4
  6
CONTINUOUS
 62
     7
 10
256.105898
 20
138.393373
 11
256.196261
 21
138.410251
  0
LINE
  8
CSLAYER4
  6
CONTINUOUS
 62
     7
 10
256.196261
 20
138.410251
 11
256.286006
 21
138.430720
  0
LINE
  8
CSLAYER4
  6
CONTINUOUS
 62
     7
 10
256.286006
 20
138.430720
 11
256.375118
 21
138.454780
  0
LINE
  8
CSLAYER4
  6
CONTINUOUS
 62
     7
 10
256.375118
 20
138.454780
 11
256.463627
 21
138.482438
  0
LINE
  8
CSLAYER4
  6
CONTINUOUS
 62
     7
 10
256.463627
 20
138.482438
 11
256.551449
 21
138.513667
  0
LINE
  8
CSLAYER4
  6
CONTINUOUS
 62
     7
 10
256.551449
 20
138.513667
 11
256.637966
 21
138.548198
  0
LINE
  8
CSLAYER4
  6
CONTINUOUS
 62
     7
 10
256.637966
 20
138.548198
 11
256.723028
 21
138.585888
  0
LINE
  8
CSLAYER4
  6
CONTINUOUS
 62
     7
 10
256.723028
 20
138.585888
 11
256.806661
 21
138.626620
  0
LINE
  8
CSLAYER4
  6
CONTINUOUS
 62
     7
 10
256.806661
 20
138.626620
 11
256.888853
 21
138.670291
  0
LINE
  8
CSLAYER4
  6
CONTINUOUS
 62
     7
 10
256.888853
 20
138.670291
 11
256.969643
 21
138.716811
  0
LINE
  8
CSLAYER4
  6
CONTINUOUS
 62
     7
 10
256.969643
 20
138.716811
 11
257.049033
 21
138.766064
  0
LINE
  8
CSLAYER4
  6
CONTINUOUS
 62
     7
 10
257.049033
 20
138.766064
 11
257.083077
 21
138.788387
  0
LINE
  8
CSLAYER4
  6
CONTINUOUS
 62
     7
 10
257.083077
 20
138.788387
 11
257.116434
 21
138.811595
  0
LINE
  8
CSLAYER4
  6
CONTINUOUS
 62
     7
 10
257.116434
 20
138.811595
 11
257.149105
 21
138.835676
  0
LINE
  8
CSLAYER4
  6
CONTINUOUS
 62
     7
 10
257.149105
 20
138.835676
 11
257.181103
 21
138.860615
  0
LINE
  8
CSLAYER4
  6
CONTINUOUS
 62
     7
 10
257.181103
 20
138.860615
 11
257.212428
 21
138.886399
  0
LINE
  8
CSLAYER4
  6
CONTINUOUS
 62
     7
 10
257.212428
 20
138.886399
 11
257.243107
 21
138.913020
  0
LINE
  8
CSLAYER4
  6
CONTINUOUS
 62
     7
 10
257.243107
 20
138.913020
 11
257.273114
 21
138.940458
  0
LINE
  8
CSLAYER4
  6
CONTINUOUS
 62
     7
 10
257.273114
 20
138.940458
 11
257.302474
 21
138.968714
  0
LINE
  8
CSLAYER4
  6
CONTINUOUS
 62
     7
 10
257.302474
 20
138.968714
 11
257.331162
 21
138.997745
  0
LINE
  8
CSLAYER4
  6
CONTINUOUS
 62
     7
 10
257.331162
 20
138.997745
 11
257.359122
 21
139.027449
  0
LINE
  8
CSLAYER4
  6
CONTINUOUS
 62
     7
 10
257.359122
 20
139.027449
 11
257.386341
 21
139.057806
  0
LINE
  8
CSLAYER4
  6
CONTINUOUS
 62
     7
 10
257.386341
 20
139.057806
 11
257.412846
 21
139.088780
  0
LINE
  8
CSLAYER4
  6
CONTINUOUS
 62
     7
 10
257.412846
 20
139.088780
 11
257.438636
 21
139.120359
  0
LINE
  8
CSLAYER4
  6
CONTINUOUS
 62
     7
 10
257.438636
 20
139.120359
 11
257.463726
 21
139.152515
  0
LINE
  8
CSLAYER4
  6
CONTINUOUS
 62
     7
 10
257.463726
 20
139.152515
 11
257.488130
 21
139.185227
  0
LINE
  8
CSLAYER4
  6
CONTINUOUS
 62
     7
 10
257.488130
 20
139.185227
 11
257.511846
 21
139.218467
  0
LINE
  8
CSLAYER4
  6
CONTINUOUS
 62
     7
 10
257.511846
 20
139.218467
 11
257.534890
 21
139.252216
  0
LINE
  8
CSLAYER4
  6
CONTINUOUS
 62
     7
 10
257.534890
 20
139.252216
 11
257.557289
 21
139.286438
  0
LINE
  8
CSLAYER4
  6
CONTINUOUS
 62
     7
 10
257.557289
 20
139.286438
 11
257.579014
 21
139.321093
  0
LINE
  8
CSLAYER4
  6
CONTINUOUS
 62
     7
 10
257.579014
 20
139.321093
 11
257.600094
 21
139.356167
  0
LINE
  8
CSLAYER4
  6
CONTINUOUS
 62
     7
 10
257.600094
 20
139.356167
 11
257.620542
 21
139.391618
  0
LINE
  8
CSLAYER4
  6
CONTINUOUS
 62
     7
 10
257.620542
 20
139.391618
 11
257.640359
 21
139.427434
  0
LINE
  8
CSLAYER4
  6
CONTINUOUS
 62
     7
 10
257.640359
 20
139.427434
 11
257.659557
 21
139.463586
  0
LINE
  8
CSLAYER4
  6
CONTINUOUS
 62
     7
 10
257.659557
 20
139.463586
 11
257.678165
 21
139.500040
  0
LINE
  8
CSLAYER4
  6
CONTINUOUS
 62
     7
 10
257.678165
 20
139.500040
 11
257.697639
 21
139.540429
  0
LINE
  8
CSLAYER4
  6
CONTINUOUS
 62
     7
 10
257.697639
 20
139.540429
 11
257.715986
 21
139.581332
  0
LINE
  8
CSLAYER4
  6
CONTINUOUS
 62
     7
 10
257.715986
 20
139.581332
 11
257.733221
 21
139.622723
  0
LINE
  8
CSLAYER4
  6
CONTINUOUS
 62
     7
 10
257.733221
 20
139.622723
 11
257.749371
 21
139.664567
  0
LINE
  8
CSLAYER4
  6
CONTINUOUS
 62
     7
 10
257.749371
 20
139.664567
 11
257.764477
 21
139.706837
  0
LINE
  8
CSLAYER4
  6
CONTINUOUS
 62
     7
 10
257.764477
 20
139.706837
 11
257.778553
 21
139.749484
  0
LINE
  8
CSLAYER4
  6
CONTINUOUS
 62
     7
 10
257.778553
 20
139.749484
 11
257.791641
 21
139.792489
  0
LINE
  8
CSLAYER4
  6
CONTINUOUS
 62
     7
 10
257.791641
 20
139.792489
 11
257.803753
 21
139.835809
  0
LINE
  8
CSLAYER4
  6
CONTINUOUS
 62
     7
 10
257.803753
 20
139.835809
 11
257.814918
 21
139.879411
  0
LINE
  8
CSLAYER4
  6
CONTINUOUS
 62
     7
 10
257.814918
 20
139.879411
 11
257.825163
 21
139.923268
  0
LINE
  8
CSLAYER4
  6
CONTINUOUS
 62
     7
 10
257.825163
 20
139.923268
 11
257.834528
 21
139.967344
  0
LINE
  8
CSLAYER4
  6
CONTINUOUS
 62
     7
 10
257.834528
 20
139.967344
 11
257.843029
 21
140.011598
  0
LINE
  8
CSLAYER4
  6
CONTINUOUS
 62
     7
 10
257.843029
 20
140.011598
 11
257.850692
 21
140.055996
  0
LINE
  8
CSLAYER4
  6
CONTINUOUS
 62
     7
 10
257.850692
 20
140.055996
 11
257.857559
 21
140.100518
  0
LINE
  8
CSLAYER4
  6
CONTINUOUS
 62
     7
 10
257.857559
 20
140.100518
 11
257.863642
 21
140.145116
  0
LINE
  8
CSLAYER4
  6
CONTINUOUS
 62
     7
 10
257.863642
 20
140.145116
 11
257.868971
 21
140.189762
  0
LINE
  8
CSLAYER4
  6
CONTINUOUS
 62
     7
 10
257.868971
 20
140.189762
 11
257.873585
 21
140.234421
  0
LINE
  8
CSLAYER4
  6
CONTINUOUS
 62
     7
 10
257.873585
 20
140.234421
 11
257.877498
 21
140.279149
  0
LINE
  8
CSLAYER4
  6
CONTINUOUS
 62
     7
 10
257.877498
 20
140.279149
 11
257.880753
 21
140.323973
  0
LINE
  8
CSLAYER4
  6
CONTINUOUS
 62
     7
 10
257.880753
 20
140.323973
 11
257.883377
 21
140.368866
  0
LINE
  8
CSLAYER4
  6
CONTINUOUS
 62
     7
 10
257.883377
 20
140.368866
 11
257.885367
 21
140.413807
  0
LINE
  8
CSLAYER4
  6
CONTINUOUS
 62
     7
 10
257.885367
 20
140.413807
 11
257.886768
 21
140.458755
  0
LINE
  8
CSLAYER4
  6
CONTINUOUS
 62
     7
 10
257.886768
 20
140.458755
 11
257.887606
 21
140.503689
  0
LINE
  8
CSLAYER4
  6
CONTINUOUS
 62
     7
 10
257.887606
 20
140.503689
 11
257.887867
 21
140.548589
  0
LINE
  8
CSLAYER4
  6
CONTINUOUS
 62
     7
 10
257.887867
 20
140.548589
 11
257.887263
 21
140.604708
  0
LINE
  8
CSLAYER4
  6
CONTINUOUS
 62
     7
 10
257.887263
 20
140.604708
 11
257.885381
 21
140.660828
  0
LINE
  8
CSLAYER4
  6
CONTINUOUS
 62
     7
 10
257.885381
 20
140.660828
 11
257.882168
 21
140.716892
  0
LINE
  8
CSLAYER4
  6
CONTINUOUS
 62
     7
 10
257.882168
 20
140.716892
 11
257.877581
 21
140.772847
  0
LINE
  8
CSLAYER4
  6
CONTINUOUS
 62
     7
 10
257.877581
 20
140.772847
 11
257.871566
 21
140.828651
  0
LINE
  8
CSLAYER4
  6
CONTINUOUS
 62
     7
 10
257.871566
 20
140.828651
 11
257.864040
 21
140.884255
  0
LINE
  8
CSLAYER4
  6
CONTINUOUS
 62
     7
 10
257.864040
 20
140.884255
 11
257.854977
 21
140.939606
  0
LINE
  8
CSLAYER4
  6
CONTINUOUS
 62
     7
 10
257.854977
 20
140.939606
 11
257.844293
 21
140.994661
  0
LINE
  8
CSLAYER4
  6
CONTINUOUS
 62
     7
 10
257.844293
 20
140.994661
 11
257.831946
 21
141.049366
  0
LINE
  8
CSLAYER4
  6
CONTINUOUS
 62
     7
 10
257.831946
 20
141.049366
 11
257.817898
 21
141.103632
  0
LINE
  8
CSLAYER4
  6
CONTINUOUS
 62
     7
 10
257.817898
 20
141.103632
 11
257.802146
 21
141.157231
  0
LINE
  8
CSLAYER4
  6
CONTINUOUS
 62
     7
 10
257.802146
 20
141.157231
 11
257.784650
 21
141.210110
  0
LINE
  8
CSLAYER4
  6
CONTINUOUS
 62
     7
 10
257.784650
 20
141.210110
 11
257.765383
 21
141.262247
  0
LINE
  8
CSLAYER4
  6
CONTINUOUS
 62
     7
 10
257.765383
 20
141.262247
 11
257.744317
 21
141.313615
  0
LINE
  8
CSLAYER4
  6
CONTINUOUS
 62
     7
 10
257.744317
 20
141.313615
 11
257.721410
 21
141.364180
  0
LINE
  8
CSLAYER4
  6
CONTINUOUS
 62
     7
 10
257.721410
 20
141.364180
 11
257.696622
 21
141.413920
  0
LINE
  8
CSLAYER4
  6
CONTINUOUS
 62
     7
 10
257.696622
 20
141.413920
 11
257.669912
 21
141.462809
  0
LINE
  8
CSLAYER4
  6
CONTINUOUS
 62
     7
 10
257.669912
 20
141.462809
 11
257.641265
 21
141.510820
  0
LINE
  8
CSLAYER4
  6
CONTINUOUS
 62
     7
 10
257.641265
 20
141.510820
 11
257.610806
 21
141.557676
  0
LINE
  8
CSLAYER4
  6
CONTINUOUS
 62
     7
 10
257.610806
 20
141.557676
 11
257.578643
 21
141.603180
  0
LINE
  8
CSLAYER4
  6
CONTINUOUS
 62
     7
 10
257.578643
 20
141.603180
 11
257.544833
 21
141.647345
  0
LINE
  8
CSLAYER4
  6
CONTINUOUS
 62
     7
 10
257.544833
 20
141.647345
 11
257.509361
 21
141.690178
  0
LINE
  8
CSLAYER4
  6
CONTINUOUS
 62
     7
 10
257.509361
 20
141.690178
 11
257.472240
 21
141.731686
  0
LINE
  8
CSLAYER4
  6
CONTINUOUS
 62
     7
 10
257.472240
 20
141.731686
 11
257.433500
 21
141.771889
  0
LINE
  8
CSLAYER4
  6
CONTINUOUS
 62
     7
 10
257.433500
 20
141.771889
 11
257.406515
 21
141.798496
  0
LINE
  8
CSLAYER4
  6
CONTINUOUS
 62
     7
 10
257.406515
 20
141.798496
 11
257.379186
 21
141.824678
  0
LINE
  8
CSLAYER4
  6
CONTINUOUS
 62
     7
 10
257.379186
 20
141.824678
 11
257.351528
 21
141.850441
  0
LINE
  8
CSLAYER4
  6
CONTINUOUS
 62
     7
 10
257.351528
 20
141.850441
 11
257.323554
 21
141.875779
  0
LINE
  8
CSLAYER4
  6
CONTINUOUS
 62
     7
 10
257.323554
 20
141.875779
 11
257.295251
 21
141.900697
  0
LINE
  8
CSLAYER4
  6
CONTINUOUS
 62
     7
 10
257.295251
 20
141.900697
 11
257.266617
 21
141.925196
  0
LINE
  8
CSLAYER4
  6
CONTINUOUS
 62
     7
 10
257.266617
 20
141.925196
 11
257.237655
 21
141.949277
  0
LINE
  8
CSLAYER4
  6
CONTINUOUS
 62
     7
 10
257.237655
 20
141.949277
 11
257.208390
 21
141.972946
  0
LINE
  8
CSLAYER4
  6
CONTINUOUS
 62
     7
 10
257.208390
 20
141.972946
 11
257.178795
 21
141.996202
  0
LINE
  8
CSLAYER4
  6
CONTINUOUS
 62
     7
 10
257.178795
 20
141.996202
 11
257.148885
 21
142.019047
  0
LINE
  8
CSLAYER4
  6
CONTINUOUS
 62
     7
 10
257.148885
 20
142.019047
 11
257.118659
 21
142.041479
  0
LINE
  8
CSLAYER4
  6
CONTINUOUS
 62
     7
 10
257.118659
 20
142.041479
 11
257.088131
 21
142.063507
  0
LINE
  8
CSLAYER4
  6
CONTINUOUS
 62
     7
 10
257.088131
 20
142.063507
 11
257.057287
 21
142.085137
  0
LINE
  8
CSLAYER4
  6
CONTINUOUS
 62
     7
 10
257.057287
 20
142.085137
 11
257.026140
 21
142.106354
  0
LINE
  8
CSLAYER4
  6
CONTINUOUS
 62
     7
 10
257.026140
 20
142.106354
 11
256.994679
 21
142.127180
  0
LINE
  8
CSLAYER4
  6
CONTINUOUS
 62
     7
 10
256.994679
 20
142.127180
 11
256.962928
 21
142.147601
  0
LINE
  8
CSLAYER4
  6
CONTINUOUS
 62
     7
 10
256.962928
 20
142.147601
 11
256.930862
 21
142.167623
  0
LINE
  8
CSLAYER4
  6
CONTINUOUS
 62
     7
 10
256.930862
 20
142.167623
 11
256.898507
 21
142.187248
  0
LINE
  8
CSLAYER4
  6
CONTINUOUS
 62
     7
 10
256.898507
 20
142.187248
 11
256.865905
 21
142.206446
  0
LINE
  8
CSLAYER4
  6
CONTINUOUS
 62
     7
 10
256.865905
 20
142.206446
 11
256.833083
 21
142.225226
  0
LINE
  8
CSLAYER4
  6
CONTINUOUS
 62
     7
 10
256.833083
 20
142.225226
 11
256.800028
 21
142.243580
  0
LINE
  8
CSLAYER4
  6
CONTINUOUS
 62
     7
 10
256.800028
 20
142.243580
 11
256.766740
 21
142.261522
  0
LINE
  8
CSLAYER4
  6
CONTINUOUS
 62
     7
 10
256.766740
 20
142.261522
 11
256.733245
 21
142.279045
  0
LINE
  8
CSLAYER4
  6
CONTINUOUS
 62
     7
 10
256.733245
 20
142.279045
 11
256.699517
 21
142.296157
  0
LINE
  8
CSLAYER4
  6
CONTINUOUS
 62
     7
 10
255.511172
 20
142.820431
 11
256.699521
 21
142.296160
  0
LINE
  8
CSLAYER4
  6
CONTINUOUS
 62
     7
 10
255.511174
 20
142.820431
 11
255.485651
 21
142.830813
  0
LINE
  8
CSLAYER4
  6
CONTINUOUS
 62
     7
 10
255.485651
 20
142.830813
 11
255.460205
 21
142.841511
  0
LINE
  8
CSLAYER4
  6
CONTINUOUS
 62
     7
 10
255.460205
 20
142.841511
 11
255.434847
 21
142.852532
  0
LINE
  8
CSLAYER4
  6
CONTINUOUS
 62
     7
 10
255.434847
 20
142.852532
 11
255.409592
 21
142.863889
  0
LINE
  8
CSLAYER4
  6
CONTINUOUS
 62
     7
 10
255.409592
 20
142.863889
 11
255.384467
 21
142.875575
  0
LINE
  8
CSLAYER4
  6
CONTINUOUS
 62
     7
 10
255.384467
 20
142.875575
 11
255.359480
 21
142.887613
  0
LINE
  8
CSLAYER4
  6
CONTINUOUS
 62
     7
 10
255.359480
 20
142.887613
 11
255.334644
 21
142.900000
  0
LINE
  8
CSLAYER4
  6
CONTINUOUS
 62
     7
 10
255.334644
 20
142.900000
 11
255.309987
 21
142.912736
  0
LINE
  8
CSLAYER4
  6
CONTINUOUS
 62
     7
 10
255.309987
 20
142.912736
 11
255.285515
 21
142.925838
  0
LINE
  8
CSLAYER4
  6
CONTINUOUS
 62
     7
 10
255.285515
 20
142.925838
 11
255.261249
 21
142.939303
  0
LINE
  8
CSLAYER4
  6
CONTINUOUS
 62
     7
 10
255.261249
 20
142.939303
 11
255.237203
 21
142.953146
  0
LINE
  8
CSLAYER4
  6
CONTINUOUS
 62
     7
 10
255.237203
 20
142.953146
 11
255.213396
 21
142.967366
  0
LINE
  8
CSLAYER4
  6
CONTINUOUS
 62
     7
 10
255.213396
 20
142.967366
 11
255.189845
 21
142.981964
  0
LINE
  8
CSLAYER4
  6
CONTINUOUS
 62
     7
 10
255.189845
 20
142.981964
 11
255.166560
 21
142.996961
  0
LINE
  8
CSLAYER4
  6
CONTINUOUS
 62
     7
 10
255.166560
 20
142.996961
 11
255.143558
 21
143.012355
  0
LINE
  8
CSLAYER4
  6
CONTINUOUS
 62
     7
 10
255.143558
 20
143.012355
 11
255.120864
 21
143.028155
  0
LINE
  8
CSLAYER4
  6
CONTINUOUS
 62
     7
 10
255.120864
 20
143.028155
 11
255.098486
 21
143.044360
  0
LINE
  8
CSLAYER4
  6
CONTINUOUS
 62
     7
 10
255.098486
 20
143.044360
 11
255.076452
 21
143.060977
  0
LINE
  8
CSLAYER4
  6
CONTINUOUS
 62
     7
 10
255.076452
 20
143.060977
 11
255.054754
 21
143.078019
  0
LINE
  8
CSLAYER4
  6
CONTINUOUS
 62
     7
 10
255.054754
 20
143.078019
 11
255.033420
 21
143.095508
  0
LINE
  8
CSLAYER4
  6
CONTINUOUS
 62
     7
 10
255.033420
 20
143.095508
 11
255.012450
 21
143.113429
  0
LINE
  8
CSLAYER4
  6
CONTINUOUS
 62
     7
 10
255.012450
 20
143.113429
 11
254.991871
 21
143.131811
  0
LINE
  8
CSLAYER4
  6
CONTINUOUS
 62
     7
 10
254.991871
 20
143.131811
 11
254.971697
 21
143.150645
  0
LINE
  8
CSLAYER4
  6
CONTINUOUS
 62
     7
 10
254.971697
 20
143.150645
 11
254.951949
 21
143.169947
  0
LINE
  8
CSLAYER4
  6
CONTINUOUS
 62
     7
 10
254.951949
 20
143.169947
 11
254.936026
 21
143.186282
  0
LINE
  8
CSLAYER4
  6
CONTINUOUS
 62
     7
 10
254.936026
 20
143.186282
 11
254.920569
 21
143.203023
  0
LINE
  8
CSLAYER4
  6
CONTINUOUS
 62
     7
 10
254.920569
 20
143.203023
 11
254.905587
 21
143.220161
  0
LINE
  8
CSLAYER4
  6
CONTINUOUS
 62
     7
 10
254.905587
 20
143.220161
 11
254.891112
 21
143.237712
  0
LINE
  8
CSLAYER4
  6
CONTINUOUS
 62
     7
 10
254.891112
 20
143.237712
 11
254.877160
 21
143.255682
  0
LINE
  8
CSLAYER4
  6
CONTINUOUS
 62
     7
 10
254.877160
 20
143.255682
 11
254.863763
 21
143.274070
  0
LINE
  8
CSLAYER4
  6
CONTINUOUS
 62
     7
 10
254.863763
 20
143.274070
 11
254.850937
 21
143.292891
  0
LINE
  8
CSLAYER4
  6
CONTINUOUS
 62
     7
 10
254.850937
 20
143.292891
 11
254.838708
 21
143.312138
  0
LINE
  8
CSLAYER4
  6
CONTINUOUS
 62
     7
 10
254.838708
 20
143.312138
 11
254.827090
 21
143.331831
  0
LINE
  8
CSLAYER4
  6
CONTINUOUS
 62
     7
 10
254.827090
 20
143.331831
 11
254.816159
 21
143.351894
  0
LINE
  8
CSLAYER4
  6
CONTINUOUS
 62
     7
 10
254.816159
 20
143.351894
 11
254.805962
 21
143.372247
  0
LINE
  8
CSLAYER4
  6
CONTINUOUS
 62
     7
 10
254.805962
 20
143.372247
 11
254.796500
 21
143.392887
  0
LINE
  8
CSLAYER4
  6
CONTINUOUS
 62
     7
 10
254.796500
 20
143.392887
 11
254.787793
 21
143.413816
  0
LINE
  8
CSLAYER4
  6
CONTINUOUS
 62
     7
 10
254.787793
 20
143.413816
 11
254.779828
 21
143.435033
  0
LINE
  8
CSLAYER4
  6
CONTINUOUS
 62
     7
 10
254.779828
 20
143.435033
 11
254.772618
 21
143.456546
  0
LINE
  8
CSLAYER4
  6
CONTINUOUS
 62
     7
 10
254.772618
 20
143.456546
 11
254.766164
 21
143.478347
  0
LINE
  8
CSLAYER4
  6
CONTINUOUS
 62
     7
 10
254.766164
 20
143.478347
 11
254.760471
 21
143.500436
  0
LINE
  8
CSLAYER4
  6
CONTINUOUS
 62
     7
 10
254.760471
 20
143.500436
 11
254.755548
 21
143.522821
  0
LINE
  8
CSLAYER4
  6
CONTINUOUS
 62
     7
 10
254.755548
 20
143.522821
 11
254.751414
 21
143.545350
  0
LINE
  8
CSLAYER4
  6
CONTINUOUS
 62
     7
 10
254.751414
 20
143.545350
 11
254.748071
 21
143.567975
  0
LINE
  8
CSLAYER4
  6
CONTINUOUS
 62
     7
 10
254.748071
 20
143.567975
 11
254.745495
 21
143.590682
  0
LINE
  8
CSLAYER4
  6
CONTINUOUS
 62
     7
 10
254.745495
 20
143.590682
 11
254.743676
 21
143.613472
  0
LINE
  8
CSLAYER4
  6
CONTINUOUS
 62
     7
 10
254.743676
 20
143.613472
 11
254.742598
 21
143.636338
  0
LINE
  8
CSLAYER4
  6
CONTINUOUS
 62
     7
 10
254.742598
 20
143.636338
 11
254.742241
 21
143.659265
  0
LINE
  8
CSLAYER4
  6
CONTINUOUS
 62
     7
 10
254.742241
 20
143.659265
 11
254.742660
 21
143.697566
  0
LINE
  8
CSLAYER4
  6
CONTINUOUS
 62
     7
 10
254.742660
 20
143.697566
 11
254.743951
 21
143.735963
  0
LINE
  8
CSLAYER4
  6
CONTINUOUS
 62
     7
 10
254.743951
 20
143.735963
 11
254.746175
 21
143.774387
  0
LINE
  8
CSLAYER4
  6
CONTINUOUS
 62
     7
 10
254.746175
 20
143.774387
 11
254.749389
 21
143.812778
  0
LINE
  8
CSLAYER4
  6
CONTINUOUS
 62
     7
 10
254.749389
 20
143.812778
 11
254.753653
 21
143.851072
  0
LINE
  8
CSLAYER4
  6
CONTINUOUS
 62
     7
 10
254.753653
 20
143.851072
 11
254.759016
 21
143.889194
  0
LINE
  8
CSLAYER4
  6
CONTINUOUS
 62
     7
 10
254.759016
 20
143.889194
 11
254.765546
 21
143.927098
  0
LINE
  8
CSLAYER4
  6
CONTINUOUS
 62
     7
 10
254.765546
 20
143.927098
 11
254.773298
 21
143.964712
  0
LINE
  8
CSLAYER4
  6
CONTINUOUS
 62
     7
 10
254.773298
 20
143.964712
 11
254.782328
 21
144.001963
  0
LINE
  8
CSLAYER4
  6
CONTINUOUS
 62
     7
 10
254.782328
 20
144.001963
 11
254.792689
 21
144.038794
  0
LINE
  8
CSLAYER4
  6
CONTINUOUS
 62
     7
 10
254.792689
 20
144.038794
 11
254.804438
 21
144.075097
  0
LINE
  8
CSLAYER4
  6
CONTINUOUS
 62
     7
 10
254.804438
 20
144.075097
 11
254.817573
 21
144.110720
  0
LINE
  8
CSLAYER4
  6
CONTINUOUS
 62
     7
 10
254.817573
 20
144.110720
 11
254.832150
 21
144.145616
  0
LINE
  8
CSLAYER4
  6
CONTINUOUS
 62
     7
 10
254.832150
 20
144.145616
 11
254.848211
 21
144.179742
  0
LINE
  8
CSLAYER4
  6
CONTINUOUS
 62
     7
 10
254.848211
 20
144.179742
 11
254.865796
 21
144.213058
  0
LINE
  8
CSLAYER4
  6
CONTINUOUS
 62
     7
 10
254.865796
 20
144.213058
 11
254.884953
 21
144.245502
  0
LINE
  8
CSLAYER4
  6
CONTINUOUS
 62
     7
 10
254.884953
 20
144.245502
 11
254.905718
 21
144.277053
  0
LINE
  8
CSLAYER4
  6
CONTINUOUS
 62
     7
 10
254.905718
 20
144.277053
 11
254.928143
 21
144.307650
  0
LINE
  8
CSLAYER4
  6
CONTINUOUS
 62
     7
 10
254.928143
 20
144.307650
 11
254.952135
 21
144.337087
  0
LINE
  8
CSLAYER4
  6
CONTINUOUS
 62
     7
 10
254.952135
 20
144.337087
 11
254.977458
 21
144.365102
  0
LINE
  8
CSLAYER4
  6
CONTINUOUS
 62
     7
 10
254.977458
 20
144.365102
 11
255.004107
 21
144.391696
  0
LINE
  8
CSLAYER4
  6
CONTINUOUS
 62
     7
 10
255.004107
 20
144.391696
 11
255.032054
 21
144.416888
  0
LINE
  8
CSLAYER4
  6
CONTINUOUS
 62
     7
 10
255.032054
 20
144.416888
 11
255.061277
 21
144.440701
  0
LINE
  8
CSLAYER4
  6
CONTINUOUS
 62
     7
 10
255.061277
 20
144.440701
 11
255.091757
 21
144.463148
  0
LINE
  8
CSLAYER4
  6
CONTINUOUS
 62
     7
 10
255.091757
 20
144.463148
 11
255.119828
 21
144.482106
  0
LINE
  8
CSLAYER4
  6
CONTINUOUS
 62
     7
 10
255.119828
 20
144.482106
 11
255.148433
 21
144.500021
  0
LINE
  8
CSLAYER4
  6
CONTINUOUS
 62
     7
 10
255.148433
 20
144.500021
 11
255.177574
 21
144.516844
  0
LINE
  8
CSLAYER4
  6
CONTINUOUS
 62
     7
 10
255.177574
 20
144.516844
 11
255.207251
 21
144.532540
  0
LINE
  8
CSLAYER4
  6
CONTINUOUS
 62
     7
 10
255.207251
 20
144.532540
 11
255.237484
 21
144.547070
  0
LINE
  8
CSLAYER4
  6
CONTINUOUS
 62
     7
 10
255.237484
 20
144.547070
 11
255.268266
 21
144.560384
  0
LINE
  8
CSLAYER4
  6
CONTINUOUS
 62
     7
 10
255.268266
 20
144.560384
 11
255.299605
 21
144.572448
  0
LINE
  8
CSLAYER4
  6
CONTINUOUS
 62
     7
 10
255.299605
 20
144.572448
 11
255.331500
 21
144.583215
  0
LINE
  8
CSLAYER4
  6
CONTINUOUS
 62
     7
 10
255.331500
 20
144.583215
 11
255.363957
 21
144.592642
  0
LINE
  8
CSLAYER4
  6
CONTINUOUS
 62
     7
 10
255.363957
 20
144.592642
 11
255.396704
 21
144.600628
  0
LINE
  8
CSLAYER4
  6
CONTINUOUS
 62
     7
 10
255.396704
 20
144.600628
 11
255.429580
 21
144.607144
  0
LINE
  8
CSLAYER4
  6
CONTINUOUS
 62
     7
 10
255.429580
 20
144.607144
 11
255.462587
 21
144.612205
  0
LINE
  8
CSLAYER4
  6
CONTINUOUS
 62
     7
 10
255.462587
 20
144.612205
 11
255.495717
 21
144.615830
  0
LINE
  8
CSLAYER4
  6
CONTINUOUS
 62
     7
 10
255.495717
 20
144.615830
 11
255.528979
 21
144.618035
  0
LINE
  8
CSLAYER4
  6
CONTINUOUS
 62
     7
 10
255.528979
 20
144.618035
 11
255.562356
 21
144.618838
  0
LINE
  8
CSLAYER4
  6
CONTINUOUS
 62
     7
 10
255.562356
 20
144.618838
 11
255.595858
 21
144.618254
  0
LINE
  8
CSLAYER4
  6
CONTINUOUS
 62
     7
 10
255.595858
 20
144.618254
 11
255.629469
 21
144.616297
  0
LINE
  8
CSLAYER4
  6
CONTINUOUS
 62
     7
 10
255.629469
 20
144.616297
 11
255.663135
 21
144.612995
  0
LINE
  8
CSLAYER4
  6
CONTINUOUS
 62
     7
 10
255.663135
 20
144.612995
 11
255.696637
 21
144.608408
  0
LINE
  8
CSLAYER4
  6
CONTINUOUS
 62
     7
 10
255.696637
 20
144.608408
 11
255.729926
 21
144.602578
  0
LINE
  8
CSLAYER4
  6
CONTINUOUS
 62
     7
 10
255.729926
 20
144.602578
 11
255.762987
 21
144.595574
  0
LINE
  8
CSLAYER4
  6
CONTINUOUS
 62
     7
 10
255.762987
 20
144.595574
 11
255.795809
 21
144.587438
  0
LINE
  8
CSLAYER4
  6
CONTINUOUS
 62
     7
 10
255.795809
 20
144.587438
 11
255.828384
 21
144.578230
  0
LINE
  8
CSLAYER4
  6
CONTINUOUS
 62
     7
 10
255.828384
 20
144.578230
 11
255.860684
 21
144.568006
  0
LINE
  8
CSLAYER4
  6
CONTINUOUS
 62
     7
 10
255.860684
 20
144.568006
 11
255.918932
 21
144.547818
  0
LINE
  8
CSLAYER4
  6
CONTINUOUS
 62
     7
 10
255.918932
 20
144.547818
 11
255.975758
 21
144.524410
  0
LINE
  8
CSLAYER4
  6
CONTINUOUS
 62
     7
 10
255.975758
 20
144.524410
 11
256.031081
 21
144.497666
  0
LINE
  8
CSLAYER4
  6
CONTINUOUS
 62
     7
 10
256.031081
 20
144.497666
 11
256.084832
 21
144.467488
  0
LINE
  8
CSLAYER4
  6
CONTINUOUS
 62
     7
 10
256.084832
 20
144.467488
 11
256.136701
 21
144.433910
  0
LINE
  8
CSLAYER4
  6
CONTINUOUS
 62
     7
 10
256.136701
 20
144.433910
 11
256.186154
 21
144.397264
  0
LINE
  8
CSLAYER4
  6
CONTINUOUS
 62
     7
 10
256.186154
 20
144.397264
 11
256.233147
 21
144.357610
  0
LINE
  8
CSLAYER4
  6
CONTINUOUS
 62
     7
 10
256.233147
 20
144.357610
 11
256.277738
 21
144.314990
  0
LINE
  8
CSLAYER4
  6
CONTINUOUS
 62
     7
 10
256.277738
 20
144.314990
 11
256.319857
 21
144.269514
  0
LINE
  8
CSLAYER4
  6
CONTINUOUS
 62
     7
 10
256.319857
 20
144.269514
 11
256.359161
 21
144.221758
  0
LINE
  8
CSLAYER4
  6
CONTINUOUS
 62
     7
 10
256.359161
 20
144.221758
 11
256.395663
 21
144.171969
  0
LINE
  8
CSLAYER4
  6
CONTINUOUS
 62
     7
 10
256.395663
 20
144.171969
 11
256.429487
 21
144.120320
  0
LINE
  8
CSLAYER4
  6
CONTINUOUS
 62
     7
 10
256.429487
 20
144.120320
 11
256.460715
 21
144.067001
  0
LINE
  8
CSLAYER4
  6
CONTINUOUS
 62
     7
 10
256.460715
 20
144.067001
 11
256.489472
 21
144.012180
  0
LINE
  8
CSLAYER4
  6
CONTINUOUS
 62
     7
 10
256.489472
 20
144.012180
 11
256.515853
 21
143.956040
  0
LINE
  8
CSLAYER4
  6
CONTINUOUS
 62
     7
 10
256.515853
 20
143.956040
 11
256.539968
 21
143.898753
  0
LINE
  8
CSLAYER4
  6
CONTINUOUS
 62
     7
 10
256.539968
 20
143.898753
 11
256.561927
 21
143.840491
  0
LINE
  8
CSLAYER4
  6
CONTINUOUS
 62
     7
 10
256.561927
 20
143.840491
 11
256.581881
 21
143.781281
  0
LINE
  8
CSLAYER4
  6
CONTINUOUS
 62
     7
 10
256.581881
 20
143.781281
 11
256.599912
 21
143.721262
  0
LINE
  8
CSLAYER4
  6
CONTINUOUS
 62
     7
 10
256.599912
 20
143.721262
 11
256.616117
 21
143.660583
  0
LINE
  8
CSLAYER4
  6
CONTINUOUS
 62
     7
 10
256.616117
 20
143.660583
 11
256.630605
 21
143.599423
  0
LINE
  8
CSLAYER4
  6
CONTINUOUS
 62
     7
 10
256.630605
 20
143.599423
 11
256.643445
 21
143.537927
  0
LINE
  8
CSLAYER4
  6
CONTINUOUS
 62
     7
 10
256.643445
 20
143.537927
 11
256.654734
 21
143.476267
  0
LINE
  8
CSLAYER4
  6
CONTINUOUS
 62
     7
 10
256.654734
 20
143.476267
 11
256.664567
 21
143.414606
  0
LINE
  8
CSLAYER4
  6
CONTINUOUS
 62
     7
 10
257.713113
 20
143.414606
 11
256.664570
 21
143.414606
  0
LINE
  8
CSLAYER4
  6
CONTINUOUS
 62
     7
 10
257.713116
 20
143.414606
 11
257.709875
 21
143.487844
  0
LINE
  8
CSLAYER4
  6
CONTINUOUS
 62
     7
 10
257.709875
 20
143.487844
 11
257.705165
 21
143.561060
  0
LINE
  8
CSLAYER4
  6
CONTINUOUS
 62
     7
 10
257.705165
 20
143.561060
 11
257.698916
 21
143.634195
  0
LINE
  8
CSLAYER4
  6
CONTINUOUS
 62
     7
 10
257.698916
 20
143.634195
 11
257.691074
 21
143.707186
  0
LINE
  8
CSLAYER4
  6
CONTINUOUS
 62
     7
 10
257.691074
 20
143.707186
 11
257.681571
 21
143.779970
  0
LINE
  8
CSLAYER4
  6
CONTINUOUS
 62
     7
 10
257.681571
 20
143.779970
 11
257.670338
 21
143.852480
  0
LINE
  8
CSLAYER4
  6
CONTINUOUS
 62
     7
 10
257.670338
 20
143.852480
 11
257.657319
 21
143.924660
  0
LINE
  8
CSLAYER4
  6
CONTINUOUS
 62
     7
 10
257.657319
 20
143.924660
 11
257.642460
 21
143.996449
  0
LINE
  8
CSLAYER4
  6
CONTINUOUS
 62
     7
 10
257.642460
 20
143.996449
 11
257.625665
 21
144.067771
  0
LINE
  8
CSLAYER4
  6
CONTINUOUS
 62
     7
 10
257.625665
 20
144.067771
 11
257.606919
 21
144.138550
  0
LINE
  8
CSLAYER4
  6
CONTINUOUS
 62
     7
 10
257.606919
 20
144.138550
 11
257.586155
 21
144.208601
  0
LINE
  8
CSLAYER4
  6
CONTINUOUS
 62
     7
 10
257.586155
 20
144.208601
 11
257.563372
 21
144.277850
  0
LINE
  8
CSLAYER4
  6
CONTINUOUS
 62
     7
 10
257.563372
 20
144.277850
 11
257.538488
 21
144.346260
  0
LINE
  8
CSLAYER4
  6
CONTINUOUS
 62
     7
 10
257.538488
 20
144.346260
 11
257.511462
 21
144.413771
  0
LINE
  8
CSLAYER4
  6
CONTINUOUS
 62
     7
 10
257.511462
 20
144.413771
 11
257.482238
 21
144.480341
  0
LINE
  8
CSLAYER4
  6
CONTINUOUS
 62
     7
 10
257.482238
 20
144.480341
 11
257.450776
 21
144.545923
  0
LINE
  8
CSLAYER4
  6
CONTINUOUS
 62
     7
 10
257.450776
 20
144.545923
 11
257.417021
 21
144.610475
  0
LINE
  8
CSLAYER4
  6
CONTINUOUS
 62
     7
 10
257.417021
 20
144.610475
 11
257.380917
 21
144.673948
  0
LINE
  8
CSLAYER4
  6
CONTINUOUS
 62
     7
 10
257.380917
 20
144.673948
 11
257.342561
 21
144.736076
  0
LINE
  8
CSLAYER4
  6
CONTINUOUS
 62
     7
 10
257.342561
 20
144.736076
 11
257.302090
 21
144.796590
  0
LINE
  8
CSLAYER4
  6
CONTINUOUS
 62
     7
 10
257.302090
 20
144.796590
 11
257.259490
 21
144.855484
  0
LINE
  8
CSLAYER4
  6
CONTINUOUS
 62
     7
 10
257.259490
 20
144.855484
 11
257.214762
 21
144.912743
  0
LINE
  8
CSLAYER4
  6
CONTINUOUS
 62
     7
 10
257.214762
 20
144.912743
 11
257.167919
 21
144.968375
  0
LINE
  8
CSLAYER4
  6
CONTINUOUS
 62
     7
 10
257.167919
 20
144.968375
 11
257.118934
 21
145.022372
  0
LINE
  8
CSLAYER4
  6
CONTINUOUS
 62
     7
 10
257.118934
 20
145.022372
 11
257.069399
 21
145.075828
  0
LINE
  8
CSLAYER4
  6
CONTINUOUS
 62
     7
 10
257.069399
 20
145.075828
 11
257.018395
 21
145.127642
  0
LINE
  8
CSLAYER4
  6
CONTINUOUS
 62
     7
 10
257.018395
 20
145.127642
 11
256.965908
 21
145.177740
  0
LINE
  8
CSLAYER4
  6
CONTINUOUS
 62
     7
 10
256.965908
 20
145.177740
 11
256.911897
 21
145.226025
  0
LINE
  8
CSLAYER4
  6
CONTINUOUS
 62
     7
 10
256.911897
 20
145.226025
 11
256.856361
 21
145.272415
  0
LINE
  8
CSLAYER4
  6
CONTINUOUS
 62
     7
 10
256.856361
 20
145.272415
 11
256.799259
 21
145.316827
  0
LINE
  8
CSLAYER4
  6
CONTINUOUS
 62
     7
 10
256.799259
 20
145.316827
 11
256.740551
 21
145.359172
  0
LINE
  8
CSLAYER4
  6
CONTINUOUS
 62
     7
 10
256.740551
 20
145.359172
 11
256.680250
 21
145.399361
  0
LINE
  8
CSLAYER4
  6
CONTINUOUS
 62
     7
 10
256.680250
 20
145.399361
 11
256.618287
 21
145.437313
  0
LINE
  8
CSLAYER4
  6
CONTINUOUS
 62
     7
 10
256.618287
 20
145.437313
 11
256.555005
 21
145.472750
  0
LINE
  8
CSLAYER4
  6
CONTINUOUS
 62
     7
 10
256.555005
 20
145.472750
 11
256.490736
 21
145.505476
  0
LINE
  8
CSLAYER4
  6
CONTINUOUS
 62
     7
 10
256.490736
 20
145.505476
 11
256.425477
 21
145.535496
  0
LINE
  8
CSLAYER4
  6
CONTINUOUS
 62
     7
 10
256.425477
 20
145.535496
 11
256.359216
 21
145.562804
  0
LINE
  8
CSLAYER4
  6
CONTINUOUS
 62
     7
 10
256.359216
 20
145.562804
 11
256.291965
 21
145.587413
  0
LINE
  8
CSLAYER4
  6
CONTINUOUS
 62
     7
 10
256.291965
 20
145.587413
 11
256.223727
 21
145.609324
  0
LINE
  8
CSLAYER4
  6
CONTINUOUS
 62
     7
 10
256.223727
 20
145.609324
 11
256.154513
 21
145.628536
  0
LINE
  8
CSLAYER4
  6
CONTINUOUS
 62
     7
 10
256.154513
 20
145.628536
 11
256.084296
 21
145.645064
  0
LINE
  8
CSLAYER4
  6
CONTINUOUS
 62
     7
 10
256.084296
 20
145.645064
 11
256.013167
 21
145.658893
  0
LINE
  8
CSLAYER4
  6
CONTINUOUS
 62
     7
 10
256.013167
 20
145.658893
 11
255.941639
 21
145.669969
  0
LINE
  8
CSLAYER4
  6
CONTINUOUS
 62
     7
 10
255.941639
 20
145.669969
 11
255.869871
 21
145.678346
  0
LINE
  8
CSLAYER4
  6
CONTINUOUS
 62
     7
 10
255.869871
 20
145.678346
 11
255.797890
 21
145.684100
  0
LINE
  8
CSLAYER4
  6
CONTINUOUS
 62
     7
 10
255.797890
 20
145.684100
 11
255.725737
 21
145.687320
  0
LINE
  8
CSLAYER4
  6
CONTINUOUS
 62
     7
 10
255.725737
 20
145.687320
 11
255.653454
 21
145.688075
  0
LINE
  8
CSLAYER4
  6
CONTINUOUS
 62
     7
 10
255.653454
 20
145.688075
 11
255.581075
 21
145.686448
  0
LINE
  8
CSLAYER4
  6
CONTINUOUS
 62
     7
 10
255.581075
 20
145.686448
 11
255.504960
 21
145.682404
  0
LINE
  8
CSLAYER4
  6
CONTINUOUS
 62
     7
 10
255.504960
 20
145.682404
 11
255.429285
 21
145.675874
  0
LINE
  8
CSLAYER4
  6
CONTINUOUS
 62
     7
 10
255.429285
 20
145.675874
 11
255.354063
 21
145.666803
  0
LINE
  8
CSLAYER4
  6
CONTINUOUS
 62
     7
 10
255.354063
 20
145.666803
 11
255.279335
 21
145.655130
  0
LINE
  8
CSLAYER4
  6
CONTINUOUS
 62
     7
 10
255.279335
 20
145.655130
 11
255.205122
 21
145.640800
  0
LINE
  8
CSLAYER4
  6
CONTINUOUS
 62
     7
 10
255.205122
 20
145.640800
 11
255.131459
 21
145.623751
  0
LINE
  8
CSLAYER4
  6
CONTINUOUS
 62
     7
 10
255.131459
 20
145.623751
 11
255.058373
 21
145.603920
  0
LINE
  8
CSLAYER4
  6
CONTINUOUS
 62
     7
 10
255.058373
 20
145.603920
 11
254.985890
 21
145.581261
  0
LINE
  8
CSLAYER4
  6
CONTINUOUS
 62
     7
 10
254.985890
 20
145.581261
 11
254.914060
 21
145.555711
  0
LINE
  8
CSLAYER4
  6
CONTINUOUS
 62
     7
 10
254.914060
 20
145.555711
 11
254.843425
 21
145.527435
  0
LINE
  8
CSLAYER4
  6
CONTINUOUS
 62
     7
 10
254.843425
 20
145.527435
 11
254.774238
 21
145.496549
  0
LINE
  8
CSLAYER4
  6
CONTINUOUS
 62
     7
 10
254.774238
 20
145.496549
 11
254.706474
 21
145.463089
  0
LINE
  8
CSLAYER4
  6
CONTINUOUS
 62
     7
 10
254.706474
 20
145.463089
 11
254.640116
 21
145.427081
  0
LINE
  8
CSLAYER4
  6
CONTINUOUS
 62
     7
 10
254.640116
 20
145.427081
 11
254.575166
 21
145.388561
  0
LINE
  8
CSLAYER4
  6
CONTINUOUS
 62
     7
 10
254.575166
 20
145.388561
 11
254.511603
 21
145.347568
  0
LINE
  8
CSLAYER4
  6
CONTINUOUS
 62
     7
 10
254.511603
 20
145.347568
 11
254.449414
 21
145.304117
  0
LINE
  8
CSLAYER4
  6
CONTINUOUS
 62
     7
 10
254.449414
 20
145.304117
 11
254.388584
 21
145.258256
  0
LINE
  8
CSLAYER4
  6
CONTINUOUS
 62
     7
 10
254.388584
 20
145.258256
 11
254.329176
 21
145.210067
  0
LINE
  8
CSLAYER4
  6
CONTINUOUS
 62
     7
 10
254.329176
 20
145.210067
 11
254.271483
 21
145.159873
  0
LINE
  8
CSLAYER4
  6
CONTINUOUS
 62
     7
 10
254.271483
 20
145.159873
 11
254.215508
 21
145.107798
  0
LINE
  8
CSLAYER4
  6
CONTINUOUS
 62
     7
 10
254.215508
 20
145.107798
 11
254.161236
 21
145.053938
  0
LINE
  8
CSLAYER4
  6
CONTINUOUS
 62
     7
 10
254.161236
 20
145.053938
 11
254.108618
 21
144.998388
  0
LINE
  8
CSLAYER4
  6
CONTINUOUS
 62
     7
 10
254.108618
 20
144.998388
 11
254.057642
 21
144.941232
  0
LINE
  8
CSLAYER4
  6
CONTINUOUS
 62
     7
 10
254.057642
 20
144.941232
 11
254.008258
 21
144.882565
  0
LINE
  8
CSLAYER4
  6
CONTINUOUS
 62
     7
 10
254.008258
 20
144.882565
 11
253.973514
 21
144.834863
  0
LINE
  8
CSLAYER4
  6
CONTINUOUS
 62
     7
 10
253.973514
 20
144.834863
 11
253.940205
 21
144.786304
  0
LINE
  8
CSLAYER4
  6
CONTINUOUS
 62
     7
 10
253.940205
 20
144.786304
 11
253.908338
 21
144.736900
  0
LINE
  8
CSLAYER4
  6
CONTINUOUS
 62
     7
 10
253.908338
 20
144.736900
 11
253.877933
 21
144.686637
  0
LINE
  8
CSLAYER4
  6
CONTINUOUS
 62
     7
 10
253.877933
 20
144.686637
 11
253.848998
 21
144.635516
  0
LINE
  8
CSLAYER4
  6
CONTINUOUS
 62
     7
 10
253.848998
 20
144.635516
 11
253.821532
 21
144.583531
  0
LINE
  8
CSLAYER4
  6
CONTINUOUS
 62
     7
 10
253.821532
 20
144.583531
 11
253.795549
 21
144.530680
  0
LINE
  8
CSLAYER4
  6
CONTINUOUS
 62
     7
 10
253.795549
 20
144.530680
 11
253.771056
 21
144.476950
  0
LINE
  8
CSLAYER4
  6
CONTINUOUS
 62
     7
 10
253.771056
 20
144.476950
 11
253.748075
 21
144.422375
  0
LINE
  8
CSLAYER4
  6
CONTINUOUS
 62
     7
 10
253.748075
 20
144.422375
 11
253.726720
 21
144.367217
  0
LINE
  8
CSLAYER4
  6
CONTINUOUS
 62
     7
 10
253.726720
 20
144.367217
 11
253.706993
 21
144.311571
  0
LINE
  8
CSLAYER4
  6
CONTINUOUS
 62
     7
 10
253.706993
 20
144.311571
 11
253.688879
 21
144.255451
  0
LINE
  8
CSLAYER4
  6
CONTINUOUS
 62
     7
 10
253.688879
 20
144.255451
 11
253.672344
 21
144.198865
  0
LINE
  8
CSLAYER4
  6
CONTINUOUS
 62
     7
 10
253.672344
 20
144.198865
 11
253.657382
 21
144.141818
  0
LINE
  8
CSLAYER4
  6
CONTINUOUS
 62
     7
 10
253.657382
 20
144.141818
 11
253.643958
 21
144.084340
  0
LINE
  8
CSLAYER4
  6
CONTINUOUS
 62
     7
 10
253.643958
 20
144.084340
 11
253.632052
 21
144.026428
  0
LINE
  8
CSLAYER4
  6
CONTINUOUS
 62
     7
 10
253.632052
 20
144.026428
 11
253.621649
 21
143.968104
  0
LINE
  8
CSLAYER4
  6
CONTINUOUS
 62
     7
 10
253.621649
 20
143.968104
 11
253.612723
 21
143.909416
  0
LINE
  8
CSLAYER4
  6
CONTINUOUS
 62
     7
 10
253.612723
 20
143.909416
 11
253.605266
 21
143.850544
  0
LINE
  8
CSLAYER4
  6
CONTINUOUS
 62
     7
 10
253.605266
 20
143.850544
 11
253.599251
 21
143.791519
  0
LINE
  8
CSLAYER4
  6
CONTINUOUS
 62
     7
 10
253.599251
 20
143.791519
 11
253.594643
 21
143.732372
  0
LINE
  8
CSLAYER4
  6
CONTINUOUS
 62
     7
 10
253.594643
 20
143.732372
 11
253.591395
 21
143.673121
  0
LINE
  8
CSLAYER4
  6
CONTINUOUS
 62
     7
 10
253.591395
 20
143.673121
 11
253.589473
 21
143.613795
  0
LINE
  8
CSLAYER4
  6
CONTINUOUS
 62
     7
 10
253.589473
 20
143.613795
 11
253.588841
 21
143.554414
  0
LINE
  8
CSLAYER4
  6
CONTINUOUS
 62
     7
 10
253.588841
 20
143.554414
 11
253.589432
 21
143.496839
  0
LINE
  8
CSLAYER4
  6
CONTINUOUS
 62
     7
 10
253.589432
 20
143.496839
 11
253.591251
 21
143.439236
  0
LINE
  8
CSLAYER4
  6
CONTINUOUS
 62
     7
 10
253.591251
 20
143.439236
 11
253.594348
 21
143.381647
  0
LINE
  8
CSLAYER4
  6
CONTINUOUS
 62
     7
 10
253.594348
 20
143.381647
 11
253.598791
 21
143.324147
  0
LINE
  8
CSLAYER4
  6
CONTINUOUS
 62
     7
 10
253.598791
 20
143.324147
 11
253.604641
 21
143.266778
  0
LINE
  8
CSLAYER4
  6
CONTINUOUS
 62
     7
 10
253.604641
 20
143.266778
 11
253.611954
 21
143.209608
  0
LINE
  8
CSLAYER4
  6
CONTINUOUS
 62
     7
 10
253.611954
 20
143.209608
 11
253.620784
 21
143.152685
  0
LINE
  8
CSLAYER4
  6
CONTINUOUS
 62
     7
 10
253.620784
 20
143.152685
 11
253.631207
 21
143.096071
  0
LINE
  8
CSLAYER4
  6
CONTINUOUS
 62
     7
 10
253.631207
 20
143.096071
 11
253.643271
 21
143.039821
  0
LINE
  8
CSLAYER4
  6
CONTINUOUS
 62
     7
 10
253.643271
 20
143.039821
 11
253.657032
 21
142.984010
  0
LINE
  8
CSLAYER4
  6
CONTINUOUS
 62
     7
 10
253.657032
 20
142.984010
 11
253.672516
 21
142.928839
  0
LINE
  8
CSLAYER4
  6
CONTINUOUS
 62
     7
 10
253.672516
 20
142.928839
 11
253.689751
 21
142.874360
  0
LINE
  8
CSLAYER4
  6
CONTINUOUS
 62
     7
 10
253.689751
 20
142.874360
 11
253.708785
 21
142.820623
  0
LINE
  8
CSLAYER4
  6
CONTINUOUS
 62
     7
 10
253.708785
 20
142.820623
 11
253.729665
 21
142.767662
  0
LINE
  8
CSLAYER4
  6
CONTINUOUS
 62
     7
 10
253.729665
 20
142.767662
 11
253.752441
 21
142.715518
  0
LINE
  8
CSLAYER4
  6
CONTINUOUS
 62
     7
 10
253.752441
 20
142.715518
 11
253.777147
 21
142.664233
  0
LINE
  8
CSLAYER4
  6
CONTINUOUS
 62
     7
 10
253.777147
 20
142.664233
 11
253.803844
 21
142.613840
  0
LINE
  8
CSLAYER4
  6
CONTINUOUS
 62
     7
 10
253.803844
 20
142.613840
 11
253.832559
 21
142.564374
  0
LINE
  8
CSLAYER4
  6
CONTINUOUS
 62
     7
 10
253.832559
 20
142.564374
 11
253.863225
 21
142.516082
  0
LINE
  8
CSLAYER4
  6
CONTINUOUS
 62
     7
 10
253.863225
 20
142.516082
 11
253.895676
 21
142.469233
  0
LINE
  8
CSLAYER4
  6
CONTINUOUS
 62
     7
 10
253.895676
 20
142.469233
 11
253.929905
 21
142.423817
  0
LINE
  8
CSLAYER4
  6
CONTINUOUS
 62
     7
 10
253.929905
 20
142.423817
 11
253.965906
 21
142.379838
  0
LINE
  8
CSLAYER4
  6
CONTINUOUS
 62
     7
 10
253.965906
 20
142.379838
 11
254.003678
 21
142.337287
  0
LINE
  8
CSLAYER4
  6
CONTINUOUS
 62
     7
 10
254.003678
 20
142.337287
 11
254.043209
 21
142.296157
  0
LINE
  8
CSLAYER4
  6
CONTINUOUS
 62
     7
 10
254.043209
 20
142.296157
 11
254.066259
 21
142.273346
  0
LINE
  8
CSLAYER4
  6
CONTINUOUS
 62
     7
 10
254.066259
 20
142.273346
 11
254.089598
 21
142.250721
  0
LINE
  8
CSLAYER4
  6
CONTINUOUS
 62
     7
 10
254.089598
 20
142.250721
 11
254.113219
 21
142.228316
  0
LINE
  8
CSLAYER4
  6
CONTINUOUS
 62
     7
 10
254.113219
 20
142.228316
 11
254.137128
 21
142.206137
  0
LINE
  8
CSLAYER4
  6
CONTINUOUS
 62
     7
 10
254.137128
 20
142.206137
 11
254.161318
 21
142.184213
  0
LINE
  8
CSLAYER4
  6
CONTINUOUS
 62
     7
 10
254.161318
 20
142.184213
 11
254.185790
 21
142.162556
  0
LINE
  8
CSLAYER4
  6
CONTINUOUS
 62
     7
 10
254.185790
 20
142.162556
 11
254.210537
 21
142.141195
  0
LINE
  8
CSLAYER4
  6
CONTINUOUS
 62
     7
 10
254.210537
 20
142.141195
 11
254.235558
 21
142.120148
  0
LINE
  8
CSLAYER4
  6
CONTINUOUS
 62
     7
 10
254.235558
 20
142.120148
 11
254.260854
 21
142.099433
  0
LINE
  8
CSLAYER4
  6
CONTINUOUS
 62
     7
 10
254.260854
 20
142.099433
 11
254.286425
 21
142.079066
  0
LINE
  8
CSLAYER4
  6
CONTINUOUS
 62
     7
 10
254.286425
 20
142.079066
 11
254.312256
 21
142.059071
  0
LINE
  8
CSLAYER4
  6
CONTINUOUS
 62
     7
 10
254.312256
 20
142.059071
 11
254.338363
 21
142.039475
  0
LINE
  8
CSLAYER4
  6
CONTINUOUS
 62
     7
 10
254.338363
 20
142.039475
 11
254.364730
 21
142.020290
  0
LINE
  8
CSLAYER4
  6
CONTINUOUS
 62
     7
 10
254.364730
 20
142.020290
 11
254.391358
 21
142.001531
  0
LINE
  8
CSLAYER4
  6
CONTINUOUS
 62
     7
 10
254.391358
 20
142.001531
 11
254.418240
 21
141.983231
  0
LINE
  8
CSLAYER4
  6
CONTINUOUS
 62
     7
 10
254.418240
 20
141.983231
 11
254.445384
 21
141.965399
  0
LINE
  8
CSLAYER4
  6
CONTINUOUS
 62
     7
 10
254.445384
 20
141.965399
 11
254.472788
 21
141.948062
  0
LINE
  8
CSLAYER4
  6
CONTINUOUS
 62
     7
 10
254.472788
 20
141.948062
 11
254.500439
 21
141.931239
  0
LINE
  8
CSLAYER4
  6
CONTINUOUS
 62
     7
 10
254.500439
 20
141.931239
 11
254.528358
 21
141.914938
  0
LINE
  8
CSLAYER4
  6
CONTINUOUS
 62
     7
 10
254.528358
 20
141.914938
 11
254.556572
 21
141.899159
  0
LINE
  8
CSLAYER4
  6
CONTINUOUS
 62
     7
 10
254.556572
 20
141.899159
 11
254.585075
 21
141.883936
  0
LINE
  8
CSLAYER4
  6
CONTINUOUS
 62
     7
 10
254.585075
 20
141.883936
 11
254.613873
 21
141.869283
  0
LINE
  8
CSLAYER4
  6
CONTINUOUS
 62
     7
 10
254.613873
 20
141.869283
 11
254.642959
 21
141.855227
  0
LINE
  8
CSLAYER4
  6
CONTINUOUS
 62
     7
 10
254.642959
 20
141.855227
 11
254.672334
 21
141.841789
  0
LINE
  8
CSLAYER4
  6
CONTINUOUS
 62
     7
 10
256.140297
 20
141.212664
 11
254.672336
 21
141.841790
  0
LINE
  8
CSLAYER4
  6
CONTINUOUS
 62
     7
 10
256.140299
 20
141.212664
 11
256.182226
 21
141.193404
  0
LINE
  8
CSLAYER4
  6
CONTINUOUS
 62
     7
 10
256.182226
 20
141.193404
 11
256.223384
 21
141.172557
  0
LINE
  8
CSLAYER4
  6
CONTINUOUS
 62
     7
 10
256.223384
 20
141.172557
 11
256.263676
 21
141.150049
  0
LINE
  8
CSLAYER4
  6
CONTINUOUS
 62
     7
 10
256.263676
 20
141.150049
 11
256.302952
 21
141.125817
  0
LINE
  8
CSLAYER4
  6
CONTINUOUS
 62
     7
 10
256.302952
 20
141.125817
 11
256.341102
 21
141.099793
  0
LINE
  8
CSLAYER4
  6
CONTINUOUS
 62
     7
 10
256.341102
 20
141.099793
 11
256.377933
 21
141.071957
  0
LINE
  8
CSLAYER4
  6
CONTINUOUS
 62
     7
 10
256.377933
 20
141.071957
 11
256.413186
 21
141.042376
  0
LINE
  8
CSLAYER4
  6
CONTINUOUS
 62
     7
 10
256.413186
 20
141.042376
 11
256.446777
 21
141.011017
  0
LINE
  8
CSLAYER4
  6
CONTINUOUS
 62
     7
 10
256.446777
 20
141.011017
 11
256.478610
 21
140.977831
  0
LINE
  8
CSLAYER4
  6
CONTINUOUS
 62
     7
 10
256.478610
 20
140.977831
 11
256.508630
 21
140.942778
  0
LINE
  8
CSLAYER4
  6
CONTINUOUS
 62
     7
 10
256.508630
 20
140.942778
 11
256.536590
 21
140.906022
  0
LINE
  8
CSLAYER4
  6
CONTINUOUS
 62
     7
 10
256.536590
 20
140.906022
 11
256.562188
 21
140.867989
  0
LINE
  8
CSLAYER4
  6
CONTINUOUS
 62
     7
 10
256.562188
 20
140.867989
 11
256.585452
 21
140.828733
  0
LINE
  8
CSLAYER4
  6
CONTINUOUS
 62
     7
 10
256.585452
 20
140.828733
 11
256.606422
 21
140.788276
  0
LINE
  8
CSLAYER4
  6
CONTINUOUS
 62
     7
 10
256.606422
 20
140.788276
 11
256.625126
 21
140.746658
  0
LINE
  8
CSLAYER4
  6
CONTINUOUS
 62
     7
 10
256.625126
 20
140.746658
 11
256.641633
 21
140.703908
  0
LINE
  8
CSLAYER4
  6
CONTINUOUS
 62
     7
 10
256.641633
 20
140.703908
 11
256.655970
 21
140.660052
  0
LINE
  8
CSLAYER4
  6
CONTINUOUS
 62
     7
 10
256.655970
 20
140.660052
 11
256.668165
 21
140.615248
  0
LINE
  8
CSLAYER4
  6
CONTINUOUS
 62
     7
 10
256.668165
 20
140.615248
 11
256.678190
 21
140.569923
  0
LINE
  8
CSLAYER4
  6
CONTINUOUS
 62
     7
 10
256.678190
 20
140.569923
 11
256.686155
 21
140.524178
  0
LINE
  8
CSLAYER4
  6
CONTINUOUS
 62
     7
 10
256.686155
 20
140.524178
 11
256.692170
 21
140.478112
  0
LINE
  8
CSLAYER4
  6
CONTINUOUS
 62
     7
 10
256.692170
 20
140.478112
 11
256.696317
 21
140.431811
  0
LINE
  8
CSLAYER4
  6
CONTINUOUS
 62
     7
 10
256.696317
 20
140.431811
 11
256.698734
 21
140.385373
  0
LINE
  8
CSLAYER4
  6
CONTINUOUS
 62
     7
 10
256.698734
 20
140.385373
 11
256.699517
 21
140.338880
  0
LINE
  8
CSLAYER4
  6
CONTINUOUS
 62
     7
 10
256.699517
 20
140.338880
 11
256.698542
 21
140.295422
  0
LINE
  8
CSLAYER4
  6
CONTINUOUS
 62
     7
 10
256.698542
 20
140.295422
 11
256.695534
 21
140.252157
  0
LINE
  8
CSLAYER4
  6
CONTINUOUS
 62
     7
 10
256.695534
 20
140.252157
 11
256.690426
 21
140.209125
  0
LINE
  8
CSLAYER4
  6
CONTINUOUS
 62
     7
 10
256.690426
 20
140.209125
 11
256.683093
 21
140.166374
  0
LINE
  8
CSLAYER4
  6
CONTINUOUS
 62
     7
 10
256.683093
 20
140.166374
 11
256.673480
 21
140.124001
  0
LINE
  8
CSLAYER4
  6
CONTINUOUS
 62
     7
 10
256.673480
 20
140.124001
 11
256.661587
 21
140.082370
  0
LINE
  8
CSLAYER4
  6
CONTINUOUS
 62
     7
 10
256.661587
 20
140.082370
 11
256.647414
 21
140.041604
  0
LINE
  8
CSLAYER4
  6
CONTINUOUS
 62
     7
 10
256.647414
 20
140.041604
 11
256.630949
 21
140.001703
  0
LINE
  8
CSLAYER4
  6
CONTINUOUS
 62
     7
 10
256.630949
 20
140.001703
 11
256.612162
 21
139.962681
  0
LINE
  8
CSLAYER4
  6
CONTINUOUS
 62
     7
 10
256.612162
 20
139.962681
 11
256.591206
 21
139.924792
  0
LINE
  8
CSLAYER4
  6
CONTINUOUS
 62
     7
 10
256.591206
 20
139.924792
 11
256.568299
 21
139.888358
  0
LINE
  8
CSLAYER4
  6
CONTINUOUS
 62
     7
 10
256.568299
 20
139.888358
 11
256.543539
 21
139.853353
  0
LINE
  8
CSLAYER4
  6
CONTINUOUS
 62
     7
 10
256.543539
 20
139.853353
 11
256.517034
 21
139.819749
  0
LINE
  8
CSLAYER4
  6
CONTINUOUS
 62
     7
 10
256.517034
 20
139.819749
 11
256.488868
 21
139.787504
  0
LINE
  8
CSLAYER4
  6
CONTINUOUS
 62
     7
 10
256.488868
 20
139.787504
 11
256.459136
 21
139.756585
  0
LINE
  8
CSLAYER4
  6
CONTINUOUS
 62
     7
 10
256.459136
 20
139.756585
 11
256.427907
 21
139.726963
  0
LINE
  8
CSLAYER4
  6
CONTINUOUS
 62
     7
 10
256.427907
 20
139.726963
 11
256.395306
 21
139.698604
  0
LINE
  8
CSLAYER4
  6
CONTINUOUS
 62
     7
 10
256.395306
 20
139.698604
 11
256.361468
 21
139.671536
  0
LINE
  8
CSLAYER4
  6
CONTINUOUS
 62
     7
 10
256.361468
 20
139.671536
 11
256.326572
 21
139.645760
  0
LINE
  8
CSLAYER4
  6
CONTINUOUS
 62
     7
 10
256.326572
 20
139.645760
 11
256.290729
 21
139.621240
  0
LINE
  8
CSLAYER4
  6
CONTINUOUS
 62
     7
 10
256.290729
 20
139.621240
 11
256.254063
 21
139.597935
  0
LINE
  8
CSLAYER4
  6
CONTINUOUS
 62
     7
 10
256.254063
 20
139.597935
 11
256.216695
 21
139.575825
  0
LINE
  8
CSLAYER4
  6
CONTINUOUS
 62
     7
 10
256.216695
 20
139.575825
 11
256.178738
 21
139.554855
  0
LINE
  8
CSLAYER4
  6
CONTINUOUS
 62
     7
 10
256.178738
 20
139.554855
 11
256.140299
 21
139.534997
  0
LINE
  8
CSLAYER4
  6
CONTINUOUS
 62
     7
 10
256.140299
 20
139.534997
 11
256.103083
 21
139.524073
  0
LINE
  8
CSLAYER4
  6
CONTINUOUS
 62
     7
 10
256.103083
 20
139.524073
 11
256.065695
 21
139.514157
  0
LINE
  8
CSLAYER4
  6
CONTINUOUS
 62
     7
 10
256.065695
 20
139.514157
 11
256.028115
 21
139.505272
  0
LINE
  8
CSLAYER4
  6
CONTINUOUS
 62
     7
 10
256.028115
 20
139.505272
 11
255.990356
 21
139.497424
  0
LINE
  8
CSLAYER4
  6
CONTINUOUS
 62
     7
 10
255.990356
 20
139.497424
 11
255.952412
 21
139.490633
  0
LINE
  8
CSLAYER4
  6
CONTINUOUS
 62
     7
 10
255.952412
 20
139.490633
 11
255.914283
 21
139.484906
  0
LINE
  8
CSLAYER4
  6
CONTINUOUS
 62
     7
 10
255.914283
 20
139.484906
 11
255.875975
 21
139.480278
  0
LINE
  8
CSLAYER4
  6
CONTINUOUS
 62
     7
 10
255.875975
 20
139.480278
 11
255.837489
 21
139.476749
  0
LINE
  8
CSLAYER4
  6
CONTINUOUS
 62
     7
 10
255.837489
 20
139.476749
 11
255.798824
 21
139.474339
  0
LINE
  8
CSLAYER4
  6
CONTINUOUS
 62
     7
 10
255.798824
 20
139.474339
 11
255.760152
 21
139.473075
  0
LINE
  8
CSLAYER4
  6
CONTINUOUS
 62
     7
 10
255.760152
 20
139.473075
 11
255.721569
 21
139.472945
  0
LINE
  8
CSLAYER4
  6
CONTINUOUS
 62
     7
 10
255.721569
 20
139.472945
 11
255.683069
 21
139.473940
  0
LINE
  8
CSLAYER4
  6
CONTINUOUS
 62
     7
 10
255.683069
 20
139.473940
 11
255.644644
 21
139.476069
  0
LINE
  8
CSLAYER4
  6
CONTINUOUS
 62
     7
 10
255.644644
 20
139.476069
 11
255.606309
 21
139.479303
  0
LINE
  8
CSLAYER4
  6
CONTINUOUS
 62
     7
 10
255.606309
 20
139.479303
 11
255.568056
 21
139.483657
  0
LINE
  8
CSLAYER4
  6
CONTINUOUS
 62
     7
 10
255.568056
 20
139.483657
 11
255.529878
 21
139.489108
  0
LINE
  8
CSLAYER4
  6
CONTINUOUS
 62
     7
 10
255.529878
 20
139.489108
 11
255.491790
 21
139.495652
  0
LINE
  8
CSLAYER4
  6
CONTINUOUS
 62
     7
 10
255.491790
 20
139.495652
 11
255.453805
 21
139.503281
  0
LINE
  8
CSLAYER4
  6
CONTINUOUS
 62
     7
 10
255.453805
 20
139.503281
 11
255.416073
 21
139.511946
  0
LINE
  8
CSLAYER4
  6
CONTINUOUS
 62
     7
 10
255.416073
 20
139.511946
 11
255.378610
 21
139.521621
  0
LINE
  8
CSLAYER4
  6
CONTINUOUS
 62
     7
 10
255.378610
 20
139.521621
 11
255.341429
 21
139.532285
  0
LINE
  8
CSLAYER4
  6
CONTINUOUS
 62
     7
 10
255.341429
 20
139.532285
 11
255.304528
 21
139.543910
  0
LINE
  8
CSLAYER4
  6
CONTINUOUS
 62
     7
 10
255.304528
 20
139.543910
 11
255.267902
 21
139.556468
  0
LINE
  8
CSLAYER4
  6
CONTINUOUS
 62
     7
 10
255.267902
 20
139.556468
 11
255.231558
 21
139.569947
  0
LINE
  8
CSLAYER4
  6
CONTINUOUS
 62
     7
 10
255.231558
 20
139.569947
 11
255.206159
 21
139.580411
  0
LINE
  8
CSLAYER4
  6
CONTINUOUS
 62
     7
 10
255.206159
 20
139.580411
 11
255.180959
 21
139.591412
  0
LINE
  8
CSLAYER4
  6
CONTINUOUS
 62
     7
 10
255.180959
 20
139.591412
 11
255.156006
 21
139.602968
  0
LINE
  8
CSLAYER4
  6
CONTINUOUS
 62
     7
 10
255.156006
 20
139.602968
 11
255.131315
 21
139.615087
  0
LINE
  8
CSLAYER4
  6
CONTINUOUS
 62
     7
 10
255.131315
 20
139.615087
 11
255.106919
 21
139.627797
  0
LINE
  8
CSLAYER4
  6
CONTINUOUS
 62
     7
 10
255.106919
 20
139.627797
 11
255.082845
 21
139.641097
  0
LINE
  8
CSLAYER4
  6
CONTINUOUS
 62
     7
 10
255.082845
 20
139.641097
 11
255.059128
 21
139.655016
  0
LINE
  8
CSLAYER4
  6
CONTINUOUS
 62
     7
 10
255.059128
 20
139.655016
 11
255.035789
 21
139.669566
  0
LINE
  8
CSLAYER4
  6
CONTINUOUS
 62
     7
 10
255.035789
 20
139.669566
 11
255.012855
 21
139.684754
  0
LINE
  8
CSLAYER4
  6
CONTINUOUS
 62
     7
 10
255.012855
 20
139.684754
 11
254.990374
 21
139.700595
  0
LINE
  8
CSLAYER4
  6
CONTINUOUS
 62
     7
 10
254.990374
 20
139.700595
 11
254.968415
 21
139.717061
  0
LINE
  8
CSLAYER4
  6
CONTINUOUS
 62
     7
 10
254.968415
 20
139.717061
 11
254.947013
 21
139.734158
  0
LINE
  8
CSLAYER4
  6
CONTINUOUS
 62
     7
 10
254.947013
 20
139.734158
 11
254.926187
 21
139.751902
  0
LINE
  8
CSLAYER4
  6
CONTINUOUS
 62
     7
 10
254.926187
 20
139.751902
 11
254.905951
 21
139.770296
  0
LINE
  8
CSLAYER4
  6
CONTINUOUS
 62
     7
 10
254.905951
 20
139.770296
 11
254.886327
 21
139.789358
  0
LINE
  8
CSLAYER4
  6
CONTINUOUS
 62
     7
 10
254.886327
 20
139.789358
 11
254.867334
 21
139.809099
  0
LINE
  8
CSLAYER4
  6
CONTINUOUS
 62
     7
 10
254.867334
 20
139.809099
 11
254.848994
 21
139.829527
  0
LINE
  8
CSLAYER4
  6
CONTINUOUS
 62
     7
 10
254.848994
 20
139.829527
 11
254.831327
 21
139.850655
  0
LINE
  8
CSLAYER4
  6
CONTINUOUS
 62
     7
 10
254.831327
 20
139.850655
 11
254.814414
 21
139.872415
  0
LINE
  8
CSLAYER4
  6
CONTINUOUS
 62
     7
 10
254.814414
 20
139.872415
 11
254.798326
 21
139.894724
  0
LINE
  8
CSLAYER4
  6
CONTINUOUS
 62
     7
 10
254.798326
 20
139.894724
 11
254.783069
 21
139.917568
  0
LINE
  8
CSLAYER4
  6
CONTINUOUS
 62
     7
 10
254.783069
 20
139.917568
 11
254.768636
 21
139.940956
  0
LINE
  8
CSLAYER4
  6
CONTINUOUS
 62
     7
 10
254.768636
 20
139.940956
 11
254.755026
 21
139.964892
  0
LINE
  8
CSLAYER4
  6
CONTINUOUS
 62
     7
 10
254.755026
 20
139.964892
 11
254.742241
 21
139.989364
  0
LINE
  8
CSLAYER4
  6
CONTINUOUS
 62
     7
 10
254.742241
 20
139.989364
 11
254.728515
 21
140.017763
  0
LINE
  8
CSLAYER4
  6
CONTINUOUS
 62
     7
 10
254.728515
 20
140.017763
 11
254.715311
 21
140.046960
  0
LINE
  8
CSLAYER4
  6
CONTINUOUS
 62
     7
 10
254.715311
 20
140.046960
 11
254.702622
 21
140.076904
  0
LINE
  8
CSLAYER4
  6
CONTINUOUS
 62
     7
 10
254.702622
 20
140.076904
 11
254.690427
 21
140.107549
  0
LINE
  8
CSLAYER4
  6
CONTINUOUS
 62
     7
 10
254.690427
 20
140.107549
 11
254.678720
 21
140.138840
  0
LINE
  8
CSLAYER4
  6
CONTINUOUS
 62
     7
 10
254.678720
 20
140.138840
 11
254.667493
 21
140.170721
  0
LINE
  8
CSLAYER4
  6
CONTINUOUS
 62
     7
 10
254.667493
 20
140.170721
 11
254.656726
 21
140.203138
  0
LINE
  8
CSLAYER4
  6
CONTINUOUS
 62
     7
 10
254.656726
 20
140.203138
 11
254.646406
 21
140.236055
  0
LINE
  8
CSLAYER4
  6
CONTINUOUS
 62
     7
 10
254.646406
 20
140.236055
 11
254.636532
 21
140.269399
  0
LINE
  8
CSLAYER4
  6
CONTINUOUS
 62
     7
 10
254.636532
 20
140.269399
 11
254.627091
 21
140.303140
  0
LINE
  8
CSLAYER4
  6
CONTINUOUS
 62
     7
 10
254.627091
 20
140.303140
 11
254.618061
 21
140.337212
  0
LINE
  8
CSLAYER4
  6
CONTINUOUS
 62
     7
 10
254.618061
 20
140.337212
 11
254.609437
 21
140.371565
  0
LINE
  8
CSLAYER4
  6
CONTINUOUS
 62
     7
 10
254.609437
 20
140.371565
 11
254.601204
 21
140.406151
  0
LINE
  8
CSLAYER4
  6
CONTINUOUS
 62
     7
 10
254.601204
 20
140.406151
 11
254.593356
 21
140.440916
  0
LINE
  8
CSLAYER4
  6
CONTINUOUS
 62
     7
 10
254.593356
 20
140.440916
 11
254.585871
 21
140.475805
  0
LINE
  8
CSLAYER4
  6
CONTINUOUS
 62
     7
 10
254.585871
 20
140.475805
 11
254.578751
 21
140.510775
  0
LINE
  8
CSLAYER4
  6
CONTINUOUS
 62
     7
 10
254.578751
 20
140.510775
 11
254.571966
 21
140.545780
  0
LINE
  8
CSLAYER4
  6
CONTINUOUS
 62
     7
 10
254.571966
 20
140.545780
 11
254.565498
 21
140.580923
  0
LINE
  8
CSLAYER4
  6
CONTINUOUS
 62
     7
 10
254.565498
 20
140.580923
 11
254.559318
 21
140.616196
  0
LINE
  8
CSLAYER4
  6
CONTINUOUS
 62
     7
 10
254.559318
 20
140.616196
 11
254.553420
 21
140.651572
  0
LINE
  8
CSLAYER4
  6
CONTINUOUS
 62
     7
 10
254.553420
 20
140.651572
 11
254.547804
 21
140.687003
  0
LINE
  8
CSLAYER4
  6
CONTINUOUS
 62
     7
 10
254.547804
 20
140.687003
 11
254.542455
 21
140.722447
  0
LINE
  8
CSLAYER4
  6
CONTINUOUS
 62
     7
 10
254.542455
 20
140.722447
 11
254.537367
 21
140.757878
  0
LINE
  8
CSLAYER4
  6
CONTINUOUS
 62
     7
 10
254.537367
 20
140.757878
 11
254.532533
 21
140.793247
  0
LINE
  8
CSLAYER4
  6
CONTINUOUS
 62
     7
 10
253.414084
 20
140.793247
 11
254.532531
 21
140.793247
  0
LINE
  8
CSLAYER4
  6
CONTINUOUS
 62
     7
 10
253.414083
 20
140.793247
 11
253.424520
 21
140.669301
  0
LINE
  8
CSLAYER4
  6
CONTINUOUS
 62
     7
 10
253.424520
 20
140.669301
 11
253.437992
 21
140.545148
  0
LINE
  8
CSLAYER4
  6
CONTINUOUS
 62
     7
 10
253.437992
 20
140.545148
 11
253.454726
 21
140.421140
  0
LINE
  8
CSLAYER4
  6
CONTINUOUS
 62
     7
 10
253.454726
 20
140.421140
 11
253.474947
 21
140.297647
  0
LINE
  8
CSLAYER4
  6
CONTINUOUS
 62
     7
 10
253.474947
 20
140.297647
 11
253.498884
 21
140.175033
  0
LINE
  8
CSLAYER4
  6
CONTINUOUS
 62
     7
 10
253.498884
 20
140.175033
 11
253.526762
 21
140.053655
  0
LINE
  8
CSLAYER4
  6
CONTINUOUS
 62
     7
 10
253.526762
 20
140.053655
 11
253.558828
 21
139.933794
  0
LINE
  8
CSLAYER4
  6
CONTINUOUS
 62
     7
 10
253.558828
 20
139.933794
 11
253.595508
 21
139.815258
  0
LINE
  8
CSLAYER4
  6
CONTINUOUS
 62
     7
 10
253.595508
 20
139.815258
 11
253.637126
 21
139.698384
  0
LINE
  8
CSLAYER4
  6
CONTINUOUS
 62
     7
 10
253.637126
 20
139.698384
 11
253.683976
 21
139.583625
  0
LINE
  8
CSLAYER4
  6
CONTINUOUS
 62
     7
 10
253.683976
 20
139.583625
 11
253.736354
 21
139.471455
  0
LINE
  8
CSLAYER4
  6
CONTINUOUS
 62
     7
 10
253.736354
 20
139.471455
 11
253.794554
 21
139.362313
  0
LINE
  8
CSLAYER4
  6
CONTINUOUS
 62
     7
 10
253.794554
 20
139.362313
 11
253.858631
 21
139.257050
  0
LINE
  8
CSLAYER4
  6
CONTINUOUS
 62
     7
 10
253.858631
 20
139.257050
 11
253.928381
 21
139.156628
  0
LINE
  8
CSLAYER4
  6
CONTINUOUS
 62
     7
 10
253.928381
 20
139.156628
 11
254.003981
 21
139.061294
  0
LINE
  8
CSLAYER4
  6
CONTINUOUS
 62
     7
 10
254.003981
 20
139.061294
 11
254.085588
 21
138.971288
  0
LINE
  8
CSLAYER4
  6
CONTINUOUS
 62
     7
 10
254.085588
 20
138.971288
 11
254.173383
 21
138.886831
  0
LINE
  8
CSLAYER4
  6
CONTINUOUS
 62
     7
 10
254.173383
 20
138.886831
 11
254.267501
 21
138.808190
  0
LINE
  8
CSLAYER4
  6
CONTINUOUS
 62
     7
 10
254.267501
 20
138.808190
 11
254.366570
 21
138.736613
  0
LINE
  8
CSLAYER4
  6
CONTINUOUS
 62
     7
 10
254.366570
 20
138.736613
 11
254.469608
 21
138.672556
  0
LINE
  8
CSLAYER4
  6
CONTINUOUS
 62
     7
 10
254.469608
 20
138.672556
 11
254.576388
 21
138.615757
  0
LINE
  8
CSLAYER4
  6
CONTINUOUS
 62
     7
 10
254.576388
 20
138.615757
 11
254.686691
 21
138.565975
  0
LINE
  8
CSLAYER4
  6
CONTINUOUS
 62
     7
 10
254.686691
 20
138.565975
 11
254.800304
 21
138.522957
  0
LINE
  8
CSLAYER4
  6
CONTINUOUS
 62
     7
 10
254.800304
 20
138.522957
 11
254.916999
 21
138.486448
  0
ENDBLK
  8
0
  0
BLOCK
  8
CSLAYER1
  2
BLKF0004
 70
   64
 10
0.0
 20
0.0
 30
0.0
  0
LINE
  8
CSLAYER4
  6
CONTINUOUS
 62
     7
 10
268.919540
 20
140.105380
 11
268.904928
 21
140.064833
  0
LINE
  8
CSLAYER4
  6
CONTINUOUS
 62
     7
 10
268.904928
 20
140.064833
 11
268.889341
 21
140.024047
  0
LINE
  8
CSLAYER4
  6
CONTINUOUS
 62
     7
 10
268.889341
 20
140.024047
 11
268.872738
 21
139.983226
  0
LINE
  8
CSLAYER4
  6
CONTINUOUS
 62
     7
 10
268.872738
 20
139.983226
 11
268.855105
 21
139.942583
  0
LINE
  8
CSLAYER4
  6
CONTINUOUS
 62
     7
 10
268.855105
 20
139.942583
 11
268.836387
 21
139.902311
  0
LINE
  8
CSLAYER4
  6
CONTINUOUS
 62
     7
 10
268.836387
 20
139.902311
 11
268.816571
 21
139.862616
  0
LINE
  8
CSLAYER4
  6
CONTINUOUS
 62
     7
 10
268.816571
 20
139.862616
 11
268.795601
 21
139.823711
  0
LINE
  8
CSLAYER4
  6
CONTINUOUS
 62
     7
 10
268.795601
 20
139.823711
 11
268.773477
 21
139.785794
  0
LINE
  8
CSLAYER4
  6
CONTINUOUS
 62
     7
 10
268.773477
 20
139.785794
 11
268.750158
 21
139.749073
  0
LINE
  8
CSLAYER4
  6
CONTINUOUS
 62
     7
 10
268.750158
 20
139.749073
 11
268.725604
 21
139.713745
  0
LINE
  8
CSLAYER4
  6
CONTINUOUS
 62
     7
 10
268.725604
 20
139.713745
 11
268.699497
 21
139.679666
  0
LINE
  8
CSLAYER4
  6
CONTINUOUS
 62
     7
 10
268.699497
 20
139.679666
 11
268.671647
 21
139.646927
  0
LINE
  8
CSLAYER4
  6
CONTINUOUS
 62
     7
 10
268.671647
 20
139.646927
 11
268.641971
 21
139.615870
  0
LINE
  8
CSLAYER4
  6
CONTINUOUS
 62
     7
 10
268.641971
 20
139.615870
 11
268.610439
 21
139.586832
  0
LINE
  8
CSLAYER4
  6
CONTINUOUS
 62
     7
 10
268.610439
 20
139.586832
 11
268.576986
 21
139.560142
  0
LINE
  8
CSLAYER4
  6
CONTINUOUS
 62
     7
 10
268.576986
 20
139.560142
 11
268.541706
 21
139.536247
  0
LINE
  8
CSLAYER4
  6
CONTINUOUS
 62
     7
 10
268.541706
 20
139.536247
 11
268.504889
 21
139.515586
  0
LINE
  8
CSLAYER4
  6
CONTINUOUS
 62
     7
 10
268.504889
 20
139.515586
 11
268.466519
 21
139.498344
  0
LINE
  8
CSLAYER4
  6
CONTINUOUS
 62
     7
 10
268.466519
 20
139.498344
 11
268.426542
 21
139.484673
  0
LINE
  8
CSLAYER4
  6
CONTINUOUS
 62
     7
 10
268.426542
 20
139.484673
 11
268.385165
 21
139.474792
  0
LINE
  8
CSLAYER4
  6
CONTINUOUS
 62
     7
 10
268.385165
 20
139.474792
 11
268.343390
 21
139.468900
  0
LINE
  8
CSLAYER4
  6
CONTINUOUS
 62
     7
 10
268.343390
 20
139.468900
 11
268.301408
 21
139.466813
  0
LINE
  8
CSLAYER4
  6
CONTINUOUS
 62
     7
 10
268.301408
 20
139.466813
 11
268.259289
 21
139.468310
  0
LINE
  8
CSLAYER4
  6
CONTINUOUS
 62
     7
 10
268.259289
 20
139.468310
 11
268.217088
 21
139.473185
  0
LINE
  8
CSLAYER4
  6
CONTINUOUS
 62
     7
 10
268.217088
 20
139.473185
 11
268.178292
 21
139.483114
  0
LINE
  8
CSLAYER4
  6
CONTINUOUS
 62
     7
 10
268.178292
 20
139.483114
 11
268.140774
 21
139.497039
  0
LINE
  8
CSLAYER4
  6
CONTINUOUS
 62
     7
 10
268.140774
 20
139.497039
 11
268.104684
 21
139.514713
  0
LINE
  8
CSLAYER4
  6
CONTINUOUS
 62
     7
 10
268.104684
 20
139.514713
 11
268.070434
 21
139.535663
  0
LINE
  8
CSLAYER4
  6
CONTINUOUS
 62
     7
 10
268.070434
 20
139.535663
 11
268.037997
 21
139.559517
  0
LINE
  8
CSLAYER4
  6
CONTINUOUS
 62
     7
 10
268.037997
 20
139.559517
 11
268.007331
 21
139.585891
  0
LINE
  8
CSLAYER4
  6
CONTINUOUS
 62
     7
 10
268.007331
 20
139.585891
 11
267.978410
 21
139.614421
  0
LINE
  8
CSLAYER4
  6
CONTINUOUS
 62
     7
 10
267.978410
 20
139.614421
 11
267.951219
 21
139.644723
  0
LINE
  8
CSLAYER4
  6
CONTINUOUS
 62
     7
 10
267.951219
 20
139.644723
 11
267.925689
 21
139.676411
  0
LINE
  8
CSLAYER4
  6
CONTINUOUS
 62
     7
 10
267.925689
 20
139.676411
 11
267.901794
 21
139.709123
  0
LINE
  8
CSLAYER4
  6
CONTINUOUS
 62
     7
 10
267.901794
 20
139.709123
 11
267.879162
 21
139.742989
  0
LINE
  8
CSLAYER4
  6
CONTINUOUS
 62
     7
 10
267.879162
 20
139.742989
 11
267.857368
 21
139.778413
  0
LINE
  8
CSLAYER4
  6
CONTINUOUS
 62
     7
 10
267.857368
 20
139.778413
 11
267.836412
 21
139.815272
  0
LINE
  8
CSLAYER4
  6
CONTINUOUS
 62
     7
 10
267.836412
 20
139.815272
 11
267.816252
 21
139.853443
  0
LINE
  8
CSLAYER4
  6
CONTINUOUS
 62
     7
 10
267.816252
 20
139.853443
 11
267.796902
 21
139.892808
  0
LINE
  8
CSLAYER4
  6
CONTINUOUS
 62
     7
 10
267.796902
 20
139.892808
 11
267.778308
 21
139.933252
  0
LINE
  8
CSLAYER4
  6
CONTINUOUS
 62
     7
 10
267.778308
 20
139.933252
 11
267.760469
 21
139.974643
  0
LINE
  8
CSLAYER4
  6
CONTINUOUS
 62
     7
 10
267.760469
 20
139.974643
 11
267.743357
 21
140.016871
  0
LINE
  8
CSLAYER4
  6
CONTINUOUS
 62
     7
 10
267.743357
 20
140.016871
 11
267.726974
 21
140.059814
  0
LINE
  8
CSLAYER4
  6
CONTINUOUS
 62
     7
 10
267.726974
 20
140.059814
 11
267.711291
 21
140.103347
  0
LINE
  8
CSLAYER4
  6
CONTINUOUS
 62
     7
 10
267.711291
 20
140.103347
 11
267.696281
 21
140.147347
  0
LINE
  8
CSLAYER4
  6
CONTINUOUS
 62
     7
 10
267.696281
 20
140.147347
 11
267.681930
 21
140.191705
  0
LINE
  8
CSLAYER4
  6
CONTINUOUS
 62
     7
 10
267.681930
 20
140.191705
 11
267.668225
 21
140.236295
  0
LINE
  8
CSLAYER4
  6
CONTINUOUS
 62
     7
 10
267.668225
 20
140.236295
 11
267.655137
 21
140.280989
  0
LINE
  8
CSLAYER4
  6
CONTINUOUS
 62
     7
 10
267.655137
 20
140.280989
 11
267.635430
 21
140.348939
  0
LINE
  8
CSLAYER4
  6
CONTINUOUS
 62
     7
 10
267.635430
 20
140.348939
 11
267.616905
 21
140.417357
  0
LINE
  8
CSLAYER4
  6
CONTINUOUS
 62
     7
 10
267.616905
 20
140.417357
 11
267.599532
 21
140.486186
  0
LINE
  8
CSLAYER4
  6
CONTINUOUS
 62
     7
 10
267.599532
 20
140.486186
 11
267.583287
 21
140.555366
  0
LINE
  8
CSLAYER4
  6
CONTINUOUS
 62
     7
 10
267.583287
 20
140.555366
 11
267.568112
 21
140.624861
  0
LINE
  8
CSLAYER4
  6
CONTINUOUS
 62
     7
 10
267.568112
 20
140.624861
 11
267.554008
 21
140.694604
  0
LINE
  8
CSLAYER4
  6
CONTINUOUS
 62
     7
 10
267.554008
 20
140.694604
 11
267.540920
 21
140.764539
  0
LINE
  8
CSLAYER4
  6
CONTINUOUS
 62
     7
 10
267.540920
 20
140.764539
 11
267.528822
 21
140.834618
  0
LINE
  8
CSLAYER4
  6
CONTINUOUS
 62
     7
 10
267.528822
 20
140.834618
 11
267.517685
 21
140.904786
  0
LINE
  8
CSLAYER4
  6
CONTINUOUS
 62
     7
 10
267.517685
 20
140.904786
 11
267.507481
 21
140.974982
  0
LINE
  8
CSLAYER4
  6
CONTINUOUS
 62
     7
 10
267.507481
 20
140.974982
 11
267.498170
 21
141.045164
  0
LINE
  8
CSLAYER4
  6
CONTINUOUS
 62
     7
 10
267.498170
 20
141.045164
 11
267.489697
 21
141.115408
  0
LINE
  8
CSLAYER4
  6
CONTINUOUS
 62
     7
 10
267.489697
 20
141.115408
 11
267.482048
 21
141.185892
  0
LINE
  8
CSLAYER4
  6
CONTINUOUS
 62
     7
 10
267.482048
 20
141.185892
 11
267.475154
 21
141.256582
  0
LINE
  8
CSLAYER4
  6
CONTINUOUS
 62
     7
 10
267.475154
 20
141.256582
 11
267.469029
 21
141.327437
  0
LINE
  8
CSLAYER4
  6
CONTINUOUS
 62
     7
 10
267.469029
 20
141.327437
 11
267.463632
 21
141.398429
  0
LINE
  8
CSLAYER4
  6
CONTINUOUS
 62
     7
 10
267.463632
 20
141.398429
 11
267.458963
 21
141.469517
  0
LINE
  8
CSLAYER4
  6
CONTINUOUS
 62
     7
 10
267.458963
 20
141.469517
 11
267.454966
 21
141.540668
  0
LINE
  8
CSLAYER4
  6
CONTINUOUS
 62
     7
 10
267.454966
 20
141.540668
 11
267.451656
 21
141.611839
  0
LINE
  8
CSLAYER4
  6
CONTINUOUS
 62
     7
 10
267.451656
 20
141.611839
 11
267.448992
 21
141.683003
  0
LINE
  8
CSLAYER4
  6
CONTINUOUS
 62
     7
 10
267.448992
 20
141.683003
 11
267.446960
 21
141.754126
  0
LINE
  8
CSLAYER4
  6
CONTINUOUS
 62
     7
 10
267.446960
 20
141.754126
 11
267.445532
 21
141.825159
  0
LINE
  8
CSLAYER4
  6
CONTINUOUS
 62
     7
 10
267.445532
 20
141.825159
 11
267.444680
 21
141.896083
  0
LINE
  8
CSLAYER4
  6
CONTINUOUS
 62
     7
 10
267.444680
 20
141.896083
 11
267.444405
 21
141.966848
  0
LINE
  8
CSLAYER4
  6
CONTINUOUS
 62
     7
 10
267.444405
 20
141.966848
 11
267.444653
 21
142.042901
  0
LINE
  8
CSLAYER4
  6
CONTINUOUS
 62
     7
 10
267.444653
 20
142.042901
 11
267.445408
 21
142.119311
  0
LINE
  8
CSLAYER4
  6
CONTINUOUS
 62
     7
 10
267.445408
 20
142.119311
 11
267.446685
 21
142.195996
  0
LINE
  8
CSLAYER4
  6
CONTINUOUS
 62
     7
 10
267.446685
 20
142.195996
 11
267.448526
 21
142.272893
  0
LINE
  8
CSLAYER4
  6
CONTINUOUS
 62
     7
 10
267.448526
 20
142.272893
 11
267.450956
 21
142.349941
  0
LINE
  8
CSLAYER4
  6
CONTINUOUS
 62
     7
 10
267.450956
 20
142.349941
 11
267.453991
 21
142.427059
  0
LINE
  8
CSLAYER4
  6
CONTINUOUS
 62
     7
 10
267.453991
 20
142.427059
 11
267.457671
 21
142.504189
  0
LINE
  8
CSLAYER4
  6
CONTINUOUS
 62
     7
 10
267.457671
 20
142.504189
 11
267.462011
 21
142.581265
  0
LINE
  8
CSLAYER4
  6
CONTINUOUS
 62
     7
 10
267.462011
 20
142.581265
 11
267.467051
 21
142.658211
  0
LINE
  8
CSLAYER4
  6
CONTINUOUS
 62
     7
 10
267.467051
 20
142.658211
 11
267.472791
 21
142.734964
  0
LINE
  8
CSLAYER4
  6
CONTINUOUS
 62
     7
 10
267.472791
 20
142.734964
 11
267.479287
 21
142.811456
  0
LINE
  8
CSLAYER4
  6
CONTINUOUS
 62
     7
 10
267.479287
 20
142.811456
 11
267.486538
 21
142.887619
  0
LINE
  8
CSLAYER4
  6
CONTINUOUS
 62
     7
 10
267.486538
 20
142.887619
 11
267.494600
 21
142.963391
  0
LINE
  8
CSLAYER4
  6
CONTINUOUS
 62
     7
 10
267.494600
 20
142.963391
 11
267.503498
 21
143.038935
  0
LINE
  8
CSLAYER4
  6
CONTINUOUS
 62
     7
 10
267.503498
 20
143.038935
 11
267.513386
 21
143.114858
  0
LINE
  8
CSLAYER4
  6
CONTINUOUS
 62
     7
 10
267.513386
 20
143.114858
 11
267.524290
 21
143.191041
  0
LINE
  8
CSLAYER4
  6
CONTINUOUS
 62
     7
 10
267.524290
 20
143.191041
 11
267.536292
 21
143.267355
  0
LINE
  8
CSLAYER4
  6
CONTINUOUS
 62
     7
 10
267.536292
 20
143.267355
 11
267.549435
 21
143.343655
  0
LINE
  8
CSLAYER4
  6
CONTINUOUS
 62
     7
 10
267.549435
 20
143.343655
 11
267.563772
 21
143.419797
  0
LINE
  8
CSLAYER4
  6
CONTINUOUS
 62
     7
 10
267.563772
 20
143.419797
 11
267.579345
 21
143.495637
  0
LINE
  8
CSLAYER4
  6
CONTINUOUS
 62
     7
 10
267.579345
 20
143.495637
 11
267.596223
 21
143.571044
  0
LINE
  8
CSLAYER4
  6
CONTINUOUS
 62
     7
 10
267.596223
 20
143.571044
 11
267.614433
 21
143.645861
  0
LINE
  8
CSLAYER4
  6
CONTINUOUS
 62
     7
 10
267.614433
 20
143.645861
 11
267.634057
 21
143.719957
  0
LINE
  8
CSLAYER4
  6
CONTINUOUS
 62
     7
 10
267.634057
 20
143.719957
 11
267.655137
 21
143.793188
  0
LINE
  8
CSLAYER4
  6
CONTINUOUS
 62
     7
 10
267.655137
 20
143.793188
 11
267.662251
 21
143.818924
  0
LINE
  8
CSLAYER4
  6
CONTINUOUS
 62
     7
 10
267.662251
 20
143.818924
 11
267.669584
 21
143.844741
  0
LINE
  8
CSLAYER4
  6
CONTINUOUS
 62
     7
 10
267.669584
 20
143.844741
 11
267.677137
 21
143.870621
  0
LINE
  8
CSLAYER4
  6
CONTINUOUS
 62
     7
 10
267.677137
 20
143.870621
 11
267.684910
 21
143.896521
  0
LINE
  8
CSLAYER4
  6
CONTINUOUS
 62
     7
 10
267.684910
 20
143.896521
 11
267.692903
 21
143.922421
  0
LINE
  8
CSLAYER4
  6
CONTINUOUS
 62
     7
 10
267.692903
 20
143.922421
 11
267.701142
 21
143.948294
  0
LINE
  8
CSLAYER4
  6
CONTINUOUS
 62
     7
 10
267.701142
 20
143.948294
 11
267.709602
 21
143.974105
  0
LINE
  8
CSLAYER4
  6
CONTINUOUS
 62
     7
 10
267.709602
 20
143.974105
 11
267.718295
 21
143.999834
  0
LINE
  8
CSLAYER4
  6
CONTINUOUS
 62
     7
 10
267.718295
 20
143.999834
 11
267.727221
 21
144.025439
  0
LINE
  8
CSLAYER4
  6
CONTINUOUS
 62
     7
 10
267.727221
 20
144.025439
 11
267.736409
 21
144.050900
  0
LINE
  8
CSLAYER4
  6
CONTINUOUS
 62
     7
 10
267.736409
 20
144.050900
 11
267.745829
 21
144.076189
  0
LINE
  8
CSLAYER4
  6
CONTINUOUS
 62
     7
 10
267.745829
 20
144.076189
 11
267.755483
 21
144.101279
  0
LINE
  8
CSLAYER4
  6
CONTINUOUS
 62
     7
 10
267.755483
 20
144.101279
 11
267.765413
 21
144.126128
  0
LINE
  8
CSLAYER4
  6
CONTINUOUS
 62
     7
 10
267.765413
 20
144.126128
 11
267.775602
 21
144.150793
  0
LINE
  8
CSLAYER4
  6
CONTINUOUS
 62
     7
 10
267.775602
 20
144.150793
 11
267.786204
 21
144.175492
  0
LINE
  8
CSLAYER4
  6
CONTINUOUS
 62
     7
 10
267.786204
 20
144.175492
 11
267.797218
 21
144.200190
  0
LINE
  8
CSLAYER4
  6
CONTINUOUS
 62
     7
 10
267.797218
 20
144.200190
 11
267.808658
 21
144.224834
  0
LINE
  8
CSLAYER4
  6
CONTINUOUS
 62
     7
 10
267.808658
 20
144.224834
 11
267.820523
 21
144.249340
  0
LINE
  8
CSLAYER4
  6
CONTINUOUS
 62
     7
 10
267.820523
 20
144.249340
 11
267.832814
 21
144.273668
  0
LINE
  8
CSLAYER4
  6
CONTINUOUS
 62
     7
 10
267.832814
 20
144.273668
 11
267.845558
 21
144.297742
  0
LINE
  8
CSLAYER4
  6
CONTINUOUS
 62
     7
 10
267.845558
 20
144.297742
 11
267.858741
 21
144.321500
  0
LINE
  8
CSLAYER4
  6
CONTINUOUS
 62
     7
 10
267.858741
 20
144.321500
 11
267.872364
 21
144.344880
  0
LINE
  8
CSLAYER4
  6
CONTINUOUS
 62
     7
 10
267.872364
 20
144.344880
 11
267.886454
 21
144.367821
  0
LINE
  8
CSLAYER4
  6
CONTINUOUS
 62
     7
 10
267.886454
 20
144.367821
 11
267.900998
 21
144.390260
  0
LINE
  8
CSLAYER4
  6
CONTINUOUS
 62
     7
 10
267.900998
 20
144.390260
 11
267.913385
 21
144.404804
  0
LINE
  8
CSLAYER4
  6
CONTINUOUS
 62
     7
 10
267.913385
 20
144.404804
 11
267.926101
 21
144.419107
  0
LINE
  8
CSLAYER4
  6
CONTINUOUS
 62
     7
 10
267.926101
 20
144.419107
 11
267.939147
 21
144.433121
  0
LINE
  8
CSLAYER4
  6
CONTINUOUS
 62
     7
 10
267.939147
 20
144.433121
 11
267.952551
 21
144.446827
  0
LINE
  8
CSLAYER4
  6
CONTINUOUS
 62
     7
 10
267.952551
 20
144.446827
 11
267.966284
 21
144.460175
  0
LINE
  8
CSLAYER4
  6
CONTINUOUS
 62
     7
 10
267.966284
 20
144.460175
 11
267.980360
 21
144.473138
  0
LINE
  8
CSLAYER4
  6
CONTINUOUS
 62
     7
 10
267.980360
 20
144.473138
 11
267.994779
 21
144.485677
  0
LINE
  8
CSLAYER4
  6
CONTINUOUS
 62
     7
 10
267.994779
 20
144.485677
 11
268.009556
 21
144.497755
  0
LINE
  8
CSLAYER4
  6
CONTINUOUS
 62
     7
 10
268.009556
 20
144.497755
 11
268.024676
 21
144.509345
  0
LINE
  8
CSLAYER4
  6
CONTINUOUS
 62
     7
 10
268.024676
 20
144.509345
 11
268.040153
 21
144.520414
  0
LINE
  8
CSLAYER4
  6
CONTINUOUS
 62
     7
 10
268.040153
 20
144.520414
 11
268.055973
 21
144.530913
  0
LINE
  8
CSLAYER4
  6
CONTINUOUS
 62
     7
 10
268.055973
 20
144.530913
 11
268.072164
 21
144.540821
  0
LINE
  8
CSLAYER4
  6
CONTINUOUS
 62
     7
 10
268.072164
 20
144.540821
 11
268.088712
 21
144.550105
  0
LINE
  8
CSLAYER4
  6
CONTINUOUS
 62
     7
 10
268.088712
 20
144.550105
 11
268.105618
 21
144.558722
  0
LINE
  8
CSLAYER4
  6
CONTINUOUS
 62
     7
 10
268.105618
 20
144.558722
 11
268.122894
 21
144.566639
  0
LINE
  8
CSLAYER4
  6
CONTINUOUS
 62
     7
 10
268.122894
 20
144.566639
 11
268.140500
 21
144.573808
  0
LINE
  8
CSLAYER4
  6
CONTINUOUS
 62
     7
 10
268.140500
 20
144.573808
 11
268.158256
 21
144.580145
  0
LINE
  8
CSLAYER4
  6
CONTINUOUS
 62
     7
 10
268.158256
 20
144.580145
 11
268.176191
 21
144.585652
  0
LINE
  8
CSLAYER4
  6
CONTINUOUS
 62
     7
 10
268.176191
 20
144.585652
 11
268.194305
 21
144.590329
  0
LINE
  8
CSLAYER4
  6
CONTINUOUS
 62
     7
 10
268.194305
 20
144.590329
 11
268.212570
 21
144.594153
  0
LINE
  8
CSLAYER4
  6
CONTINUOUS
 62
     7
 10
268.212570
 20
144.594153
 11
268.231013
 21
144.597140
  0
LINE
  8
CSLAYER4
  6
CONTINUOUS
 62
     7
 10
268.231013
 20
144.597140
 11
268.249621
 21
144.599275
  0
LINE
  8
CSLAYER4
  6
CONTINUOUS
 62
     7
 10
268.249621
 20
144.599275
 11
268.268394
 21
144.600559
  0
LINE
  8
CSLAYER4
  6
CONTINUOUS
 62
     7
 10
268.268394
 20
144.600559
 11
268.287332
 21
144.600992
  0
LINE
  8
CSLAYER4
  6
CONTINUOUS
 62
     7
 10
268.287332
 20
144.600992
 11
268.308810
 21
144.600264
  0
LINE
  8
CSLAYER4
  6
CONTINUOUS
 62
     7
 10
268.308810
 20
144.600264
 11
268.330082
 21
144.598101
  0
LINE
  8
CSLAYER4
  6
CONTINUOUS
 62
     7
 10
268.330082
 20
144.598101
 11
268.351121
 21
144.594558
  0
LINE
  8
CSLAYER4
  6
CONTINUOUS
 62
     7
 10
268.351121
 20
144.594558
 11
268.371954
 21
144.589669
  0
LINE
  8
CSLAYER4
  6
CONTINUOUS
 62
     7
 10
268.371954
 20
144.589669
 11
268.392553
 21
144.583483
  0
LINE
  8
CSLAYER4
  6
CONTINUOUS
 62
     7
 10
268.392553
 20
144.583483
 11
268.412823
 21
144.576080
  0
LINE
  8
CSLAYER4
  6
CONTINUOUS
 62
     7
 10
268.412823
 20
144.576080
 11
268.432667
 21
144.567587
  0
LINE
  8
CSLAYER4
  6
CONTINUOUS
 62
     7
 10
268.432667
 20
144.567587
 11
268.452044
 21
144.558077
  0
LINE
  8
CSLAYER4
  6
CONTINUOUS
 62
     7
 10
268.452044
 20
144.558077
 11
268.470968
 21
144.547654
  0
LINE
  8
CSLAYER4
  6
CONTINUOUS
 62
     7
 10
268.470968
 20
144.547654
 11
268.489425
 21
144.536392
  0
LINE
  8
CSLAYER4
  6
CONTINUOUS
 62
     7
 10
268.489425
 20
144.536392
 11
268.507429
 21
144.524369
  0
LINE
  8
CSLAYER4
  6
CONTINUOUS
 62
     7
 10
268.507429
 20
144.524369
 11
268.525076
 21
144.511584
  0
LINE
  8
CSLAYER4
  6
CONTINUOUS
 62
     7
 10
268.525076
 20
144.511584
 11
268.542407
 21
144.498077
  0
LINE
  8
CSLAYER4
  6
CONTINUOUS
 62
     7
 10
268.542407
 20
144.498077
 11
268.559381
 21
144.483919
  0
LINE
  8
CSLAYER4
  6
CONTINUOUS
 62
     7
 10
268.559381
 20
144.483919
 11
268.576011
 21
144.469163
  0
LINE
  8
CSLAYER4
  6
CONTINUOUS
 62
     7
 10
268.576011
 20
144.469163
 11
268.592285
 21
144.453885
  0
LINE
  8
CSLAYER4
  6
CONTINUOUS
 62
     7
 10
268.592285
 20
144.453885
 11
268.608201
 21
144.438133
  0
LINE
  8
CSLAYER4
  6
CONTINUOUS
 62
     7
 10
268.608201
 20
144.438133
 11
268.623747
 21
144.421976
  0
LINE
  8
CSLAYER4
  6
CONTINUOUS
 62
     7
 10
268.623747
 20
144.421976
 11
268.638908
 21
144.405476
  0
LINE
  8
CSLAYER4
  6
CONTINUOUS
 62
     7
 10
268.638908
 20
144.405476
 11
268.653684
 21
144.388695
  0
LINE
  8
CSLAYER4
  6
CONTINUOUS
 62
     7
 10
268.653684
 20
144.388695
 11
268.668063
 21
144.371701
  0
LINE
  8
CSLAYER4
  6
CONTINUOUS
 62
     7
 10
268.668063
 20
144.371701
 11
268.682057
 21
144.354541
  0
LINE
  8
CSLAYER4
  6
CONTINUOUS
 62
     7
 10
268.682057
 20
144.354541
 11
268.695639
 21
144.337292
  0
LINE
  8
CSLAYER4
  6
CONTINUOUS
 62
     7
 10
268.695639
 20
144.337292
 11
268.708794
 21
144.320017
  0
LINE
  8
CSLAYER4
  6
CONTINUOUS
 62
     7
 10
268.708794
 20
144.320017
 11
268.726675
 21
144.294172
  0
LINE
  8
CSLAYER4
  6
CONTINUOUS
 62
     7
 10
268.726675
 20
144.294172
 11
268.743882
 21
144.267694
  0
LINE
  8
CSLAYER4
  6
CONTINUOUS
 62
     7
 10
268.743882
 20
144.267694
 11
268.760417
 21
144.240661
  0
LINE
  8
CSLAYER4
  6
CONTINUOUS
 62
     7
 10
268.760417
 20
144.240661
 11
268.776292
 21
144.213133
  0
LINE
  8
CSLAYER4
  6
CONTINUOUS
 62
     7
 10
268.776292
 20
144.213133
 11
268.791549
 21
144.185173
  0
LINE
  8
CSLAYER4
  6
CONTINUOUS
 62
     7
 10
268.791549
 20
144.185173
 11
268.806175
 21
144.156856
  0
LINE
  8
CSLAYER4
  6
CONTINUOUS
 62
     7
 10
268.806175
 20
144.156856
 11
268.820210
 21
144.128243
  0
LINE
  8
CSLAYER4
  6
CONTINUOUS
 62
     7
 10
268.820210
 20
144.128243
 11
268.833641
 21
144.099411
  0
LINE
  8
CSLAYER4
  6
CONTINUOUS
 62
     7
 10
268.833641
 20
144.099411
 11
268.846494
 21
144.070414
  0
LINE
  8
CSLAYER4
  6
CONTINUOUS
 62
     7
 10
268.846494
 20
144.070414
 11
268.858785
 21
144.041335
  0
LINE
  8
CSLAYER4
  6
CONTINUOUS
 62
     7
 10
268.858785
 20
144.041335
 11
268.870527
 21
144.012214
  0
LINE
  8
CSLAYER4
  6
CONTINUOUS
 62
     7
 10
268.870527
 20
144.012214
 11
268.881857
 21
143.982846
  0
LINE
  8
CSLAYER4
  6
CONTINUOUS
 62
     7
 10
268.881857
 20
143.982846
 11
268.892788
 21
143.953190
  0
LINE
  8
CSLAYER4
  6
CONTINUOUS
 62
     7
 10
268.892788
 20
143.953190
 11
268.903335
 21
143.923273
  0
LINE
  8
CSLAYER4
  6
CONTINUOUS
 62
     7
 10
268.903335
 20
143.923273
 11
268.913525
 21
143.893136
  0
LINE
  8
CSLAYER4
  6
CONTINUOUS
 62
     7
 10
268.913525
 20
143.893136
 11
268.923344
 21
143.862807
  0
LINE
  8
CSLAYER4
  6
CONTINUOUS
 62
     7
 10
268.923344
 20
143.862807
 11
268.932819
 21
143.832326
  0
LINE
  8
CSLAYER4
  6
CONTINUOUS
 62
     7
 10
268.932819
 20
143.832326
 11
268.941938
 21
143.801730
  0
LINE
  8
CSLAYER4
  6
CONTINUOUS
 62
     7
 10
268.941938
 20
143.801730
 11
268.950714
 21
143.771044
  0
LINE
  8
CSLAYER4
  6
CONTINUOUS
 62
     7
 10
268.950714
 20
143.771044
 11
268.959159
 21
143.740309
  0
LINE
  8
CSLAYER4
  6
CONTINUOUS
 62
     7
 10
268.959159
 20
143.740309
 11
268.967289
 21
143.709562
  0
LINE
  8
CSLAYER4
  6
CONTINUOUS
 62
     7
 10
268.967289
 20
143.709562
 11
268.975089
 21
143.678834
  0
LINE
  8
CSLAYER4
  6
CONTINUOUS
 62
     7
 10
268.975089
 20
143.678834
 11
268.982588
 21
143.648161
  0
LINE
  8
CSLAYER4
  6
CONTINUOUS
 62
     7
 10
268.982588
 20
143.648161
 11
268.989784
 21
143.617578
  0
LINE
  8
CSLAYER4
  6
CONTINUOUS
 62
     7
 10
268.989784
 20
143.617578
 11
269.009449
 21
143.539253
  0
LINE
  8
CSLAYER4
  6
CONTINUOUS
 62
     7
 10
269.009449
 20
143.539253
 11
269.027783
 21
143.460433
  0
LINE
  8
CSLAYER4
  6
CONTINUOUS
 62
     7
 10
269.027783
 20
143.460433
 11
269.044784
 21
143.381180
  0
LINE
  8
CSLAYER4
  6
CONTINUOUS
 62
     7
 10
269.044784
 20
143.381180
 11
269.060535
 21
143.301570
  0
LINE
  8
CSLAYER4
  6
CONTINUOUS
 62
     7
 10
269.060535
 20
143.301570
 11
269.075037
 21
143.221652
  0
LINE
  8
CSLAYER4
  6
CONTINUOUS
 62
     7
 10
269.075037
 20
143.221652
 11
269.088345
 21
143.141492
  0
LINE
  8
CSLAYER4
  6
CONTINUOUS
 62
     7
 10
269.088345
 20
143.141492
 11
269.100485
 21
143.061162
  0
LINE
  8
CSLAYER4
  6
CONTINUOUS
 62
     7
 10
269.100485
 20
143.061162
 11
269.111512
 21
142.980708
  0
LINE
  8
CSLAYER4
  6
CONTINUOUS
 62
     7
 10
269.111512
 20
142.980708
 11
269.121468
 21
142.900212
  0
LINE
  8
CSLAYER4
  6
CONTINUOUS
 62
     7
 10
269.121468
 20
142.900212
 11
269.130368
 21
142.819724
  0
LINE
  8
CSLAYER4
  6
CONTINUOUS
 62
     7
 10
269.130368
 20
142.819724
 11
269.138264
 21
142.739317
  0
LINE
  8
CSLAYER4
  6
CONTINUOUS
 62
     7
 10
269.138264
 20
142.739317
 11
269.145199
 21
142.658870
  0
LINE
  8
CSLAYER4
  6
CONTINUOUS
 62
     7
 10
269.145199
 20
142.658870
 11
269.151242
 21
142.578176
  0
LINE
  8
CSLAYER4
  6
CONTINUOUS
 62
     7
 10
269.151242
 20
142.578176
 11
269.156405
 21
142.497275
  0
LINE
  8
CSLAYER4
  6
CONTINUOUS
 62
     7
 10
269.156405
 20
142.497275
 11
269.160717
 21
142.416209
  0
LINE
  8
CSLAYER4
  6
CONTINUOUS
 62
     7
 10
269.160717
 20
142.416209
 11
269.164205
 21
142.335020
  0
LINE
  8
CSLAYER4
  6
CONTINUOUS
 62
     7
 10
269.164205
 20
142.335020
 11
269.166897
 21
142.253743
  0
LINE
  8
CSLAYER4
  6
CONTINUOUS
 62
     7
 10
269.166897
 20
142.253743
 11
269.168806
 21
142.172416
  0
LINE
  8
CSLAYER4
  6
CONTINUOUS
 62
     7
 10
269.168806
 20
142.172416
 11
269.169960
 21
142.091096
  0
LINE
  8
CSLAYER4
  6
CONTINUOUS
 62
     7
 10
269.169960
 20
142.091096
 11
269.170399
 21
142.009811
  0
LINE
  8
CSLAYER4
  6
CONTINUOUS
 62
     7
 10
269.170399
 20
142.009811
 11
269.170138
 21
141.928602
  0
LINE
  8
CSLAYER4
  6
CONTINUOUS
 62
     7
 10
269.170138
 20
141.928602
 11
269.169191
 21
141.847516
  0
LINE
  8
CSLAYER4
  6
CONTINUOUS
 62
     7
 10
269.169191
 20
141.847516
 11
269.167598
 21
141.766595
  0
LINE
  8
CSLAYER4
  6
CONTINUOUS
 62
     7
 10
269.167598
 20
141.766595
 11
269.165387
 21
141.685866
  0
LINE
  8
CSLAYER4
  6
CONTINUOUS
 62
     7
 10
269.165387
 20
141.685866
 11
269.162805
 21
141.619777
  0
LINE
  8
CSLAYER4
  6
CONTINUOUS
 62
     7
 10
269.162805
 20
141.619777
 11
269.159769
 21
141.553385
  0
LINE
  8
CSLAYER4
  6
CONTINUOUS
 62
     7
 10
269.159769
 20
141.553385
 11
269.156254
 21
141.486746
  0
LINE
  8
CSLAYER4
  6
CONTINUOUS
 62
     7
 10
269.156254
 20
141.486746
 11
269.152230
 21
141.419928
  0
LINE
  8
CSLAYER4
  6
CONTINUOUS
 62
     7
 10
269.152230
 20
141.419928
 11
269.147671
 21
141.352987
  0
LINE
  8
CSLAYER4
  6
CONTINUOUS
 62
     7
 10
269.147671
 20
141.352987
 11
269.142576
 21
141.285998
  0
LINE
  8
CSLAYER4
  6
CONTINUOUS
 62
     7
 10
269.142576
 20
141.285998
 11
269.136918
 21
141.219023
  0
LINE
  8
CSLAYER4
  6
CONTINUOUS
 62
     7
 10
269.136918
 20
141.219023
 11
269.130656
 21
141.152116
  0
LINE
  8
CSLAYER4
  6
CONTINUOUS
 62
     7
 10
269.130656
 20
141.152116
 11
269.123776
 21
141.085346
  0
LINE
  8
CSLAYER4
  6
CONTINUOUS
 62
     7
 10
269.123776
 20
141.085346
 11
269.116278
 21
141.018783
  0
LINE
  8
CSLAYER4
  6
CONTINUOUS
 62
     7
 10
269.116278
 20
141.018783
 11
269.108106
 21
140.952473
  0
LINE
  8
CSLAYER4
  6
CONTINUOUS
 62
     7
 10
269.108106
 20
140.952473
 11
269.099262
 21
140.886494
  0
LINE
  8
CSLAYER4
  6
CONTINUOUS
 62
     7
 10
269.099262
 20
140.886494
 11
269.089718
 21
140.820905
  0
LINE
  8
CSLAYER4
  6
CONTINUOUS
 62
     7
 10
269.089718
 20
140.820905
 11
269.079419
 21
140.755564
  0
LINE
  8
CSLAYER4
  6
CONTINUOUS
 62
     7
 10
269.079419
 20
140.755564
 11
269.068226
 21
140.689921
  0
LINE
  8
CSLAYER4
  6
CONTINUOUS
 62
     7
 10
269.068226
 20
140.689921
 11
269.056086
 21
140.624051
  0
LINE
  8
CSLAYER4
  6
CONTINUOUS
 62
     7
 10
269.056086
 20
140.624051
 11
269.042958
 21
140.558099
  0
LINE
  8
CSLAYER4
  6
CONTINUOUS
 62
     7
 10
269.042958
 20
140.558099
 11
269.028785
 21
140.492195
  0
LINE
  8
CSLAYER4
  6
CONTINUOUS
 62
     7
 10
269.028785
 20
140.492195
 11
269.013542
 21
140.426469
  0
LINE
  8
CSLAYER4
  6
CONTINUOUS
 62
     7
 10
269.013542
 20
140.426469
 11
268.997158
 21
140.361073
  0
LINE
  8
CSLAYER4
  6
CONTINUOUS
 62
     7
 10
268.997158
 20
140.361073
 11
268.979621
 21
140.296123
  0
LINE
  8
CSLAYER4
  6
CONTINUOUS
 62
     7
 10
268.979621
 20
140.296123
 11
268.960862
 21
140.231770
  0
LINE
  8
CSLAYER4
  6
CONTINUOUS
 62
     7
 10
268.960862
 20
140.231770
 11
268.940853
 21
140.168146
  0
LINE
  8
CSLAYER4
  6
CONTINUOUS
 62
     7
 10
268.940853
 20
140.168146
 11
268.919540
 21
140.105380
  0
LINE
  8
CSLAYER4
  6
CONTINUOUS
 62
     7
 10
266.987828
 20
139.332697
 11
267.022380
 21
139.269725
  0
LINE
  8
CSLAYER4
  6
CONTINUOUS
 62
     7
 10
267.022380
 20
139.269725
 11
267.058497
 21
139.207069
  0
LINE
  8
CSLAYER4
  6
CONTINUOUS
 62
     7
 10
267.058497
 20
139.207069
 11
267.096207
 21
139.144962
  0
LINE
  8
CSLAYER4
  6
CONTINUOUS
 62
     7
 10
267.096207
 20
139.144962
 11
267.135539
 21
139.083610
  0
LINE
  8
CSLAYER4
  6
CONTINUOUS
 62
     7
 10
267.135539
 20
139.083610
 11
267.176518
 21
139.023247
  0
LINE
  8
CSLAYER4
  6
CONTINUOUS
 62
     7
 10
267.176518
 20
139.023247
 11
267.219172
 21
138.964085
  0
LINE
  8
CSLAYER4
  6
CONTINUOUS
 62
     7
 10
267.219172
 20
138.964085
 11
267.263529
 21
138.906338
  0
LINE
  8
CSLAYER4
  6
CONTINUOUS
 62
     7
 10
267.263529
 20
138.906338
 11
267.309617
 21
138.850240
  0
LINE
  8
CSLAYER4
  6
CONTINUOUS
 62
     7
 10
267.309617
 20
138.850240
 11
267.357476
 21
138.795995
  0
LINE
  8
CSLAYER4
  6
CONTINUOUS
 62
     7
 10
267.357476
 20
138.795995
 11
267.407135
 21
138.743837
  0
LINE
  8
CSLAYER4
  6
CONTINUOUS
 62
     7
 10
267.407135
 20
138.743837
 11
267.458606
 21
138.693973
  0
LINE
  8
CSLAYER4
  6
CONTINUOUS
 62
     7
 10
267.458606
 20
138.693973
 11
267.511971
 21
138.646588
  0
LINE
  8
CSLAYER4
  6
CONTINUOUS
 62
     7
 10
267.511971
 20
138.646588
 11
267.567288
 21
138.601880
  0
LINE
  8
CSLAYER4
  6
CONTINUOUS
 62
     7
 10
267.567288
 20
138.601880
 11
267.624581
 21
138.560063
  0
LINE
  8
CSLAYER4
  6
CONTINUOUS
 62
     7
 10
267.624581
 20
138.560063
 11
267.683921
 21
138.521364
  0
LINE
  8
CSLAYER4
  6
CONTINUOUS
 62
     7
 10
267.683921
 20
138.521364
 11
267.745321
 21
138.486002
  0
LINE
  8
CSLAYER4
  6
CONTINUOUS
 62
     7
 10
267.745321
 20
138.486002
 11
267.808822
 21
138.454196
  0
LINE
  8
CSLAYER4
  6
CONTINUOUS
 62
     7
 10
267.808822
 20
138.454196
 11
267.874356
 21
138.426209
  0
LINE
  8
CSLAYER4
  6
CONTINUOUS
 62
     7
 10
267.874356
 20
138.426209
 11
267.941001
 21
138.402547
  0
LINE
  8
CSLAYER4
  6
CONTINUOUS
 62
     7
 10
267.941001
 20
138.402547
 11
268.008540
 21
138.383273
  0
LINE
  8
CSLAYER4
  6
CONTINUOUS
 62
     7
 10
268.008540
 20
138.383273
 11
268.076943
 21
138.368345
  0
LINE
  8
CSLAYER4
  6
CONTINUOUS
 62
     7
 10
268.076943
 20
138.368345
 11
268.146226
 21
138.357730
  0
LINE
  8
CSLAYER4
  6
CONTINUOUS
 62
     7
 10
268.146226
 20
138.357730
 11
268.216360
 21
138.351392
  0
LINE
  8
CSLAYER4
  6
CONTINUOUS
 62
     7
 10
268.216360
 20
138.351392
 11
268.287332
 21
138.349284
  0
LINE
  8
CSLAYER4
  6
CONTINUOUS
 62
     7
 10
268.287332
 20
138.349284
 11
268.361750
 21
138.351557
  0
LINE
  8
CSLAYER4
  6
CONTINUOUS
 62
     7
 10
268.361750
 20
138.351557
 11
268.435606
 21
138.358450
  0
LINE
  8
CSLAYER4
  6
CONTINUOUS
 62
     7
 10
268.435606
 20
138.358450
 11
268.508857
 21
138.370096
  0
LINE
  8
CSLAYER4
  6
CONTINUOUS
 62
     7
 10
268.508857
 20
138.370096
 11
268.581463
 21
138.386610
  0
LINE
  8
CSLAYER4
  6
CONTINUOUS
 62
     7
 10
268.581463
 20
138.386610
 11
268.652833
 21
138.407923
  0
LINE
  8
CSLAYER4
  6
CONTINUOUS
 62
     7
 10
268.652833
 20
138.407923
 11
268.722390
 21
138.433810
  0
LINE
  8
CSLAYER4
  6
CONTINUOUS
 62
     7
 10
268.722390
 20
138.433810
 11
268.790162
 21
138.464159
  0
LINE
  8
CSLAYER4
  6
CONTINUOUS
 62
     7
 10
268.790162
 20
138.464159
 11
268.856163
 21
138.498856
  0
LINE
  8
CSLAYER4
  6
CONTINUOUS
 62
     7
 10
268.856163
 20
138.498856
 11
268.920062
 21
138.537555
  0
LINE
  8
CSLAYER4
  6
CONTINUOUS
 62
     7
 10
268.920062
 20
138.537555
 11
268.981558
 21
138.579811
  0
LINE
  8
CSLAYER4
  6
CONTINUOUS
 62
     7
 10
268.981558
 20
138.579811
 11
269.040664
 21
138.625329
  0
LINE
  8
CSLAYER4
  6
CONTINUOUS
 62
     7
 10
269.040664
 20
138.625329
 11
269.097450
 21
138.673841
  0
LINE
  8
CSLAYER4
  6
CONTINUOUS
 62
     7
 10
269.097450
 20
138.673841
 11
269.151956
 21
138.725051
  0
LINE
  8
CSLAYER4
  6
CONTINUOUS
 62
     7
 10
269.151956
 20
138.725051
 11
269.204223
 21
138.778698
  0
LINE
  8
CSLAYER4
  6
CONTINUOUS
 62
     7
 10
269.204223
 20
138.778698
 11
269.254293
 21
138.834481
  0
LINE
  8
CSLAYER4
  6
CONTINUOUS
 62
     7
 10
269.254293
 20
138.834481
 11
269.302235
 21
138.892139
  0
LINE
  8
CSLAYER4
  6
CONTINUOUS
 62
     7
 10
269.302235
 20
138.892139
 11
269.348130
 21
138.951451
  0
LINE
  8
CSLAYER4
  6
CONTINUOUS
 62
     7
 10
269.348130
 20
138.951451
 11
269.392241
 21
139.012474
  0
LINE
  8
CSLAYER4
  6
CONTINUOUS
 62
     7
 10
269.392241
 20
139.012474
 11
269.434647
 21
139.075020
  0
LINE
  8
CSLAYER4
  6
CONTINUOUS
 62
     7
 10
269.434647
 20
139.075020
 11
269.475352
 21
139.138864
  0
LINE
  8
CSLAYER4
  6
CONTINUOUS
 62
     7
 10
269.475352
 20
139.138864
 11
269.514408
 21
139.203800
  0
LINE
  8
CSLAYER4
  6
CONTINUOUS
 62
     7
 10
269.514408
 20
139.203800
 11
269.551844
 21
139.269602
  0
LINE
  8
CSLAYER4
  6
CONTINUOUS
 62
     7
 10
269.551844
 20
139.269602
 11
269.587687
 21
139.336055
  0
LINE
  8
CSLAYER4
  6
CONTINUOUS
 62
     7
 10
269.587687
 20
139.336055
 11
269.621978
 21
139.402942
  0
LINE
  8
CSLAYER4
  6
CONTINUOUS
 62
     7
 10
269.621978
 20
139.402942
 11
269.672721
 21
139.512296
  0
LINE
  8
CSLAYER4
  6
CONTINUOUS
 62
     7
 10
269.672721
 20
139.512296
 11
269.720100
 21
139.623437
  0
LINE
  8
CSLAYER4
  6
CONTINUOUS
 62
     7
 10
269.720100
 20
139.623437
 11
269.764224
 21
139.736218
  0
LINE
  8
CSLAYER4
  6
CONTINUOUS
 62
     7
 10
269.764224
 20
139.736218
 11
269.805203
 21
139.850497
  0
LINE
  8
CSLAYER4
  6
CONTINUOUS
 62
     7
 10
269.805203
 20
139.850497
 11
269.843106
 21
139.966121
  0
LINE
  8
CSLAYER4
  6
CONTINUOUS
 62
     7
 10
269.843106
 20
139.966121
 11
269.878056
 21
140.082933
  0
LINE
  8
CSLAYER4
  6
CONTINUOUS
 62
     7
 10
269.878056
 20
140.082933
 11
269.910150
 21
140.200782
  0
LINE
  8
CSLAYER4
  6
CONTINUOUS
 62
     7
 10
269.910150
 20
140.200782
 11
269.939483
 21
140.319530
  0
LINE
  8
CSLAYER4
  6
CONTINUOUS
 62
     7
 10
269.939483
 20
140.319530
 11
269.966153
 21
140.439021
  0
LINE
  8
CSLAYER4
  6
CONTINUOUS
 62
     7
 10
269.966153
 20
140.439021
 11
269.990253
 21
140.559108
  0
LINE
  8
CSLAYER4
  6
CONTINUOUS
 62
     7
 10
269.990253
 20
140.559108
 11
270.011897
 21
140.679635
  0
LINE
  8
CSLAYER4
  6
CONTINUOUS
 62
     7
 10
270.011897
 20
140.679635
 11
270.031178
 21
140.800457
  0
LINE
  8
CSLAYER4
  6
CONTINUOUS
 62
     7
 10
270.031178
 20
140.800457
 11
270.048193
 21
140.921423
  0
LINE
  8
CSLAYER4
  6
CONTINUOUS
 62
     7
 10
270.048193
 20
140.921423
 11
270.063038
 21
141.042383
  0
LINE
  8
CSLAYER4
  6
CONTINUOUS
 62
     7
 10
270.063038
 20
141.042383
 11
270.075824
 21
141.163184
  0
LINE
  8
CSLAYER4
  6
CONTINUOUS
 62
     7
 10
270.075824
 20
141.163184
 11
270.086645
 21
141.283677
  0
LINE
  8
CSLAYER4
  6
CONTINUOUS
 62
     7
 10
270.086645
 20
141.283677
 11
270.095599
 21
141.403792
  0
LINE
  8
CSLAYER4
  6
CONTINUOUS
 62
     7
 10
270.095599
 20
141.403792
 11
270.102836
 21
141.524072
  0
LINE
  8
CSLAYER4
  6
CONTINUOUS
 62
     7
 10
270.102836
 20
141.524072
 11
270.108411
 21
141.644605
  0
LINE
  8
CSLAYER4
  6
CONTINUOUS
 62
     7
 10
270.108411
 20
141.644605
 11
270.112394
 21
141.765304
  0
LINE
  8
CSLAYER4
  6
CONTINUOUS
 62
     7
 10
270.112394
 20
141.765304
 11
270.114852
 21
141.886064
  0
LINE
  8
CSLAYER4
  6
CONTINUOUS
 62
     7
 10
270.114852
 20
141.886064
 11
270.115841
 21
142.006797
  0
LINE
  8
CSLAYER4
  6
CONTINUOUS
 62
     7
 10
270.115841
 20
142.006797
 11
270.115429
 21
142.127413
  0
LINE
  8
CSLAYER4
  6
CONTINUOUS
 62
     7
 10
270.115429
 20
142.127413
 11
270.113685
 21
142.247824
  0
LINE
  8
CSLAYER4
  6
CONTINUOUS
 62
     7
 10
270.113685
 20
142.247824
 11
270.110636
 21
142.357110
  0
LINE
  8
CSLAYER4
  6
CONTINUOUS
 62
     7
 10
270.110636
 20
142.357110
 11
270.106324
 21
142.466911
  0
LINE
  8
CSLAYER4
  6
CONTINUOUS
 62
     7
 10
270.106324
 20
142.466911
 11
270.100653
 21
142.577132
  0
LINE
  8
CSLAYER4
  6
CONTINUOUS
 62
     7
 10
270.100653
 20
142.577132
 11
270.093566
 21
142.687654
  0
LINE
  8
CSLAYER4
  6
CONTINUOUS
 62
     7
 10
270.093566
 20
142.687654
 11
270.085011
 21
142.798390
  0
LINE
  8
CSLAYER4
  6
CONTINUOUS
 62
     7
 10
270.085011
 20
142.798390
 11
270.074917
 21
142.909235
  0
LINE
  8
CSLAYER4
  6
CONTINUOUS
 62
     7
 10
270.074917
 20
142.909235
 11
270.063203
 21
143.020080
  0
LINE
  8
CSLAYER4
  6
CONTINUOUS
 62
     7
 10
270.063203
 20
143.020080
 11
270.049827
 21
143.130829
  0
LINE
  8
CSLAYER4
  6
CONTINUOUS
 62
     7
 10
270.049827
 20
143.130829
 11
270.034694
 21
143.241379
  0
LINE
  8
CSLAYER4
  6
CONTINUOUS
 62
     7
 10
270.034694
 20
143.241379
 11
270.017774
 21
143.351633
  0
LINE
  8
CSLAYER4
  6
CONTINUOUS
 62
     7
 10
270.017774
 20
143.351633
 11
269.998974
 21
143.461477
  0
LINE
  8
CSLAYER4
  6
CONTINUOUS
 62
     7
 10
269.998974
 20
143.461477
 11
269.978237
 21
143.570818
  0
LINE
  8
CSLAYER4
  6
CONTINUOUS
 62
     7
 10
269.978237
 20
143.570818
 11
269.955495
 21
143.679548
  0
LINE
  8
CSLAYER4
  6
CONTINUOUS
 62
     7
 10
269.955495
 20
143.679548
 11
269.930681
 21
143.787571
  0
LINE
  8
CSLAYER4
  6
CONTINUOUS
 62
     7
 10
269.930681
 20
143.787571
 11
269.903736
 21
143.894777
  0
LINE
  8
CSLAYER4
  6
CONTINUOUS
 62
     7
 10
269.903736
 20
143.894777
 11
269.874595
 21
144.001070
  0
LINE
  8
CSLAYER4
  6
CONTINUOUS
 62
     7
 10
269.874595
 20
144.001070
 11
269.843188
 21
144.106353
  0
LINE
  8
CSLAYER4
  6
CONTINUOUS
 62
     7
 10
269.843188
 20
144.106353
 11
269.809446
 21
144.210511
  0
LINE
  8
CSLAYER4
  6
CONTINUOUS
 62
     7
 10
269.809446
 20
144.210511
 11
269.773287
 21
144.313541
  0
LINE
  8
CSLAYER4
  6
CONTINUOUS
 62
     7
 10
269.773287
 20
144.313541
 11
269.734520
 21
144.415591
  0
LINE
  8
CSLAYER4
  6
CONTINUOUS
 62
     7
 10
269.734520
 20
144.415591
 11
269.693073
 21
144.516562
  0
LINE
  8
CSLAYER4
  6
CONTINUOUS
 62
     7
 10
269.693073
 20
144.516562
 11
269.648840
 21
144.616331
  0
LINE
  8
CSLAYER4
  6
CONTINUOUS
 62
     7
 10
269.648840
 20
144.616331
 11
269.601764
 21
144.714755
  0
LINE
  8
CSLAYER4
  6
CONTINUOUS
 62
     7
 10
269.601764
 20
144.714755
 11
269.551734
 21
144.811723
  0
LINE
  8
CSLAYER4
  6
CONTINUOUS
 62
     7
 10
269.551734
 20
144.811723
 11
269.517800
 21
144.870692
  0
LINE
  8
CSLAYER4
  6
CONTINUOUS
 62
     7
 10
269.517800
 20
144.870692
 11
269.482328
 21
144.929037
  0
LINE
  8
CSLAYER4
  6
CONTINUOUS
 62
     7
 10
269.482328
 20
144.929037
 11
269.445277
 21
144.986578
  0
LINE
  8
CSLAYER4
  6
CONTINUOUS
 62
     7
 10
269.445277
 20
144.986578
 11
269.406605
 21
145.043123
  0
LINE
  8
CSLAYER4
  6
CONTINUOUS
 62
     7
 10
269.406605
 20
145.043123
 11
269.366271
 21
145.098494
  0
LINE
  8
CSLAYER4
  6
CONTINUOUS
 62
     7
 10
269.366271
 20
145.098494
 11
269.324249
 21
145.152506
  0
LINE
  8
CSLAYER4
  6
CONTINUOUS
 62
     7
 10
269.324249
 20
145.152506
 11
269.280482
 21
145.204979
  0
LINE
  8
CSLAYER4
  6
CONTINUOUS
 62
     7
 10
269.280482
 20
145.204979
 11
269.234971
 21
145.255729
  0
LINE
  8
CSLAYER4
  6
CONTINUOUS
 62
     7
 10
269.234971
 20
145.255729
 11
269.187647
 21
145.304570
  0
LINE
  8
CSLAYER4
  6
CONTINUOUS
 62
     7
 10
269.187647
 20
145.304570
 11
269.138498
 21
145.351310
  0
LINE
  8
CSLAYER4
  6
CONTINUOUS
 62
     7
 10
269.138498
 20
145.351310
 11
269.087589
 21
145.395674
  0
LINE
  8
CSLAYER4
  6
CONTINUOUS
 62
     7
 10
269.087589
 20
145.395674
 11
269.034938
 21
145.437505
  0
LINE
  8
CSLAYER4
  6
CONTINUOUS
 62
     7
 10
269.034938
 20
145.437505
 11
268.980486
 21
145.476650
  0
LINE
  8
CSLAYER4
  6
CONTINUOUS
 62
     7
 10
268.980486
 20
145.476650
 11
268.924209
 21
145.512974
  0
LINE
  8
CSLAYER4
  6
CONTINUOUS
 62
     7
 10
268.924209
 20
145.512974
 11
268.866050
 21
145.546324
  0
LINE
  8
CSLAYER4
  6
CONTINUOUS
 62
     7
 10
268.866050
 20
145.546324
 11
268.806010
 21
145.576564
  0
LINE
  8
CSLAYER4
  6
CONTINUOUS
 62
     7
 10
268.806010
 20
145.576564
 11
268.744047
 21
145.603535
  0
LINE
  8
CSLAYER4
  6
CONTINUOUS
 62
     7
 10
268.744047
 20
145.603535
 11
268.680999
 21
145.626813
  0
LINE
  8
CSLAYER4
  6
CONTINUOUS
 62
     7
 10
268.680999
 20
145.626813
 11
268.617168
 21
145.646327
  0
LINE
  8
CSLAYER4
  6
CONTINUOUS
 62
     7
 10
268.617168
 20
145.646327
 11
268.552596
 21
145.662148
  0
LINE
  8
CSLAYER4
  6
CONTINUOUS
 62
     7
 10
268.552596
 20
145.662148
 11
268.487310
 21
145.674335
  0
LINE
  8
CSLAYER4
  6
CONTINUOUS
 62
     7
 10
268.487310
 20
145.674335
 11
268.421324
 21
145.682953
  0
LINE
  8
CSLAYER4
  6
CONTINUOUS
 62
     7
 10
268.421324
 20
145.682953
 11
268.354650
 21
145.688075
  0
LINE
  8
CSLAYER4
  6
CONTINUOUS
 62
     7
 10
268.354650
 20
145.688075
 11
268.287332
 21
145.689772
  0
LINE
  8
CSLAYER4
  6
CONTINUOUS
 62
     7
 10
268.287332
 20
145.689772
 11
268.215632
 21
145.687334
  0
LINE
  8
CSLAYER4
  6
CONTINUOUS
 62
     7
 10
268.215632
 20
145.687334
 11
268.144578
 21
145.680007
  0
LINE
  8
CSLAYER4
  6
CONTINUOUS
 62
     7
 10
268.144578
 20
145.680007
 11
268.074156
 21
145.667737
  0
LINE
  8
CSLAYER4
  6
CONTINUOUS
 62
     7
 10
268.074156
 20
145.667737
 11
268.004420
 21
145.650488
  0
LINE
  8
CSLAYER4
  6
CONTINUOUS
 62
     7
 10
268.004420
 20
145.650488
 11
267.936167
 21
145.628522
  0
LINE
  8
CSLAYER4
  6
CONTINUOUS
 62
     7
 10
267.936167
 20
145.628522
 11
267.869645
 21
145.602087
  0
LINE
  8
CSLAYER4
  6
CONTINUOUS
 62
     7
 10
267.869645
 20
145.602087
 11
267.804853
 21
145.571394
  0
LINE
  8
CSLAYER4
  6
CONTINUOUS
 62
     7
 10
267.804853
 20
145.571394
 11
267.741806
 21
145.536656
  0
LINE
  8
CSLAYER4
  6
CONTINUOUS
 62
     7
 10
267.741806
 20
145.536656
 11
267.680777
 21
145.498294
  0
LINE
  8
CSLAYER4
  6
CONTINUOUS
 62
     7
 10
267.680777
 20
145.498294
 11
267.621807
 21
145.456642
  0
LINE
  8
CSLAYER4
  6
CONTINUOUS
 62
     7
 10
267.621807
 20
145.456642
 11
267.564898
 21
145.412003
  0
LINE
  8
CSLAYER4
  6
CONTINUOUS
 62
     7
 10
267.564898
 20
145.412003
 11
267.510008
 21
145.364672
  0
LINE
  8
CSLAYER4
  6
CONTINUOUS
 62
     7
 10
267.510008
 20
145.364672
 11
267.457136
 21
145.314966
  0
LINE
  8
CSLAYER4
  6
CONTINUOUS
 62
     7
 10
267.457136
 20
145.314966
 11
267.406242
 21
145.263179
  0
LINE
  8
CSLAYER4
  6
CONTINUOUS
 62
     7
 10
267.406242
 20
145.263179
 11
267.357311
 21
145.209621
  0
LINE
  8
CSLAYER4
  6
CONTINUOUS
 62
     7
 10
267.357311
 20
145.209621
 11
267.310331
 21
145.154593
  0
LINE
  8
CSLAYER4
  6
CONTINUOUS
 62
     7
 10
267.310331
 20
145.154593
 11
267.265150
 21
145.098212
  0
LINE
  8
CSLAYER4
  6
CONTINUOUS
 62
     7
 10
267.265150
 20
145.098212
 11
267.221383
 21
145.040294
  0
LINE
  8
CSLAYER4
  6
CONTINUOUS
 62
     7
 10
267.221383
 20
145.040294
 11
267.179017
 21
144.981016
  0
LINE
  8
CSLAYER4
  6
CONTINUOUS
 62
     7
 10
267.179017
 20
144.981016
 11
267.138052
 21
144.920578
  0
LINE
  8
CSLAYER4
  6
CONTINUOUS
 62
     7
 10
267.138052
 20
144.920578
 11
267.098460
 21
144.859178
  0
LINE
  8
CSLAYER4
  6
CONTINUOUS
 62
     7
 10
267.098460
 20
144.859178
 11
267.060227
 21
144.797023
  0
LINE
  8
CSLAYER4
  6
CONTINUOUS
 62
     7
 10
267.060227
 20
144.797023
 11
267.023355
 21
144.734311
  0
LINE
  8
CSLAYER4
  6
CONTINUOUS
 62
     7
 10
267.023355
 20
144.734311
 11
266.987828
 21
144.671236
  0
LINE
  8
CSLAYER4
  6
CONTINUOUS
 62
     7
 10
266.987828
 20
144.671236
 11
266.937744
 21
144.567332
  0
LINE
  8
CSLAYER4
  6
CONTINUOUS
 62
     7
 10
266.937744
 20
144.567332
 11
266.890544
 21
144.461878
  0
LINE
  8
CSLAYER4
  6
CONTINUOUS
 62
     7
 10
266.890544
 20
144.461878
 11
266.846145
 21
144.355001
  0
LINE
  8
CSLAYER4
  6
CONTINUOUS
 62
     7
 10
266.846145
 20
144.355001
 11
266.804480
 21
144.246814
  0
LINE
  8
CSLAYER4
  6
CONTINUOUS
 62
     7
 10
266.804480
 20
144.246814
 11
266.765451
 21
144.137431
  0
LINE
  8
CSLAYER4
  6
CONTINUOUS
 62
     7
 10
266.765451
 20
144.137431
 11
266.729003
 21
144.026963
  0
LINE
  8
CSLAYER4
  6
CONTINUOUS
 62
     7
 10
266.729003
 20
144.026963
 11
266.695056
 21
143.915541
  0
LINE
  8
CSLAYER4
  6
CONTINUOUS
 62
     7
 10
266.695056
 20
143.915541
 11
266.663538
 21
143.803268
  0
LINE
  8
CSLAYER4
  6
CONTINUOUS
 62
     7
 10
266.663538
 20
143.803268
 11
266.634356
 21
143.690260
  0
LINE
  8
CSLAYER4
  6
CONTINUOUS
 62
     7
 10
266.634356
 20
143.690260
 11
266.607453
 21
143.576647
  0
LINE
  8
CSLAYER4
  6
CONTINUOUS
 62
     7
 10
266.607453
 20
143.576647
 11
266.582734
 21
143.462534
  0
LINE
  8
CSLAYER4
  6
CONTINUOUS
 62
     7
 10
266.582734
 20
143.462534
 11
266.560130
 21
143.348036
  0
LINE
  8
CSLAYER4
  6
CONTINUOUS
 62
     7
 10
266.560130
 20
143.348036
 11
266.539572
 21
143.233277
  0
LINE
  8
CSLAYER4
  6
CONTINUOUS
 62
     7
 10
266.539572
 20
143.233277
 11
266.520963
 21
143.118367
  0
LINE
  8
CSLAYER4
  6
CONTINUOUS
 62
     7
 10
266.520963
 20
143.118367
 11
266.504250
 21
143.003429
  0
LINE
  8
CSLAYER4
  6
CONTINUOUS
 62
     7
 10
266.504250
 20
143.003429
 11
266.489351
 21
142.888574
  0
LINE
  8
CSLAYER4
  6
CONTINUOUS
 62
     7
 10
266.489351
 20
142.888574
 11
266.476194
 21
142.773897
  0
LINE
  8
CSLAYER4
  6
CONTINUOUS
 62
     7
 10
266.476194
 20
142.773897
 11
266.464631
 21
142.659055
  0
LINE
  8
CSLAYER4
  6
CONTINUOUS
 62
     7
 10
266.464631
 20
142.659055
 11
266.454620
 21
142.543925
  0
LINE
  8
CSLAYER4
  6
CONTINUOUS
 62
     7
 10
266.454620
 20
142.543925
 11
266.446106
 21
142.428604
  0
LINE
  8
CSLAYER4
  6
CONTINUOUS
 62
     7
 10
266.446106
 20
142.428604
 11
266.439019
 21
142.313151
  0
LINE
  8
CSLAYER4
  6
CONTINUOUS
 62
     7
 10
266.439019
 20
142.313151
 11
266.433320
 21
142.197657
  0
LINE
  8
CSLAYER4
  6
CONTINUOUS
 62
     7
 10
266.433320
 20
142.197657
 11
266.428953
 21
142.082198
  0
LINE
  8
CSLAYER4
  6
CONTINUOUS
 62
     7
 10
266.428953
 20
142.082198
 11
266.425877
 21
141.966848
  0
LINE
  8
CSLAYER4
  6
CONTINUOUS
 62
     7
 10
266.425877
 20
141.966848
 11
266.428926
 21
141.854671
  0
LINE
  8
CSLAYER4
  6
CONTINUOUS
 62
     7
 10
266.428926
 20
141.854671
 11
266.433265
 21
141.742006
  0
LINE
  8
CSLAYER4
  6
CONTINUOUS
 62
     7
 10
266.433265
 20
141.742006
 11
266.438964
 21
141.628930
  0
LINE
  8
CSLAYER4
  6
CONTINUOUS
 62
     7
 10
266.438964
 20
141.628930
 11
266.446078
 21
141.515557
  0
LINE
  8
CSLAYER4
  6
CONTINUOUS
 62
     7
 10
266.446078
 20
141.515557
 11
266.454661
 21
141.401986
  0
LINE
  8
CSLAYER4
  6
CONTINUOUS
 62
     7
 10
266.454661
 20
141.401986
 11
266.464796
 21
141.288305
  0
LINE
  8
CSLAYER4
  6
CONTINUOUS
 62
     7
 10
266.464796
 20
141.288305
 11
266.476551
 21
141.174624
  0
LINE
  8
CSLAYER4
  6
CONTINUOUS
 62
     7
 10
266.476551
 20
141.174624
 11
266.489969
 21
141.061046
  0
LINE
  8
CSLAYER4
  6
CONTINUOUS
 62
     7
 10
266.489969
 20
141.061046
 11
266.505129
 21
140.947660
  0
LINE
  8
CSLAYER4
  6
CONTINUOUS
 62
     7
 10
266.505129
 20
140.947660
 11
266.522090
 21
140.834570
  0
LINE
  8
CSLAYER4
  6
CONTINUOUS
 62
     7
 10
266.522090
 20
140.834570
 11
266.540931
 21
140.721877
  0
LINE
  8
CSLAYER4
  6
CONTINUOUS
 62
     7
 10
266.540931
 20
140.721877
 11
266.561696
 21
140.609673
  0
LINE
  8
CSLAYER4
  6
CONTINUOUS
 62
     7
 10
266.561696
 20
140.609673
 11
266.584464
 21
140.498072
  0
LINE
  8
CSLAYER4
  6
CONTINUOUS
 62
     7
 10
266.584464
 20
140.498072
 11
266.609294
 21
140.387158
  0
LINE
  8
CSLAYER4
  6
CONTINUOUS
 62
     7
 10
266.609294
 20
140.387158
 11
266.636238
 21
140.277048
  0
LINE
  8
CSLAYER4
  6
CONTINUOUS
 62
     7
 10
266.636238
 20
140.277048
 11
266.665392
 21
140.167823
  0
LINE
  8
CSLAYER4
  6
CONTINUOUS
 62
     7
 10
266.665392
 20
140.167823
 11
266.696786
 21
140.059594
  0
LINE
  8
CSLAYER4
  6
CONTINUOUS
 62
     7
 10
266.696786
 20
140.059594
 11
266.730514
 21
139.952457
  0
LINE
  8
CSLAYER4
  6
CONTINUOUS
 62
     7
 10
266.730514
 20
139.952457
 11
266.766645
 21
139.846425
  0
LINE
  8
CSLAYER4
  6
CONTINUOUS
 62
     7
 10
266.766645
 20
139.846425
 11
266.805359
 21
139.741341
  0
LINE
  8
CSLAYER4
  6
CONTINUOUS
 62
     7
 10
266.805359
 20
139.741341
 11
266.846763
 21
139.637300
  0
LINE
  8
CSLAYER4
  6
CONTINUOUS
 62
     7
 10
266.846763
 20
139.637300
 11
266.890914
 21
139.534427
  0
LINE
  8
CSLAYER4
  6
CONTINUOUS
 62
     7
 10
266.890914
 20
139.534427
 11
266.937908
 21
139.432852
  0
LINE
  8
CSLAYER4
  6
CONTINUOUS
 62
     7
 10
266.937908
 20
139.432852
 11
266.987828
 21
139.332697
  0
ENDBLK
  8
0
  0
BLOCK
  8
CSLAYER1
  2
BLKF0005
 70
   64
 10
0.0
 20
0.0
 30
0.0
  0
LINE
  8
CSLAYER4
  6
CONTINUOUS
 62
     7
 10
290.796320
 20
138.486448
 11
290.885639
 21
138.460781
  0
LINE
  8
CSLAYER4
  6
CONTINUOUS
 62
     7
 10
290.885639
 20
138.460781
 11
290.975507
 21
138.437806
  0
LINE
  8
CSLAYER4
  6
CONTINUOUS
 62
     7
 10
290.975507
 20
138.437806
 11
291.065897
 21
138.417632
  0
LINE
  8
CSLAYER4
  6
CONTINUOUS
 62
     7
 10
291.065897
 20
138.417632
 11
291.156788
 21
138.400370
  0
LINE
  8
CSLAYER4
  6
CONTINUOUS
 62
     7
 10
291.156788
 20
138.400370
 11
291.248147
 21
138.386143
  0
LINE
  8
CSLAYER4
  6
CONTINUOUS
 62
     7
 10
291.248147
 20
138.386143
 11
291.339937
 21
138.375047
  0
LINE
  8
CSLAYER4
  6
CONTINUOUS
 62
     7
 10
291.339937
 20
138.375047
 11
291.432140
 21
138.367205
  0
LINE
  8
CSLAYER4
  6
CONTINUOUS
 62
     7
 10
291.432140
 20
138.367205
 11
291.524720
 21
138.362722
  0
LINE
  8
CSLAYER4
  6
CONTINUOUS
 62
     7
 10
291.524720
 20
138.362722
 11
291.617658
 21
138.361705
  0
LINE
  8
CSLAYER4
  6
CONTINUOUS
 62
     7
 10
291.617658
 20
138.361705
 11
291.710472
 21
138.364253
  0
LINE
  8
CSLAYER4
  6
CONTINUOUS
 62
     7
 10
291.710472
 20
138.364253
 11
291.802668
 21
138.370378
  0
LINE
  8
CSLAYER4
  6
CONTINUOUS
 62
     7
 10
291.802668
 20
138.370378
 11
291.894252
 21
138.380080
  0
LINE
  8
CSLAYER4
  6
CONTINUOUS
 62
     7
 10
291.894252
 20
138.380080
 11
291.985219
 21
138.393373
  0
LINE
  8
CSLAYER4
  6
CONTINUOUS
 62
     7
 10
291.985219
 20
138.393373
 11
292.075582
 21
138.410251
  0
LINE
  8
CSLAYER4
  6
CONTINUOUS
 62
     7
 10
292.075582
 20
138.410251
 11
292.165326
 21
138.430720
  0
LINE
  8
CSLAYER4
  6
CONTINUOUS
 62
     7
 10
292.165326
 20
138.430720
 11
292.254439
 21
138.454780
  0
LINE
  8
CSLAYER4
  6
CONTINUOUS
 62
     7
 10
292.254439
 20
138.454780
 11
292.342948
 21
138.482438
  0
LINE
  8
CSLAYER4
  6
CONTINUOUS
 62
     7
 10
292.342948
 20
138.482438
 11
292.430770
 21
138.513667
  0
LINE
  8
CSLAYER4
  6
CONTINUOUS
 62
     7
 10
292.430770
 20
138.513667
 11
292.517287
 21
138.548198
  0
LINE
  8
CSLAYER4
  6
CONTINUOUS
 62
     7
 10
292.517287
 20
138.548198
 11
292.602349
 21
138.585888
  0
LINE
  8
CSLAYER4
  6
CONTINUOUS
 62
     7
 10
292.602349
 20
138.585888
 11
292.685982
 21
138.626620
  0
LINE
  8
CSLAYER4
  6
CONTINUOUS
 62
     7
 10
292.685982
 20
138.626620
 11
292.768173
 21
138.670291
  0
LINE
  8
CSLAYER4
  6
CONTINUOUS
 62
     7
 10
292.768173
 20
138.670291
 11
292.848965
 21
138.716811
  0
LINE
  8
CSLAYER4
  6
CONTINUOUS
 62
     7
 10
292.848965
 20
138.716811
 11
292.928354
 21
138.766064
  0
LINE
  8
CSLAYER4
  6
CONTINUOUS
 62
     7
 10
292.928354
 20
138.766064
 11
292.962398
 21
138.788387
  0
LINE
  8
CSLAYER4
  6
CONTINUOUS
 62
     7
 10
292.962398
 20
138.788387
 11
292.995755
 21
138.811595
  0
LINE
  8
CSLAYER4
  6
CONTINUOUS
 62
     7
 10
292.995755
 20
138.811595
 11
293.028426
 21
138.835676
  0
LINE
  8
CSLAYER4
  6
CONTINUOUS
 62
     7
 10
293.028426
 20
138.835676
 11
293.060424
 21
138.860615
  0
LINE
  8
CSLAYER4
  6
CONTINUOUS
 62
     7
 10
293.060424
 20
138.860615
 11
293.091749
 21
138.886399
  0
LINE
  8
CSLAYER4
  6
CONTINUOUS
 62
     7
 10
293.091749
 20
138.886399
 11
293.122428
 21
138.913020
  0
LINE
  8
CSLAYER4
  6
CONTINUOUS
 62
     7
 10
293.122428
 20
138.913020
 11
293.152434
 21
138.940458
  0
LINE
  8
CSLAYER4
  6
CONTINUOUS
 62
     7
 10
293.152434
 20
138.940458
 11
293.181795
 21
138.968714
  0
LINE
  8
CSLAYER4
  6
CONTINUOUS
 62
     7
 10
293.181795
 20
138.968714
 11
293.210483
 21
138.997745
  0
LINE
  8
CSLAYER4
  6
CONTINUOUS
 62
     7
 10
293.210483
 20
138.997745
 11
293.238443
 21
139.027449
  0
LINE
  8
CSLAYER4
  6
CONTINUOUS
 62
     7
 10
293.238443
 20
139.027449
 11
293.265662
 21
139.057806
  0
LINE
  8
CSLAYER4
  6
CONTINUOUS
 62
     7
 10
293.265662
 20
139.057806
 11
293.292167
 21
139.088780
  0
LINE
  8
CSLAYER4
  6
CONTINUOUS
 62
     7
 10
293.292167
 20
139.088780
 11
293.317957
 21
139.120359
  0
LINE
  8
CSLAYER4
  6
CONTINUOUS
 62
     7
 10
293.317957
 20
139.120359
 11
293.343047
 21
139.152515
  0
LINE
  8
CSLAYER4
  6
CONTINUOUS
 62
     7
 10
293.343047
 20
139.152515
 11
293.367450
 21
139.185227
  0
LINE
  8
CSLAYER4
  6
CONTINUOUS
 62
     7
 10
293.367450
 20
139.185227
 11
293.391167
 21
139.218467
  0
LINE
  8
CSLAYER4
  6
CONTINUOUS
 62
     7
 10
293.391167
 20
139.218467
 11
293.414211
 21
139.252216
  0
LINE
  8
CSLAYER4
  6
CONTINUOUS
 62
     7
 10
293.414211
 20
139.252216
 11
293.436609
 21
139.286438
  0
LINE
  8
CSLAYER4
  6
CONTINUOUS
 62
     7
 10
293.436609
 20
139.286438
 11
293.458335
 21
139.321093
  0
LINE
  8
CSLAYER4
  6
CONTINUOUS
 62
     7
 10
293.458335
 20
139.321093
 11
293.479415
 21
139.356167
  0
LINE
  8
CSLAYER4
  6
CONTINUOUS
 62
     7
 10
293.479415
 20
139.356167
 11
293.499863
 21
139.391618
  0
LINE
  8
CSLAYER4
  6
CONTINUOUS
 62
     7
 10
293.499863
 20
139.391618
 11
293.519679
 21
139.427434
  0
LINE
  8
CSLAYER4
  6
CONTINUOUS
 62
     7
 10
293.519679
 20
139.427434
 11
293.538878
 21
139.463586
  0
LINE
  8
CSLAYER4
  6
CONTINUOUS
 62
     7
 10
293.538878
 20
139.463586
 11
293.557487
 21
139.500040
  0
LINE
  8
CSLAYER4
  6
CONTINUOUS
 62
     7
 10
293.557487
 20
139.500040
 11
293.576960
 21
139.540429
  0
LINE
  8
CSLAYER4
  6
CONTINUOUS
 62
     7
 10
293.576960
 20
139.540429
 11
293.595307
 21
139.581332
  0
LINE
  8
CSLAYER4
  6
CONTINUOUS
 62
     7
 10
293.595307
 20
139.581332
 11
293.612541
 21
139.622723
  0
LINE
  8
CSLAYER4
  6
CONTINUOUS
 62
     7
 10
293.612541
 20
139.622723
 11
293.628692
 21
139.664567
  0
LINE
  8
CSLAYER4
  6
CONTINUOUS
 62
     7
 10
293.628692
 20
139.664567
 11
293.643798
 21
139.706837
  0
LINE
  8
CSLAYER4
  6
CONTINUOUS
 62
     7
 10
293.643798
 20
139.706837
 11
293.657874
 21
139.749484
  0
LINE
  8
CSLAYER4
  6
CONTINUOUS
 62
     7
 10
293.657874
 20
139.749484
 11
293.670962
 21
139.792489
  0
LINE
  8
CSLAYER4
  6
CONTINUOUS
 62
     7
 10
293.670962
 20
139.792489
 11
293.683074
 21
139.835809
  0
LINE
  8
CSLAYER4
  6
CONTINUOUS
 62
     7
 10
293.683074
 20
139.835809
 11
293.694239
 21
139.879411
  0
LINE
  8
CSLAYER4
  6
CONTINUOUS
 62
     7
 10
293.694239
 20
139.879411
 11
293.704484
 21
139.923268
  0
LINE
  8
CSLAYER4
  6
CONTINUOUS
 62
     7
 10
293.704484
 20
139.923268
 11
293.713849
 21
139.967344
  0
LINE
  8
CSLAYER4
  6
CONTINUOUS
 62
     7
 10
293.713849
 20
139.967344
 11
293.722350
 21
140.011598
  0
LINE
  8
CSLAYER4
  6
CONTINUOUS
 62
     7
 10
293.722350
 20
140.011598
 11
293.730013
 21
140.055996
  0
LINE
  8
CSLAYER4
  6
CONTINUOUS
 62
     7
 10
293.730013
 20
140.055996
 11
293.736879
 21
140.100518
  0
LINE
  8
CSLAYER4
  6
CONTINUOUS
 62
     7
 10
293.736879
 20
140.100518
 11
293.742963
 21
140.145116
  0
LINE
  8
CSLAYER4
  6
CONTINUOUS
 62
     7
 10
293.742963
 20
140.145116
 11
293.748291
 21
140.189762
  0
LINE
  8
CSLAYER4
  6
CONTINUOUS
 62
     7
 10
293.748291
 20
140.189762
 11
293.752905
 21
140.234421
  0
LINE
  8
CSLAYER4
  6
CONTINUOUS
 62
     7
 10
293.752905
 20
140.234421
 11
293.756820
 21
140.279149
  0
LINE
  8
CSLAYER4
  6
CONTINUOUS
 62
     7
 10
293.756820
 20
140.279149
 11
293.760074
 21
140.323973
  0
LINE
  8
CSLAYER4
  6
CONTINUOUS
 62
     7
 10
293.760074
 20
140.323973
 11
293.762697
 21
140.368866
  0
LINE
  8
CSLAYER4
  6
CONTINUOUS
 62
     7
 10
293.762697
 20
140.368866
 11
293.764689
 21
140.413807
  0
LINE
  8
CSLAYER4
  6
CONTINUOUS
 62
     7
 10
293.764689
 20
140.413807
 11
293.766089
 21
140.458755
  0
LINE
  8
CSLAYER4
  6
CONTINUOUS
 62
     7
 10
293.766089
 20
140.458755
 11
293.766927
 21
140.503689
  0
LINE
  8
CSLAYER4
  6
CONTINUOUS
 62
     7
 10
293.766927
 20
140.503689
 11
293.767188
 21
140.548589
  0
LINE
  8
CSLAYER4
  6
CONTINUOUS
 62
     7
 10
293.767188
 20
140.548589
 11
293.766584
 21
140.604708
  0
LINE
  8
CSLAYER4
  6
CONTINUOUS
 62
     7
 10
293.766584
 20
140.604708
 11
293.764702
 21
140.660828
  0
LINE
  8
CSLAYER4
  6
CONTINUOUS
 62
     7
 10
293.764702
 20
140.660828
 11
293.761489
 21
140.716892
  0
LINE
  8
CSLAYER4
  6
CONTINUOUS
 62
     7
 10
293.761489
 20
140.716892
 11
293.756902
 21
140.772847
  0
LINE
  8
CSLAYER4
  6
CONTINUOUS
 62
     7
 10
293.756902
 20
140.772847
 11
293.750887
 21
140.828651
  0
LINE
  8
CSLAYER4
  6
CONTINUOUS
 62
     7
 10
293.750887
 20
140.828651
 11
293.743361
 21
140.884255
  0
LINE
  8
CSLAYER4
  6
CONTINUOUS
 62
     7
 10
293.743361
 20
140.884255
 11
293.734298
 21
140.939606
  0
LINE
  8
CSLAYER4
  6
CONTINUOUS
 62
     7
 10
293.734298
 20
140.939606
 11
293.723613
 21
140.994661
  0
LINE
  8
CSLAYER4
  6
CONTINUOUS
 62
     7
 10
293.723613
 20
140.994661
 11
293.711267
 21
141.049366
  0
LINE
  8
CSLAYER4
  6
CONTINUOUS
 62
     7
 10
293.711267
 20
141.049366
 11
293.697219
 21
141.103632
  0
LINE
  8
CSLAYER4
  6
CONTINUOUS
 62
     7
 10
293.697219
 20
141.103632
 11
293.681467
 21
141.157231
  0
LINE
  8
CSLAYER4
  6
CONTINUOUS
 62
     7
 10
293.681467
 20
141.157231
 11
293.663972
 21
141.210110
  0
LINE
  8
CSLAYER4
  6
CONTINUOUS
 62
     7
 10
293.663972
 20
141.210110
 11
293.644704
 21
141.262247
  0
LINE
  8
CSLAYER4
  6
CONTINUOUS
 62
     7
 10
293.644704
 20
141.262247
 11
293.623638
 21
141.313615
  0
LINE
  8
CSLAYER4
  6
CONTINUOUS
 62
     7
 10
293.623638
 20
141.313615
 11
293.600731
 21
141.364180
  0
LINE
  8
CSLAYER4
  6
CONTINUOUS
 62
     7
 10
293.600731
 20
141.364180
 11
293.575943
 21
141.413920
  0
LINE
  8
CSLAYER4
  6
CONTINUOUS
 62
     7
 10
293.575943
 20
141.413920
 11
293.549233
 21
141.462809
  0
LINE
  8
CSLAYER4
  6
CONTINUOUS
 62
     7
 10
293.549233
 20
141.462809
 11
293.520586
 21
141.510820
  0
LINE
  8
CSLAYER4
  6
CONTINUOUS
 62
     7
 10
293.520586
 20
141.510820
 11
293.490126
 21
141.557676
  0
LINE
  8
CSLAYER4
  6
CONTINUOUS
 62
     7
 10
293.490126
 20
141.557676
 11
293.457964
 21
141.603180
  0
LINE
  8
CSLAYER4
  6
CONTINUOUS
 62
     7
 10
293.457964
 20
141.603180
 11
293.424153
 21
141.647345
  0
LINE
  8
CSLAYER4
  6
CONTINUOUS
 62
     7
 10
293.424153
 20
141.647345
 11
293.388681
 21
141.690178
  0
LINE
  8
CSLAYER4
  6
CONTINUOUS
 62
     7
 10
293.388681
 20
141.690178
 11
293.351561
 21
141.731686
  0
LINE
  8
CSLAYER4
  6
CONTINUOUS
 62
     7
 10
293.351561
 20
141.731686
 11
293.312821
 21
141.771889
  0
LINE
  8
CSLAYER4
  6
CONTINUOUS
 62
     7
 10
293.312821
 20
141.771889
 11
293.285835
 21
141.798496
  0
LINE
  8
CSLAYER4
  6
CONTINUOUS
 62
     7
 10
293.285835
 20
141.798496
 11
293.258507
 21
141.824678
  0
LINE
  8
CSLAYER4
  6
CONTINUOUS
 62
     7
 10
293.258507
 20
141.824678
 11
293.230849
 21
141.850441
  0
LINE
  8
CSLAYER4
  6
CONTINUOUS
 62
     7
 10
293.230849
 20
141.850441
 11
293.202875
 21
141.875779
  0
LINE
  8
CSLAYER4
  6
CONTINUOUS
 62
     7
 10
293.202875
 20
141.875779
 11
293.174571
 21
141.900697
  0
LINE
  8
CSLAYER4
  6
CONTINUOUS
 62
     7
 10
293.174571
 20
141.900697
 11
293.145939
 21
141.925196
  0
LINE
  8
CSLAYER4
  6
CONTINUOUS
 62
     7
 10
293.145939
 20
141.925196
 11
293.116976
 21
141.949277
  0
LINE
  8
CSLAYER4
  6
CONTINUOUS
 62
     7
 10
293.116976
 20
141.949277
 11
293.087711
 21
141.972946
  0
LINE
  8
CSLAYER4
  6
CONTINUOUS
 62
     7
 10
293.087711
 20
141.972946
 11
293.058117
 21
141.996202
  0
LINE
  8
CSLAYER4
  6
CONTINUOUS
 62
     7
 10
293.058117
 20
141.996202
 11
293.028206
 21
142.019047
  0
LINE
  8
CSLAYER4
  6
CONTINUOUS
 62
     7
 10
293.028206
 20
142.019047
 11
292.997980
 21
142.041479
  0
LINE
  8
CSLAYER4
  6
CONTINUOUS
 62
     7
 10
292.997980
 20
142.041479
 11
292.967452
 21
142.063507
  0
LINE
  8
CSLAYER4
  6
CONTINUOUS
 62
     7
 10
292.967452
 20
142.063507
 11
292.936608
 21
142.085137
  0
LINE
  8
CSLAYER4
  6
CONTINUOUS
 62
     7
 10
292.936608
 20
142.085137
 11
292.905462
 21
142.106354
  0
LINE
  8
CSLAYER4
  6
CONTINUOUS
 62
     7
 10
292.905462
 20
142.106354
 11
292.874000
 21
142.127180
  0
LINE
  8
CSLAYER4
  6
CONTINUOUS
 62
     7
 10
292.874000
 20
142.127180
 11
292.842249
 21
142.147601
  0
LINE
  8
CSLAYER4
  6
CONTINUOUS
 62
     7
 10
292.842249
 20
142.147601
 11
292.810182
 21
142.167623
  0
LINE
  8
CSLAYER4
  6
CONTINUOUS
 62
     7
 10
292.810182
 20
142.167623
 11
292.777828
 21
142.187248
  0
LINE
  8
CSLAYER4
  6
CONTINUOUS
 62
     7
 10
292.777828
 20
142.187248
 11
292.745226
 21
142.206446
  0
LINE
  8
CSLAYER4
  6
CONTINUOUS
 62
     7
 10
292.745226
 20
142.206446
 11
292.712404
 21
142.225226
  0
LINE
  8
CSLAYER4
  6
CONTINUOUS
 62
     7
 10
292.712404
 20
142.225226
 11
292.679349
 21
142.243580
  0
LINE
  8
CSLAYER4
  6
CONTINUOUS
 62
     7
 10
292.679349
 20
142.243580
 11
292.646061
 21
142.261522
  0
LINE
  8
CSLAYER4
  6
CONTINUOUS
 62
     7
 10
292.646061
 20
142.261522
 11
292.612566
 21
142.279045
  0
LINE
  8
CSLAYER4
  6
CONTINUOUS
 62
     7
 10
292.612566
 20
142.279045
 11
292.578838
 21
142.296157
  0
LINE
  8
CSLAYER4
  6
CONTINUOUS
 62
     7
 10
291.390492
 20
142.820431
 11
292.578842
 21
142.296160
  0
LINE
  8
CSLAYER4
  6
CONTINUOUS
 62
     7
 10
291.390495
 20
142.820431
 11
291.364973
 21
142.830813
  0
LINE
  8
CSLAYER4
  6
CONTINUOUS
 62
     7
 10
291.364973
 20
142.830813
 11
291.339525
 21
142.841511
  0
LINE
  8
CSLAYER4
  6
CONTINUOUS
 62
     7
 10
291.339525
 20
142.841511
 11
291.314168
 21
142.852532
  0
LINE
  8
CSLAYER4
  6
CONTINUOUS
 62
     7
 10
291.314168
 20
142.852532
 11
291.288912
 21
142.863889
  0
LINE
  8
CSLAYER4
  6
CONTINUOUS
 62
     7
 10
291.288912
 20
142.863889
 11
291.263788
 21
142.875575
  0
LINE
  8
CSLAYER4
  6
CONTINUOUS
 62
     7
 10
291.263788
 20
142.875575
 11
291.238801
 21
142.887613
  0
LINE
  8
CSLAYER4
  6
CONTINUOUS
 62
     7
 10
291.238801
 20
142.887613
 11
291.213965
 21
142.900000
  0
LINE
  8
CSLAYER4
  6
CONTINUOUS
 62
     7
 10
291.213965
 20
142.900000
 11
291.189308
 21
142.912736
  0
LINE
  8
CSLAYER4
  6
CONTINUOUS
 62
     7
 10
291.189308
 20
142.912736
 11
291.164836
 21
142.925838
  0
LINE
  8
CSLAYER4
  6
CONTINUOUS
 62
     7
 10
291.164836
 20
142.925838
 11
291.140570
 21
142.939303
  0
LINE
  8
CSLAYER4
  6
CONTINUOUS
 62
     7
 10
291.140570
 20
142.939303
 11
291.116523
 21
142.953146
  0
LINE
  8
CSLAYER4
  6
CONTINUOUS
 62
     7
 10
291.116523
 20
142.953146
 11
291.092717
 21
142.967366
  0
LINE
  8
CSLAYER4
  6
CONTINUOUS
 62
     7
 10
291.092717
 20
142.967366
 11
291.069165
 21
142.981964
  0
LINE
  8
CSLAYER4
  6
CONTINUOUS
 62
     7
 10
291.069165
 20
142.981964
 11
291.045881
 21
142.996961
  0
LINE
  8
CSLAYER4
  6
CONTINUOUS
 62
     7
 10
291.045881
 20
142.996961
 11
291.022878
 21
143.012355
  0
LINE
  8
CSLAYER4
  6
CONTINUOUS
 62
     7
 10
291.022878
 20
143.012355
 11
291.000185
 21
143.028155
  0
LINE
  8
CSLAYER4
  6
CONTINUOUS
 62
     7
 10
291.000185
 20
143.028155
 11
290.977807
 21
143.044360
  0
LINE
  8
CSLAYER4
  6
CONTINUOUS
 62
     7
 10
290.977807
 20
143.044360
 11
290.955773
 21
143.060977
  0
LINE
  8
CSLAYER4
  6
CONTINUOUS
 62
     7
 10
290.955773
 20
143.060977
 11
290.934075
 21
143.078019
  0
LINE
  8
CSLAYER4
  6
CONTINUOUS
 62
     7
 10
290.934075
 20
143.078019
 11
290.912741
 21
143.095508
  0
LINE
  8
CSLAYER4
  6
CONTINUOUS
 62
     7
 10
290.912741
 20
143.095508
 11
290.891771
 21
143.113429
  0
LINE
  8
CSLAYER4
  6
CONTINUOUS
 62
     7
 10
290.891771
 20
143.113429
 11
290.871192
 21
143.131811
  0
LINE
  8
CSLAYER4
  6
CONTINUOUS
 62
     7
 10
290.871192
 20
143.131811
 11
290.851018
 21
143.150645
  0
LINE
  8
CSLAYER4
  6
CONTINUOUS
 62
     7
 10
290.851018
 20
143.150645
 11
290.831270
 21
143.169947
  0
LINE
  8
CSLAYER4
  6
CONTINUOUS
 62
     7
 10
290.831270
 20
143.169947
 11
290.815347
 21
143.186282
  0
LINE
  8
CSLAYER4
  6
CONTINUOUS
 62
     7
 10
290.815347
 20
143.186282
 11
290.799891
 21
143.203023
  0
LINE
  8
CSLAYER4
  6
CONTINUOUS
 62
     7
 10
290.799891
 20
143.203023
 11
290.784908
 21
143.220161
  0
LINE
  8
CSLAYER4
  6
CONTINUOUS
 62
     7
 10
290.784908
 20
143.220161
 11
290.770433
 21
143.237712
  0
LINE
  8
CSLAYER4
  6
CONTINUOUS
 62
     7
 10
290.770433
 20
143.237712
 11
290.756481
 21
143.255682
  0
LINE
  8
CSLAYER4
  6
CONTINUOUS
 62
     7
 10
290.756481
 20
143.255682
 11
290.743085
 21
143.274070
  0
LINE
  8
CSLAYER4
  6
CONTINUOUS
 62
     7
 10
290.743085
 20
143.274070
 11
290.730258
 21
143.292891
  0
LINE
  8
CSLAYER4
  6
CONTINUOUS
 62
     7
 10
290.730258
 20
143.292891
 11
290.718029
 21
143.312138
  0
LINE
  8
CSLAYER4
  6
CONTINUOUS
 62
     7
 10
290.718029
 20
143.312138
 11
290.706411
 21
143.331831
  0
LINE
  8
CSLAYER4
  6
CONTINUOUS
 62
     7
 10
290.706411
 20
143.331831
 11
290.695479
 21
143.351894
  0
LINE
  8
CSLAYER4
  6
CONTINUOUS
 62
     7
 10
290.695479
 20
143.351894
 11
290.685282
 21
143.372247
  0
LINE
  8
CSLAYER4
  6
CONTINUOUS
 62
     7
 10
290.685282
 20
143.372247
 11
290.675820
 21
143.392887
  0
LINE
  8
CSLAYER4
  6
CONTINUOUS
 62
     7
 10
290.675820
 20
143.392887
 11
290.667114
 21
143.413816
  0
LINE
  8
CSLAYER4
  6
CONTINUOUS
 62
     7
 10
290.667114
 20
143.413816
 11
290.659149
 21
143.435033
  0
LINE
  8
CSLAYER4
  6
CONTINUOUS
 62
     7
 10
290.659149
 20
143.435033
 11
290.651939
 21
143.456546
  0
LINE
  8
CSLAYER4
  6
CONTINUOUS
 62
     7
 10
290.651939
 20
143.456546
 11
290.645484
 21
143.478347
  0
LINE
  8
CSLAYER4
  6
CONTINUOUS
 62
     7
 10
290.645484
 20
143.478347
 11
290.639792
 21
143.500436
  0
LINE
  8
CSLAYER4
  6
CONTINUOUS
 62
     7
 10
290.639792
 20
143.500436
 11
290.634869
 21
143.522821
  0
LINE
  8
CSLAYER4
  6
CONTINUOUS
 62
     7
 10
290.634869
 20
143.522821
 11
290.630735
 21
143.545350
  0
LINE
  8
CSLAYER4
  6
CONTINUOUS
 62
     7
 10
290.630735
 20
143.545350
 11
290.627391
 21
143.567975
  0
LINE
  8
CSLAYER4
  6
CONTINUOUS
 62
     7
 10
290.627391
 20
143.567975
 11
290.624817
 21
143.590682
  0
LINE
  8
CSLAYER4
  6
CONTINUOUS
 62
     7
 10
290.624817
 20
143.590682
 11
290.622997
 21
143.613472
  0
LINE
  8
CSLAYER4
  6
CONTINUOUS
 62
     7
 10
290.622997
 20
143.613472
 11
290.621919
 21
143.636338
  0
LINE
  8
CSLAYER4
  6
CONTINUOUS
 62
     7
 10
290.621919
 20
143.636338
 11
290.621562
 21
143.659265
  0
LINE
  8
CSLAYER4
  6
CONTINUOUS
 62
     7
 10
290.621562
 20
143.659265
 11
290.621981
 21
143.697566
  0
LINE
  8
CSLAYER4
  6
CONTINUOUS
 62
     7
 10
290.621981
 20
143.697566
 11
290.623272
 21
143.735963
  0
LINE
  8
CSLAYER4
  6
CONTINUOUS
 62
     7
 10
290.623272
 20
143.735963
 11
290.625497
 21
143.774387
  0
LINE
  8
CSLAYER4
  6
CONTINUOUS
 62
     7
 10
290.625497
 20
143.774387
 11
290.628710
 21
143.812778
  0
LINE
  8
CSLAYER4
  6
CONTINUOUS
 62
     7
 10
290.628710
 20
143.812778
 11
290.632974
 21
143.851072
  0
LINE
  8
CSLAYER4
  6
CONTINUOUS
 62
     7
 10
290.632974
 20
143.851072
 11
290.638337
 21
143.889194
  0
LINE
  8
CSLAYER4
  6
CONTINUOUS
 62
     7
 10
290.638337
 20
143.889194
 11
290.644866
 21
143.927098
  0
LINE
  8
CSLAYER4
  6
CONTINUOUS
 62
     7
 10
290.644866
 20
143.927098
 11
290.652619
 21
143.964712
  0
LINE
  8
CSLAYER4
  6
CONTINUOUS
 62
     7
 10
290.652619
 20
143.964712
 11
290.661648
 21
144.001963
  0
LINE
  8
CSLAYER4
  6
CONTINUOUS
 62
     7
 10
290.661648
 20
144.001963
 11
290.672010
 21
144.038794
  0
LINE
  8
CSLAYER4
  6
CONTINUOUS
 62
     7
 10
290.672010
 20
144.038794
 11
290.683758
 21
144.075097
  0
LINE
  8
CSLAYER4
  6
CONTINUOUS
 62
     7
 10
290.683758
 20
144.075097
 11
290.696894
 21
144.110720
  0
LINE
  8
CSLAYER4
  6
CONTINUOUS
 62
     7
 10
290.696894
 20
144.110720
 11
290.711471
 21
144.145616
  0
LINE
  8
CSLAYER4
  6
CONTINUOUS
 62
     7
 10
290.711471
 20
144.145616
 11
290.727532
 21
144.179742
  0
LINE
  8
CSLAYER4
  6
CONTINUOUS
 62
     7
 10
290.727532
 20
144.179742
 11
290.745117
 21
144.213058
  0
LINE
  8
CSLAYER4
  6
CONTINUOUS
 62
     7
 10
290.745117
 20
144.213058
 11
290.764274
 21
144.245502
  0
LINE
  8
CSLAYER4
  6
CONTINUOUS
 62
     7
 10
290.764274
 20
144.245502
 11
290.785038
 21
144.277053
  0
LINE
  8
CSLAYER4
  6
CONTINUOUS
 62
     7
 10
290.785038
 20
144.277053
 11
290.807464
 21
144.307650
  0
LINE
  8
CSLAYER4
  6
CONTINUOUS
 62
     7
 10
290.807464
 20
144.307650
 11
290.831456
 21
144.337087
  0
LINE
  8
CSLAYER4
  6
CONTINUOUS
 62
     7
 10
290.831456
 20
144.337087
 11
290.856779
 21
144.365102
  0
LINE
  8
CSLAYER4
  6
CONTINUOUS
 62
     7
 10
290.856779
 20
144.365102
 11
290.883428
 21
144.391696
  0
LINE
  8
CSLAYER4
  6
CONTINUOUS
 62
     7
 10
290.883428
 20
144.391696
 11
290.911374
 21
144.416888
  0
LINE
  8
CSLAYER4
  6
CONTINUOUS
 62
     7
 10
290.911374
 20
144.416888
 11
290.940598
 21
144.440701
  0
LINE
  8
CSLAYER4
  6
CONTINUOUS
 62
     7
 10
290.940598
 20
144.440701
 11
290.971078
 21
144.463148
  0
LINE
  8
CSLAYER4
  6
CONTINUOUS
 62
     7
 10
290.971078
 20
144.463148
 11
290.999148
 21
144.482106
  0
LINE
  8
CSLAYER4
  6
CONTINUOUS
 62
     7
 10
290.999148
 20
144.482106
 11
291.027754
 21
144.500021
  0
LINE
  8
CSLAYER4
  6
CONTINUOUS
 62
     7
 10
291.027754
 20
144.500021
 11
291.056895
 21
144.516844
  0
LINE
  8
CSLAYER4
  6
CONTINUOUS
 62
     7
 10
291.056895
 20
144.516844
 11
291.086572
 21
144.532540
  0
LINE
  8
CSLAYER4
  6
CONTINUOUS
 62
     7
 10
291.086572
 20
144.532540
 11
291.116805
 21
144.547070
  0
LINE
  8
CSLAYER4
  6
CONTINUOUS
 62
     7
 10
291.116805
 20
144.547070
 11
291.147587
 21
144.560384
  0
LINE
  8
CSLAYER4
  6
CONTINUOUS
 62
     7
 10
291.147587
 20
144.560384
 11
291.178926
 21
144.572448
  0
LINE
  8
CSLAYER4
  6
CONTINUOUS
 62
     7
 10
291.178926
 20
144.572448
 11
291.210821
 21
144.583215
  0
LINE
  8
CSLAYER4
  6
CONTINUOUS
 62
     7
 10
291.210821
 20
144.583215
 11
291.243278
 21
144.592642
  0
LINE
  8
CSLAYER4
  6
CONTINUOUS
 62
     7
 10
291.243278
 20
144.592642
 11
291.276024
 21
144.600628
  0
LINE
  8
CSLAYER4
  6
CONTINUOUS
 62
     7
 10
291.276024
 20
144.600628
 11
291.308901
 21
144.607144
  0
LINE
  8
CSLAYER4
  6
CONTINUOUS
 62
     7
 10
291.308901
 20
144.607144
 11
291.341908
 21
144.612205
  0
LINE
  8
CSLAYER4
  6
CONTINUOUS
 62
     7
 10
291.341908
 20
144.612205
 11
291.375039
 21
144.615830
  0
LINE
  8
CSLAYER4
  6
CONTINUOUS
 62
     7
 10
291.375039
 20
144.615830
 11
291.408300
 21
144.618035
  0
LINE
  8
CSLAYER4
  6
CONTINUOUS
 62
     7
 10
291.408300
 20
144.618035
 11
291.441677
 21
144.618838
  0
LINE
  8
CSLAYER4
  6
CONTINUOUS
 62
     7
 10
291.441677
 20
144.618838
 11
291.475179
 21
144.618254
  0
LINE
  8
CSLAYER4
  6
CONTINUOUS
 62
     7
 10
291.475179
 20
144.618254
 11
291.508790
 21
144.616297
  0
LINE
  8
CSLAYER4
  6
CONTINUOUS
 62
     7
 10
291.508790
 20
144.616297
 11
291.542456
 21
144.612995
  0
LINE
  8
CSLAYER4
  6
CONTINUOUS
 62
     7
 10
291.542456
 20
144.612995
 11
291.575958
 21
144.608408
  0
LINE
  8
CSLAYER4
  6
CONTINUOUS
 62
     7
 10
291.575958
 20
144.608408
 11
291.609246
 21
144.602578
  0
LINE
  8
CSLAYER4
  6
CONTINUOUS
 62
     7
 10
291.609246
 20
144.602578
 11
291.642308
 21
144.595574
  0
LINE
  8
CSLAYER4
  6
CONTINUOUS
 62
     7
 10
291.642308
 20
144.595574
 11
291.675130
 21
144.587438
  0
LINE
  8
CSLAYER4
  6
CONTINUOUS
 62
     7
 10
291.675130
 20
144.587438
 11
291.707705
 21
144.578230
  0
LINE
  8
CSLAYER4
  6
CONTINUOUS
 62
     7
 10
291.707705
 20
144.578230
 11
291.740004
 21
144.568006
  0
LINE
  8
CSLAYER4
  6
CONTINUOUS
 62
     7
 10
291.740004
 20
144.568006
 11
291.798252
 21
144.547818
  0
LINE
  8
CSLAYER4
  6
CONTINUOUS
 62
     7
 10
291.798252
 20
144.547818
 11
291.855079
 21
144.524410
  0
LINE
  8
CSLAYER4
  6
CONTINUOUS
 62
     7
 10
291.855079
 20
144.524410
 11
291.910403
 21
144.497666
  0
LINE
  8
CSLAYER4
  6
CONTINUOUS
 62
     7
 10
291.910403
 20
144.497666
 11
291.964153
 21
144.467488
  0
LINE
  8
CSLAYER4
  6
CONTINUOUS
 62
     7
 10
291.964153
 20
144.467488
 11
292.016022
 21
144.433910
  0
LINE
  8
CSLAYER4
  6
CONTINUOUS
 62
     7
 10
292.016022
 20
144.433910
 11
292.065474
 21
144.397264
  0
LINE
  8
CSLAYER4
  6
CONTINUOUS
 62
     7
 10
292.065474
 20
144.397264
 11
292.112468
 21
144.357610
  0
LINE
  8
CSLAYER4
  6
CONTINUOUS
 62
     7
 10
292.112468
 20
144.357610
 11
292.157059
 21
144.314990
  0
LINE
  8
CSLAYER4
  6
CONTINUOUS
 62
     7
 10
292.157059
 20
144.314990
 11
292.199178
 21
144.269514
  0
LINE
  8
CSLAYER4
  6
CONTINUOUS
 62
     7
 10
292.199178
 20
144.269514
 11
292.238481
 21
144.221758
  0
LINE
  8
CSLAYER4
  6
CONTINUOUS
 62
     7
 10
292.238481
 20
144.221758
 11
292.274984
 21
144.171969
  0
LINE
  8
CSLAYER4
  6
CONTINUOUS
 62
     7
 10
292.274984
 20
144.171969
 11
292.308808
 21
144.120320
  0
LINE
  8
CSLAYER4
  6
CONTINUOUS
 62
     7
 10
292.308808
 20
144.120320
 11
292.340036
 21
144.067001
  0
LINE
  8
CSLAYER4
  6
CONTINUOUS
 62
     7
 10
292.340036
 20
144.067001
 11
292.368793
 21
144.012180
  0
LINE
  8
CSLAYER4
  6
CONTINUOUS
 62
     7
 10
292.368793
 20
144.012180
 11
292.395174
 21
143.956040
  0
LINE
  8
CSLAYER4
  6
CONTINUOUS
 62
     7
 10
292.395174
 20
143.956040
 11
292.419289
 21
143.898753
  0
LINE
  8
CSLAYER4
  6
CONTINUOUS
 62
     7
 10
292.419289
 20
143.898753
 11
292.441248
 21
143.840491
  0
LINE
  8
CSLAYER4
  6
CONTINUOUS
 62
     7
 10
292.441248
 20
143.840491
 11
292.461202
 21
143.781281
  0
LINE
  8
CSLAYER4
  6
CONTINUOUS
 62
     7
 10
292.461202
 20
143.781281
 11
292.479233
 21
143.721262
  0
LINE
  8
CSLAYER4
  6
CONTINUOUS
 62
     7
 10
292.479233
 20
143.721262
 11
292.495438
 21
143.660583
  0
LINE
  8
CSLAYER4
  6
CONTINUOUS
 62
     7
 10
292.495438
 20
143.660583
 11
292.509926
 21
143.599423
  0
LINE
  8
CSLAYER4
  6
CONTINUOUS
 62
     7
 10
292.509926
 20
143.599423
 11
292.522767
 21
143.537927
  0
LINE
  8
CSLAYER4
  6
CONTINUOUS
 62
     7
 10
292.522767
 20
143.537927
 11
292.534055
 21
143.476267
  0
LINE
  8
CSLAYER4
  6
CONTINUOUS
 62
     7
 10
292.534055
 20
143.476267
 11
292.543888
 21
143.414606
  0
LINE
  8
CSLAYER4
  6
CONTINUOUS
 62
     7
 10
293.592434
 20
143.414606
 11
292.543890
 21
143.414606
  0
LINE
  8
CSLAYER4
  6
CONTINUOUS
 62
     7
 10
293.592437
 20
143.414606
 11
293.589195
 21
143.487844
  0
LINE
  8
CSLAYER4
  6
CONTINUOUS
 62
     7
 10
293.589195
 20
143.487844
 11
293.584485
 21
143.561060
  0
LINE
  8
CSLAYER4
  6
CONTINUOUS
 62
     7
 10
293.584485
 20
143.561060
 11
293.578237
 21
143.634195
  0
LINE
  8
CSLAYER4
  6
CONTINUOUS
 62
     7
 10
293.578237
 20
143.634195
 11
293.570395
 21
143.707186
  0
LINE
  8
CSLAYER4
  6
CONTINUOUS
 62
     7
 10
293.570395
 20
143.707186
 11
293.560892
 21
143.779970
  0
LINE
  8
CSLAYER4
  6
CONTINUOUS
 62
     7
 10
293.560892
 20
143.779970
 11
293.549658
 21
143.852480
  0
LINE
  8
CSLAYER4
  6
CONTINUOUS
 62
     7
 10
293.549658
 20
143.852480
 11
293.536640
 21
143.924660
  0
LINE
  8
CSLAYER4
  6
CONTINUOUS
 62
     7
 10
293.536640
 20
143.924660
 11
293.521781
 21
143.996449
  0
LINE
  8
CSLAYER4
  6
CONTINUOUS
 62
     7
 10
293.521781
 20
143.996449
 11
293.504985
 21
144.067771
  0
LINE
  8
CSLAYER4
  6
CONTINUOUS
 62
     7
 10
293.504985
 20
144.067771
 11
293.486240
 21
144.138550
  0
LINE
  8
CSLAYER4
  6
CONTINUOUS
 62
     7
 10
293.486240
 20
144.138550
 11
293.465476
 21
144.208601
  0
LINE
  8
CSLAYER4
  6
CONTINUOUS
 62
     7
 10
293.465476
 20
144.208601
 11
293.442693
 21
144.277850
  0
LINE
  8
CSLAYER4
  6
CONTINUOUS
 62
     7
 10
293.442693
 20
144.277850
 11
293.417809
 21
144.346260
  0
LINE
  8
CSLAYER4
  6
CONTINUOUS
 62
     7
 10
293.417809
 20
144.346260
 11
293.390783
 21
144.413771
  0
LINE
  8
CSLAYER4
  6
CONTINUOUS
 62
     7
 10
293.390783
 20
144.413771
 11
293.361559
 21
144.480341
  0
LINE
  8
CSLAYER4
  6
CONTINUOUS
 62
     7
 10
293.361559
 20
144.480341
 11
293.330097
 21
144.545923
  0
LINE
  8
CSLAYER4
  6
CONTINUOUS
 62
     7
 10
293.330097
 20
144.545923
 11
293.296341
 21
144.610475
  0
LINE
  8
CSLAYER4
  6
CONTINUOUS
 62
     7
 10
293.296341
 20
144.610475
 11
293.260238
 21
144.673948
  0
LINE
  8
CSLAYER4
  6
CONTINUOUS
 62
     7
 10
293.260238
 20
144.673948
 11
293.221881
 21
144.736076
  0
LINE
  8
CSLAYER4
  6
CONTINUOUS
 62
     7
 10
293.221881
 20
144.736076
 11
293.181411
 21
144.796590
  0
LINE
  8
CSLAYER4
  6
CONTINUOUS
 62
     7
 10
293.181411
 20
144.796590
 11
293.138811
 21
144.855484
  0
LINE
  8
CSLAYER4
  6
CONTINUOUS
 62
     7
 10
293.138811
 20
144.855484
 11
293.094083
 21
144.912743
  0
LINE
  8
CSLAYER4
  6
CONTINUOUS
 62
     7
 10
293.094083
 20
144.912743
 11
293.047240
 21
144.968375
  0
LINE
  8
CSLAYER4
  6
CONTINUOUS
 62
     7
 10
293.047240
 20
144.968375
 11
292.998255
 21
145.022372
  0
LINE
  8
CSLAYER4
  6
CONTINUOUS
 62
     7
 10
292.998255
 20
145.022372
 11
292.948720
 21
145.075828
  0
LINE
  8
CSLAYER4
  6
CONTINUOUS
 62
     7
 10
292.948720
 20
145.075828
 11
292.897716
 21
145.127642
  0
LINE
  8
CSLAYER4
  6
CONTINUOUS
 62
     7
 10
292.897716
 20
145.127642
 11
292.845229
 21
145.177740
  0
LINE
  8
CSLAYER4
  6
CONTINUOUS
 62
     7
 10
292.845229
 20
145.177740
 11
292.791218
 21
145.226025
  0
LINE
  8
CSLAYER4
  6
CONTINUOUS
 62
     7
 10
292.791218
 20
145.226025
 11
292.735682
 21
145.272415
  0
LINE
  8
CSLAYER4
  6
CONTINUOUS
 62
     7
 10
292.735682
 20
145.272415
 11
292.678580
 21
145.316827
  0
LINE
  8
CSLAYER4
  6
CONTINUOUS
 62
     7
 10
292.678580
 20
145.316827
 11
292.619872
 21
145.359172
  0
LINE
  8
CSLAYER4
  6
CONTINUOUS
 62
     7
 10
292.619872
 20
145.359172
 11
292.559571
 21
145.399361
  0
LINE
  8
CSLAYER4
  6
CONTINUOUS
 62
     7
 10
292.559571
 20
145.399361
 11
292.497608
 21
145.437313
  0
LINE
  8
CSLAYER4
  6
CONTINUOUS
 62
     7
 10
292.497608
 20
145.437313
 11
292.434327
 21
145.472750
  0
LINE
  8
CSLAYER4
  6
CONTINUOUS
 62
     7
 10
292.434327
 20
145.472750
 11
292.370057
 21
145.505476
  0
LINE
  8
CSLAYER4
  6
CONTINUOUS
 62
     7
 10
292.370057
 20
145.505476
 11
292.304798
 21
145.535496
  0
LINE
  8
CSLAYER4
  6
CONTINUOUS
 62
     7
 10
292.304798
 20
145.535496
 11
292.238537
 21
145.562804
  0
LINE
  8
CSLAYER4
  6
CONTINUOUS
 62
     7
 10
292.238537
 20
145.562804
 11
292.171286
 21
145.587413
  0
LINE
  8
CSLAYER4
  6
CONTINUOUS
 62
     7
 10
292.171286
 20
145.587413
 11
292.103048
 21
145.609324
  0
LINE
  8
CSLAYER4
  6
CONTINUOUS
 62
     7
 10
292.103048
 20
145.609324
 11
292.033834
 21
145.628536
  0
LINE
  8
CSLAYER4
  6
CONTINUOUS
 62
     7
 10
292.033834
 20
145.628536
 11
291.963617
 21
145.645064
  0
LINE
  8
CSLAYER4
  6
CONTINUOUS
 62
     7
 10
291.963617
 20
145.645064
 11
291.892488
 21
145.658893
  0
LINE
  8
CSLAYER4
  6
CONTINUOUS
 62
     7
 10
291.892488
 20
145.658893
 11
291.820960
 21
145.669969
  0
LINE
  8
CSLAYER4
  6
CONTINUOUS
 62
     7
 10
291.820960
 20
145.669969
 11
291.749192
 21
145.678346
  0
LINE
  8
CSLAYER4
  6
CONTINUOUS
 62
     7
 10
291.749192
 20
145.678346
 11
291.677211
 21
145.684100
  0
LINE
  8
CSLAYER4
  6
CONTINUOUS
 62
     7
 10
291.677211
 20
145.684100
 11
291.605058
 21
145.687320
  0
LINE
  8
CSLAYER4
  6
CONTINUOUS
 62
     7
 10
291.605058
 20
145.687320
 11
291.532775
 21
145.688075
  0
LINE
  8
CSLAYER4
  6
CONTINUOUS
 62
     7
 10
291.532775
 20
145.688075
 11
291.460395
 21
145.686448
  0
LINE
  8
CSLAYER4
  6
CONTINUOUS
 62
     7
 10
291.460395
 20
145.686448
 11
291.384281
 21
145.682404
  0
LINE
  8
CSLAYER4
  6
CONTINUOUS
 62
     7
 10
291.384281
 20
145.682404
 11
291.308606
 21
145.675874
  0
LINE
  8
CSLAYER4
  6
CONTINUOUS
 62
     7
 10
291.308606
 20
145.675874
 11
291.233384
 21
145.666803
  0
LINE
  8
CSLAYER4
  6
CONTINUOUS
 62
     7
 10
291.233384
 20
145.666803
 11
291.158656
 21
145.655130
  0
LINE
  8
CSLAYER4
  6
CONTINUOUS
 62
     7
 10
291.158656
 20
145.655130
 11
291.084443
 21
145.640800
  0
LINE
  8
CSLAYER4
  6
CONTINUOUS
 62
     7
 10
291.084443
 20
145.640800
 11
291.010780
 21
145.623751
  0
LINE
  8
CSLAYER4
  6
CONTINUOUS
 62
     7
 10
291.010780
 20
145.623751
 11
290.937693
 21
145.603920
  0
LINE
  8
CSLAYER4
  6
CONTINUOUS
 62
     7
 10
290.937693
 20
145.603920
 11
290.865211
 21
145.581261
  0
LINE
  8
CSLAYER4
  6
CONTINUOUS
 62
     7
 10
290.865211
 20
145.581261
 11
290.793381
 21
145.555711
  0
LINE
  8
CSLAYER4
  6
CONTINUOUS
 62
     7
 10
290.793381
 20
145.555711
 11
290.722746
 21
145.527435
  0
LINE
  8
CSLAYER4
  6
CONTINUOUS
 62
     7
 10
290.722746
 20
145.527435
 11
290.653560
 21
145.496549
  0
LINE
  8
CSLAYER4
  6
CONTINUOUS
 62
     7
 10
290.653560
 20
145.496549
 11
290.585795
 21
145.463089
  0
LINE
  8
CSLAYER4
  6
CONTINUOUS
 62
     7
 10
290.585795
 20
145.463089
 11
290.519437
 21
145.427081
  0
LINE
  8
CSLAYER4
  6
CONTINUOUS
 62
     7
 10
290.519437
 20
145.427081
 11
290.454487
 21
145.388561
  0
LINE
  8
CSLAYER4
  6
CONTINUOUS
 62
     7
 10
290.454487
 20
145.388561
 11
290.390924
 21
145.347568
  0
LINE
  8
CSLAYER4
  6
CONTINUOUS
 62
     7
 10
290.390924
 20
145.347568
 11
290.328735
 21
145.304117
  0
LINE
  8
CSLAYER4
  6
CONTINUOUS
 62
     7
 10
290.328735
 20
145.304117
 11
290.267905
 21
145.258256
  0
LINE
  8
CSLAYER4
  6
CONTINUOUS
 62
     7
 10
290.267905
 20
145.258256
 11
290.208497
 21
145.210067
  0
LINE
  8
CSLAYER4
  6
CONTINUOUS
 62
     7
 10
290.208497
 20
145.210067
 11
290.150805
 21
145.159873
  0
LINE
  8
CSLAYER4
  6
CONTINUOUS
 62
     7
 10
290.150805
 20
145.159873
 11
290.094829
 21
145.107798
  0
LINE
  8
CSLAYER4
  6
CONTINUOUS
 62
     7
 10
290.094829
 20
145.107798
 11
290.040557
 21
145.053938
  0
LINE
  8
CSLAYER4
  6
CONTINUOUS
 62
     7
 10
290.040557
 20
145.053938
 11
289.987939
 21
144.998388
  0
LINE
  8
CSLAYER4
  6
CONTINUOUS
 62
     7
 10
289.987939
 20
144.998388
 11
289.936962
 21
144.941232
  0
LINE
  8
CSLAYER4
  6
CONTINUOUS
 62
     7
 10
289.936962
 20
144.941232
 11
289.887579
 21
144.882565
  0
LINE
  8
CSLAYER4
  6
CONTINUOUS
 62
     7
 10
289.887579
 20
144.882565
 11
289.852835
 21
144.834863
  0
LINE
  8
CSLAYER4
  6
CONTINUOUS
 62
     7
 10
289.852835
 20
144.834863
 11
289.819526
 21
144.786304
  0
LINE
  8
CSLAYER4
  6
CONTINUOUS
 62
     7
 10
289.819526
 20
144.786304
 11
289.787658
 21
144.736900
  0
LINE
  8
CSLAYER4
  6
CONTINUOUS
 62
     7
 10
289.787658
 20
144.736900
 11
289.757253
 21
144.686637
  0
LINE
  8
CSLAYER4
  6
CONTINUOUS
 62
     7
 10
289.757253
 20
144.686637
 11
289.728318
 21
144.635516
  0
LINE
  8
CSLAYER4
  6
CONTINUOUS
 62
     7
 10
289.728318
 20
144.635516
 11
289.700853
 21
144.583531
  0
LINE
  8
CSLAYER4
  6
CONTINUOUS
 62
     7
 10
289.700853
 20
144.583531
 11
289.674870
 21
144.530680
  0
LINE
  8
CSLAYER4
  6
CONTINUOUS
 62
     7
 10
289.674870
 20
144.530680
 11
289.650377
 21
144.476950
  0
LINE
  8
CSLAYER4
  6
CONTINUOUS
 62
     7
 10
289.650377
 20
144.476950
 11
289.627395
 21
144.422375
  0
LINE
  8
CSLAYER4
  6
CONTINUOUS
 62
     7
 10
289.627395
 20
144.422375
 11
289.606041
 21
144.367217
  0
LINE
  8
CSLAYER4
  6
CONTINUOUS
 62
     7
 10
289.606041
 20
144.367217
 11
289.586313
 21
144.311571
  0
LINE
  8
CSLAYER4
  6
CONTINUOUS
 62
     7
 10
289.586313
 20
144.311571
 11
289.568199
 21
144.255451
  0
LINE
  8
CSLAYER4
  6
CONTINUOUS
 62
     7
 10
289.568199
 20
144.255451
 11
289.551665
 21
144.198865
  0
LINE
  8
CSLAYER4
  6
CONTINUOUS
 62
     7
 10
289.551665
 20
144.198865
 11
289.536703
 21
144.141818
  0
LINE
  8
CSLAYER4
  6
CONTINUOUS
 62
     7
 10
289.536703
 20
144.141818
 11
289.523279
 21
144.084340
  0
LINE
  8
CSLAYER4
  6
CONTINUOUS
 62
     7
 10
289.523279
 20
144.084340
 11
289.511373
 21
144.026428
  0
LINE
  8
CSLAYER4
  6
CONTINUOUS
 62
     7
 10
289.511373
 20
144.026428
 11
289.500970
 21
143.968104
  0
LINE
  8
CSLAYER4
  6
CONTINUOUS
 62
     7
 10
289.500970
 20
143.968104
 11
289.492044
 21
143.909416
  0
LINE
  8
CSLAYER4
  6
CONTINUOUS
 62
     7
 10
289.492044
 20
143.909416
 11
289.484587
 21
143.850544
  0
LINE
  8
CSLAYER4
  6
CONTINUOUS
 62
     7
 10
289.484587
 20
143.850544
 11
289.478572
 21
143.791519
  0
LINE
  8
CSLAYER4
  6
CONTINUOUS
 62
     7
 10
289.478572
 20
143.791519
 11
289.473965
 21
143.732372
  0
LINE
  8
CSLAYER4
  6
CONTINUOUS
 62
     7
 10
289.473965
 20
143.732372
 11
289.470716
 21
143.673121
  0
LINE
  8
CSLAYER4
  6
CONTINUOUS
 62
     7
 10
289.470716
 20
143.673121
 11
289.468794
 21
143.613795
  0
LINE
  8
CSLAYER4
  6
CONTINUOUS
 62
     7
 10
289.468794
 20
143.613795
 11
289.468162
 21
143.554414
  0
LINE
  8
CSLAYER4
  6
CONTINUOUS
 62
     7
 10
289.468162
 20
143.554414
 11
289.468752
 21
143.496839
  0
LINE
  8
CSLAYER4
  6
CONTINUOUS
 62
     7
 10
289.468752
 20
143.496839
 11
289.470572
 21
143.439236
  0
LINE
  8
CSLAYER4
  6
CONTINUOUS
 62
     7
 10
289.470572
 20
143.439236
 11
289.473669
 21
143.381647
  0
LINE
  8
CSLAYER4
  6
CONTINUOUS
 62
     7
 10
289.473669
 20
143.381647
 11
289.478112
 21
143.324147
  0
LINE
  8
CSLAYER4
  6
CONTINUOUS
 62
     7
 10
289.478112
 20
143.324147
 11
289.483962
 21
143.266778
  0
LINE
  8
CSLAYER4
  6
CONTINUOUS
 62
     7
 10
289.483962
 20
143.266778
 11
289.491275
 21
143.209608
  0
LINE
  8
CSLAYER4
  6
CONTINUOUS
 62
     7
 10
289.491275
 20
143.209608
 11
289.500105
 21
143.152685
  0
LINE
  8
CSLAYER4
  6
CONTINUOUS
 62
     7
 10
289.500105
 20
143.152685
 11
289.510528
 21
143.096071
  0
LINE
  8
CSLAYER4
  6
CONTINUOUS
 62
     7
 10
289.510528
 20
143.096071
 11
289.522593
 21
143.039821
  0
LINE
  8
CSLAYER4
  6
CONTINUOUS
 62
     7
 10
289.522593
 20
143.039821
 11
289.536353
 21
142.984010
  0
LINE
  8
CSLAYER4
  6
CONTINUOUS
 62
     7
 10
289.536353
 20
142.984010
 11
289.551837
 21
142.928839
  0
LINE
  8
CSLAYER4
  6
CONTINUOUS
 62
     7
 10
289.551837
 20
142.928839
 11
289.569072
 21
142.874360
  0
LINE
  8
CSLAYER4
  6
CONTINUOUS
 62
     7
 10
289.569072
 20
142.874360
 11
289.588106
 21
142.820623
  0
LINE
  8
CSLAYER4
  6
CONTINUOUS
 62
     7
 10
289.588106
 20
142.820623
 11
289.608986
 21
142.767662
  0
LINE
  8
CSLAYER4
  6
CONTINUOUS
 62
     7
 10
289.608986
 20
142.767662
 11
289.631762
 21
142.715518
  0
LINE
  8
CSLAYER4
  6
CONTINUOUS
 62
     7
 10
289.631762
 20
142.715518
 11
289.656468
 21
142.664233
  0
LINE
  8
CSLAYER4
  6
CONTINUOUS
 62
     7
 10
289.656468
 20
142.664233
 11
289.683165
 21
142.613840
  0
LINE
  8
CSLAYER4
  6
CONTINUOUS
 62
     7
 10
289.683165
 20
142.613840
 11
289.711880
 21
142.564374
  0
LINE
  8
CSLAYER4
  6
CONTINUOUS
 62
     7
 10
289.711880
 20
142.564374
 11
289.742546
 21
142.516082
  0
LINE
  8
CSLAYER4
  6
CONTINUOUS
 62
     7
 10
289.742546
 20
142.516082
 11
289.774997
 21
142.469233
  0
LINE
  8
CSLAYER4
  6
CONTINUOUS
 62
     7
 10
289.774997
 20
142.469233
 11
289.809226
 21
142.423817
  0
LINE
  8
CSLAYER4
  6
CONTINUOUS
 62
     7
 10
289.809226
 20
142.423817
 11
289.845227
 21
142.379838
  0
LINE
  8
CSLAYER4
  6
CONTINUOUS
 62
     7
 10
289.845227
 20
142.379838
 11
289.882999
 21
142.337287
  0
LINE
  8
CSLAYER4
  6
CONTINUOUS
 62
     7
 10
289.882999
 20
142.337287
 11
289.922529
 21
142.296157
  0
LINE
  8
CSLAYER4
  6
CONTINUOUS
 62
     7
 10
289.922529
 20
142.296157
 11
289.945580
 21
142.273346
  0
LINE
  8
CSLAYER4
  6
CONTINUOUS
 62
     7
 10
289.945580
 20
142.273346
 11
289.968919
 21
142.250721
  0
LINE
  8
CSLAYER4
  6
CONTINUOUS
 62
     7
 10
289.968919
 20
142.250721
 11
289.992540
 21
142.228316
  0
LINE
  8
CSLAYER4
  6
CONTINUOUS
 62
     7
 10
289.992540
 20
142.228316
 11
290.016449
 21
142.206137
  0
LINE
  8
CSLAYER4
  6
CONTINUOUS
 62
     7
 10
290.016449
 20
142.206137
 11
290.040639
 21
142.184213
  0
LINE
  8
CSLAYER4
  6
CONTINUOUS
 62
     7
 10
290.040639
 20
142.184213
 11
290.065111
 21
142.162556
  0
LINE
  8
CSLAYER4
  6
CONTINUOUS
 62
     7
 10
290.065111
 20
142.162556
 11
290.089858
 21
142.141195
  0
LINE
  8
CSLAYER4
  6
CONTINUOUS
 62
     7
 10
290.089858
 20
142.141195
 11
290.114879
 21
142.120148
  0
LINE
  8
CSLAYER4
  6
CONTINUOUS
 62
     7
 10
290.114879
 20
142.120148
 11
290.140175
 21
142.099433
  0
LINE
  8
CSLAYER4
  6
CONTINUOUS
 62
     7
 10
290.140175
 20
142.099433
 11
290.165746
 21
142.079066
  0
LINE
  8
CSLAYER4
  6
CONTINUOUS
 62
     7
 10
290.165746
 20
142.079066
 11
290.191578
 21
142.059071
  0
LINE
  8
CSLAYER4
  6
CONTINUOUS
 62
     7
 10
290.191578
 20
142.059071
 11
290.217684
 21
142.039475
  0
LINE
  8
CSLAYER4
  6
CONTINUOUS
 62
     7
 10
290.217684
 20
142.039475
 11
290.244051
 21
142.020290
  0
LINE
  8
CSLAYER4
  6
CONTINUOUS
 62
     7
 10
290.244051
 20
142.020290
 11
290.270679
 21
142.001531
  0
LINE
  8
CSLAYER4
  6
CONTINUOUS
 62
     7
 10
290.270679
 20
142.001531
 11
290.297561
 21
141.983231
  0
LINE
  8
CSLAYER4
  6
CONTINUOUS
 62
     7
 10
290.297561
 20
141.983231
 11
290.324705
 21
141.965399
  0
LINE
  8
CSLAYER4
  6
CONTINUOUS
 62
     7
 10
290.324705
 20
141.965399
 11
290.352108
 21
141.948062
  0
LINE
  8
CSLAYER4
  6
CONTINUOUS
 62
     7
 10
290.352108
 20
141.948062
 11
290.379759
 21
141.931239
  0
LINE
  8
CSLAYER4
  6
CONTINUOUS
 62
     7
 10
290.379759
 20
141.931239
 11
290.407679
 21
141.914938
  0
LINE
  8
CSLAYER4
  6
CONTINUOUS
 62
     7
 10
290.407679
 20
141.914938
 11
290.435893
 21
141.899159
  0
LINE
  8
CSLAYER4
  6
CONTINUOUS
 62
     7
 10
290.435893
 20
141.899159
 11
290.464395
 21
141.883936
  0
LINE
  8
CSLAYER4
  6
CONTINUOUS
 62
     7
 10
290.464395
 20
141.883936
 11
290.493194
 21
141.869283
  0
LINE
  8
CSLAYER4
  6
CONTINUOUS
 62
     7
 10
290.493194
 20
141.869283
 11
290.522280
 21
141.855227
  0
LINE
  8
CSLAYER4
  6
CONTINUOUS
 62
     7
 10
290.522280
 20
141.855227
 11
290.551655
 21
141.841789
  0
LINE
  8
CSLAYER4
  6
CONTINUOUS
 62
     7
 10
292.019618
 20
141.212664
 11
290.551657
 21
141.841790
  0
LINE
  8
CSLAYER4
  6
CONTINUOUS
 62
     7
 10
292.019620
 20
141.212664
 11
292.061547
 21
141.193404
  0
LINE
  8
CSLAYER4
  6
CONTINUOUS
 62
     7
 10
292.061547
 20
141.193404
 11
292.102704
 21
141.172557
  0
LINE
  8
CSLAYER4
  6
CONTINUOUS
 62
     7
 10
292.102704
 20
141.172557
 11
292.142997
 21
141.150049
  0
LINE
  8
CSLAYER4
  6
CONTINUOUS
 62
     7
 10
292.142997
 20
141.150049
 11
292.182273
 21
141.125817
  0
LINE
  8
CSLAYER4
  6
CONTINUOUS
 62
     7
 10
292.182273
 20
141.125817
 11
292.220423
 21
141.099793
  0
LINE
  8
CSLAYER4
  6
CONTINUOUS
 62
     7
 10
292.220423
 20
141.099793
 11
292.257254
 21
141.071957
  0
LINE
  8
CSLAYER4
  6
CONTINUOUS
 62
     7
 10
292.257254
 20
141.071957
 11
292.292507
 21
141.042376
  0
LINE
  8
CSLAYER4
  6
CONTINUOUS
 62
     7
 10
292.292507
 20
141.042376
 11
292.326098
 21
141.011017
  0
LINE
  8
CSLAYER4
  6
CONTINUOUS
 62
     7
 10
292.326098
 20
141.011017
 11
292.357931
 21
140.977831
  0
LINE
  8
CSLAYER4
  6
CONTINUOUS
 62
     7
 10
292.357931
 20
140.977831
 11
292.387950
 21
140.942778
  0
LINE
  8
CSLAYER4
  6
CONTINUOUS
 62
     7
 10
292.387950
 20
140.942778
 11
292.415911
 21
140.906022
  0
LINE
  8
CSLAYER4
  6
CONTINUOUS
 62
     7
 10
292.415911
 20
140.906022
 11
292.441509
 21
140.867989
  0
LINE
  8
CSLAYER4
  6
CONTINUOUS
 62
     7
 10
292.441509
 20
140.867989
 11
292.464773
 21
140.828733
  0
LINE
  8
CSLAYER4
  6
CONTINUOUS
 62
     7
 10
292.464773
 20
140.828733
 11
292.485743
 21
140.788276
  0
LINE
  8
CSLAYER4
  6
CONTINUOUS
 62
     7
 10
292.485743
 20
140.788276
 11
292.504447
 21
140.746658
  0
LINE
  8
CSLAYER4
  6
CONTINUOUS
 62
     7
 10
292.504447
 20
140.746658
 11
292.520954
 21
140.703908
  0
LINE
  8
CSLAYER4
  6
CONTINUOUS
 62
     7
 10
292.520954
 20
140.703908
 11
292.535291
 21
140.660052
  0
LINE
  8
CSLAYER4
  6
CONTINUOUS
 62
     7
 10
292.535291
 20
140.660052
 11
292.547486
 21
140.615248
  0
LINE
  8
CSLAYER4
  6
CONTINUOUS
 62
     7
 10
292.547486
 20
140.615248
 11
292.557511
 21
140.569923
  0
LINE
  8
CSLAYER4
  6
CONTINUOUS
 62
     7
 10
292.557511
 20
140.569923
 11
292.565476
 21
140.524178
  0
LINE
  8
CSLAYER4
  6
CONTINUOUS
 62
     7
 10
292.565476
 20
140.524178
 11
292.571491
 21
140.478112
  0
LINE
  8
CSLAYER4
  6
CONTINUOUS
 62
     7
 10
292.571491
 20
140.478112
 11
292.575638
 21
140.431811
  0
LINE
  8
CSLAYER4
  6
CONTINUOUS
 62
     7
 10
292.575638
 20
140.431811
 11
292.578055
 21
140.385373
  0
LINE
  8
CSLAYER4
  6
CONTINUOUS
 62
     7
 10
292.578055
 20
140.385373
 11
292.578838
 21
140.338880
  0
LINE
  8
CSLAYER4
  6
CONTINUOUS
 62
     7
 10
292.578838
 20
140.338880
 11
292.577863
 21
140.295422
  0
LINE
  8
CSLAYER4
  6
CONTINUOUS
 62
     7
 10
292.577863
 20
140.295422
 11
292.574855
 21
140.252157
  0
LINE
  8
CSLAYER4
  6
CONTINUOUS
 62
     7
 10
292.574855
 20
140.252157
 11
292.569747
 21
140.209125
  0
LINE
  8
CSLAYER4
  6
CONTINUOUS
 62
     7
 10
292.569747
 20
140.209125
 11
292.562414
 21
140.166374
  0
LINE
  8
CSLAYER4
  6
CONTINUOUS
 62
     7
 10
292.562414
 20
140.166374
 11
292.552800
 21
140.124001
  0
LINE
  8
CSLAYER4
  6
CONTINUOUS
 62
     7
 10
292.552800
 20
140.124001
 11
292.540908
 21
140.082370
  0
LINE
  8
CSLAYER4
  6
CONTINUOUS
 62
     7
 10
292.540908
 20
140.082370
 11
292.526735
 21
140.041604
  0
LINE
  8
CSLAYER4
  6
CONTINUOUS
 62
     7
 10
292.526735
 20
140.041604
 11
292.510269
 21
140.001703
  0
LINE
  8
CSLAYER4
  6
CONTINUOUS
 62
     7
 10
292.510269
 20
140.001703
 11
292.491483
 21
139.962681
  0
LINE
  8
CSLAYER4
  6
CONTINUOUS
 62
     7
 10
292.491483
 20
139.962681
 11
292.470527
 21
139.924792
  0
LINE
  8
CSLAYER4
  6
CONTINUOUS
 62
     7
 10
292.470527
 20
139.924792
 11
292.447620
 21
139.888358
  0
LINE
  8
CSLAYER4
  6
CONTINUOUS
 62
     7
 10
292.447620
 20
139.888358
 11
292.422860
 21
139.853353
  0
LINE
  8
CSLAYER4
  6
CONTINUOUS
 62
     7
 10
292.422860
 20
139.853353
 11
292.396355
 21
139.819749
  0
LINE
  8
CSLAYER4
  6
CONTINUOUS
 62
     7
 10
292.396355
 20
139.819749
 11
292.368189
 21
139.787504
  0
LINE
  8
CSLAYER4
  6
CONTINUOUS
 62
     7
 10
292.368189
 20
139.787504
 11
292.338457
 21
139.756585
  0
LINE
  8
CSLAYER4
  6
CONTINUOUS
 62
     7
 10
292.338457
 20
139.756585
 11
292.307228
 21
139.726963
  0
LINE
  8
CSLAYER4
  6
CONTINUOUS
 62
     7
 10
292.307228
 20
139.726963
 11
292.274627
 21
139.698604
  0
LINE
  8
CSLAYER4
  6
CONTINUOUS
 62
     7
 10
292.274627
 20
139.698604
 11
292.240788
 21
139.671536
  0
LINE
  8
CSLAYER4
  6
CONTINUOUS
 62
     7
 10
292.240788
 20
139.671536
 11
292.205894
 21
139.645760
  0
LINE
  8
CSLAYER4
  6
CONTINUOUS
 62
     7
 10
292.205894
 20
139.645760
 11
292.170050
 21
139.621240
  0
LINE
  8
CSLAYER4
  6
CONTINUOUS
 62
     7
 10
292.170050
 20
139.621240
 11
292.133384
 21
139.597935
  0
LINE
  8
CSLAYER4
  6
CONTINUOUS
 62
     7
 10
292.133384
 20
139.597935
 11
292.096016
 21
139.575825
  0
LINE
  8
CSLAYER4
  6
CONTINUOUS
 62
     7
 10
292.096016
 20
139.575825
 11
292.058058
 21
139.554855
  0
LINE
  8
CSLAYER4
  6
CONTINUOUS
 62
     7
 10
292.058058
 20
139.554855
 11
292.019620
 21
139.534997
  0
LINE
  8
CSLAYER4
  6
CONTINUOUS
 62
     7
 10
292.019620
 20
139.534997
 11
291.982404
 21
139.524073
  0
LINE
  8
CSLAYER4
  6
CONTINUOUS
 62
     7
 10
291.982404
 20
139.524073
 11
291.945016
 21
139.514157
  0
LINE
  8
CSLAYER4
  6
CONTINUOUS
 62
     7
 10
291.945016
 20
139.514157
 11
291.907436
 21
139.505272
  0
LINE
  8
CSLAYER4
  6
CONTINUOUS
 62
     7
 10
291.907436
 20
139.505272
 11
291.869678
 21
139.497424
  0
LINE
  8
CSLAYER4
  6
CONTINUOUS
 62
     7
 10
291.869678
 20
139.497424
 11
291.831734
 21
139.490633
  0
LINE
  8
CSLAYER4
  6
CONTINUOUS
 62
     7
 10
291.831734
 20
139.490633
 11
291.793604
 21
139.484906
  0
LINE
  8
CSLAYER4
  6
CONTINUOUS
 62
     7
 10
291.793604
 20
139.484906
 11
291.755296
 21
139.480278
  0
LINE
  8
CSLAYER4
  6
CONTINUOUS
 62
     7
 10
291.755296
 20
139.480278
 11
291.716810
 21
139.476749
  0
LINE
  8
CSLAYER4
  6
CONTINUOUS
 62
     7
 10
291.716810
 20
139.476749
 11
291.678144
 21
139.474339
  0
LINE
  8
CSLAYER4
  6
CONTINUOUS
 62
     7
 10
291.678144
 20
139.474339
 11
291.639473
 21
139.473075
  0
LINE
  8
CSLAYER4
  6
CONTINUOUS
 62
     7
 10
291.639473
 20
139.473075
 11
291.600890
 21
139.472945
  0
LINE
  8
CSLAYER4
  6
CONTINUOUS
 62
     7
 10
291.600890
 20
139.472945
 11
291.562390
 21
139.473940
  0
LINE
  8
CSLAYER4
  6
CONTINUOUS
 62
     7
 10
291.562390
 20
139.473940
 11
291.523965
 21
139.476069
  0
LINE
  8
CSLAYER4
  6
CONTINUOUS
 62
     7
 10
291.523965
 20
139.476069
 11
291.485630
 21
139.479303
  0
LINE
  8
CSLAYER4
  6
CONTINUOUS
 62
     7
 10
291.485630
 20
139.479303
 11
291.447377
 21
139.483657
  0
LINE
  8
CSLAYER4
  6
CONTINUOUS
 62
     7
 10
291.447377
 20
139.483657
 11
291.409199
 21
139.489108
  0
LINE
  8
CSLAYER4
  6
CONTINUOUS
 62
     7
 10
291.409199
 20
139.489108
 11
291.371111
 21
139.495652
  0
LINE
  8
CSLAYER4
  6
CONTINUOUS
 62
     7
 10
291.371111
 20
139.495652
 11
291.333126
 21
139.503281
  0
LINE
  8
CSLAYER4
  6
CONTINUOUS
 62
     7
 10
291.333126
 20
139.503281
 11
291.295395
 21
139.511946
  0
LINE
  8
CSLAYER4
  6
CONTINUOUS
 62
     7
 10
291.295395
 20
139.511946
 11
291.257931
 21
139.521621
  0
LINE
  8
CSLAYER4
  6
CONTINUOUS
 62
     7
 10
291.257931
 20
139.521621
 11
291.220749
 21
139.532285
  0
LINE
  8
CSLAYER4
  6
CONTINUOUS
 62
     7
 10
291.220749
 20
139.532285
 11
291.183849
 21
139.543910
  0
LINE
  8
CSLAYER4
  6
CONTINUOUS
 62
     7
 10
291.183849
 20
139.543910
 11
291.147223
 21
139.556468
  0
LINE
  8
CSLAYER4
  6
CONTINUOUS
 62
     7
 10
291.147223
 20
139.556468
 11
291.110879
 21
139.569947
  0
LINE
  8
CSLAYER4
  6
CONTINUOUS
 62
     7
 10
291.110879
 20
139.569947
 11
291.085480
 21
139.580411
  0
LINE
  8
CSLAYER4
  6
CONTINUOUS
 62
     7
 10
291.085480
 20
139.580411
 11
291.060280
 21
139.591412
  0
LINE
  8
CSLAYER4
  6
CONTINUOUS
 62
     7
 10
291.060280
 20
139.591412
 11
291.035328
 21
139.602968
  0
LINE
  8
CSLAYER4
  6
CONTINUOUS
 62
     7
 10
291.035328
 20
139.602968
 11
291.010636
 21
139.615087
  0
LINE
  8
CSLAYER4
  6
CONTINUOUS
 62
     7
 10
291.010636
 20
139.615087
 11
290.986239
 21
139.627797
  0
LINE
  8
CSLAYER4
  6
CONTINUOUS
 62
     7
 10
290.986239
 20
139.627797
 11
290.962166
 21
139.641097
  0
LINE
  8
CSLAYER4
  6
CONTINUOUS
 62
     7
 10
290.962166
 20
139.641097
 11
290.938449
 21
139.655016
  0
LINE
  8
CSLAYER4
  6
CONTINUOUS
 62
     7
 10
290.938449
 20
139.655016
 11
290.915109
 21
139.669566
  0
LINE
  8
CSLAYER4
  6
CONTINUOUS
 62
     7
 10
290.915109
 20
139.669566
 11
290.892176
 21
139.684754
  0
LINE
  8
CSLAYER4
  6
CONTINUOUS
 62
     7
 10
290.892176
 20
139.684754
 11
290.869695
 21
139.700595
  0
LINE
  8
CSLAYER4
  6
CONTINUOUS
 62
     7
 10
290.869695
 20
139.700595
 11
290.847736
 21
139.717061
  0
LINE
  8
CSLAYER4
  6
CONTINUOUS
 62
     7
 10
290.847736
 20
139.717061
 11
290.826333
 21
139.734158
  0
LINE
  8
CSLAYER4
  6
CONTINUOUS
 62
     7
 10
290.826333
 20
139.734158
 11
290.805507
 21
139.751902
  0
LINE
  8
CSLAYER4
  6
CONTINUOUS
 62
     7
 10
290.805507
 20
139.751902
 11
290.785272
 21
139.770296
  0
LINE
  8
CSLAYER4
  6
CONTINUOUS
 62
     7
 10
290.785272
 20
139.770296
 11
290.765648
 21
139.789358
  0
LINE
  8
CSLAYER4
  6
CONTINUOUS
 62
     7
 10
290.765648
 20
139.789358
 11
290.746655
 21
139.809099
  0
LINE
  8
CSLAYER4
  6
CONTINUOUS
 62
     7
 10
290.746655
 20
139.809099
 11
290.728314
 21
139.829527
  0
LINE
  8
CSLAYER4
  6
CONTINUOUS
 62
     7
 10
290.728314
 20
139.829527
 11
290.710647
 21
139.850655
  0
LINE
  8
CSLAYER4
  6
CONTINUOUS
 62
     7
 10
290.710647
 20
139.850655
 11
290.693735
 21
139.872415
  0
LINE
  8
CSLAYER4
  6
CONTINUOUS
 62
     7
 10
290.693735
 20
139.872415
 11
290.677647
 21
139.894724
  0
LINE
  8
CSLAYER4
  6
CONTINUOUS
 62
     7
 10
290.677647
 20
139.894724
 11
290.662390
 21
139.917568
  0
LINE
  8
CSLAYER4
  6
CONTINUOUS
 62
     7
 10
290.662390
 20
139.917568
 11
290.647956
 21
139.940956
  0
LINE
  8
CSLAYER4
  6
CONTINUOUS
 62
     7
 10
290.647956
 20
139.940956
 11
290.634347
 21
139.964892
  0
LINE
  8
CSLAYER4
  6
CONTINUOUS
 62
     7
 10
290.634347
 20
139.964892
 11
290.621562
 21
139.989364
  0
LINE
  8
CSLAYER4
  6
CONTINUOUS
 62
     7
 10
290.621562
 20
139.989364
 11
290.607836
 21
140.017763
  0
LINE
  8
CSLAYER4
  6
CONTINUOUS
 62
     7
 10
290.607836
 20
140.017763
 11
290.594631
 21
140.046960
  0
LINE
  8
CSLAYER4
  6
CONTINUOUS
 62
     7
 10
290.594631
 20
140.046960
 11
290.581943
 21
140.076904
  0
LINE
  8
CSLAYER4
  6
CONTINUOUS
 62
     7
 10
290.581943
 20
140.076904
 11
290.569748
 21
140.107549
  0
LINE
  8
CSLAYER4
  6
CONTINUOUS
 62
     7
 10
290.569748
 20
140.107549
 11
290.558040
 21
140.138840
  0
LINE
  8
CSLAYER4
  6
CONTINUOUS
 62
     7
 10
290.558040
 20
140.138840
 11
290.546814
 21
140.170721
  0
LINE
  8
CSLAYER4
  6
CONTINUOUS
 62
     7
 10
290.546814
 20
140.170721
 11
290.536047
 21
140.203138
  0
LINE
  8
CSLAYER4
  6
CONTINUOUS
 62
     7
 10
290.536047
 20
140.203138
 11
290.525727
 21
140.236055
  0
LINE
  8
CSLAYER4
  6
CONTINUOUS
 62
     7
 10
290.525727
 20
140.236055
 11
290.515853
 21
140.269399
  0
LINE
  8
CSLAYER4
  6
CONTINUOUS
 62
     7
 10
290.515853
 20
140.269399
 11
290.506412
 21
140.303140
  0
LINE
  8
CSLAYER4
  6
CONTINUOUS
 62
     7
 10
290.506412
 20
140.303140
 11
290.497382
 21
140.337212
  0
LINE
  8
CSLAYER4
  6
CONTINUOUS
 62
     7
 10
290.497382
 20
140.337212
 11
290.488758
 21
140.371565
  0
LINE
  8
CSLAYER4
  6
CONTINUOUS
 62
     7
 10
290.488758
 20
140.371565
 11
290.480525
 21
140.406151
  0
LINE
  8
CSLAYER4
  6
CONTINUOUS
 62
     7
 10
290.480525
 20
140.406151
 11
290.472677
 21
140.440916
  0
LINE
  8
CSLAYER4
  6
CONTINUOUS
 62
     7
 10
290.472677
 20
140.440916
 11
290.465192
 21
140.475805
  0
LINE
  8
CSLAYER4
  6
CONTINUOUS
 62
     7
 10
290.465192
 20
140.475805
 11
290.458071
 21
140.510775
  0
LINE
  8
CSLAYER4
  6
CONTINUOUS
 62
     7
 10
290.458071
 20
140.510775
 11
290.451287
 21
140.545780
  0
LINE
  8
CSLAYER4
  6
CONTINUOUS
 62
     7
 10
290.451287
 20
140.545780
 11
290.444819
 21
140.580923
  0
LINE
  8
CSLAYER4
  6
CONTINUOUS
 62
     7
 10
290.444819
 20
140.580923
 11
290.438639
 21
140.616196
  0
LINE
  8
CSLAYER4
  6
CONTINUOUS
 62
     7
 10
290.438639
 20
140.616196
 11
290.432741
 21
140.651572
  0
LINE
  8
CSLAYER4
  6
CONTINUOUS
 62
     7
 10
290.432741
 20
140.651572
 11
290.427125
 21
140.687003
  0
LINE
  8
CSLAYER4
  6
CONTINUOUS
 62
     7
 10
290.427125
 20
140.687003
 11
290.421776
 21
140.722447
  0
LINE
  8
CSLAYER4
  6
CONTINUOUS
 62
     7
 10
290.421776
 20
140.722447
 11
290.416688
 21
140.757878
  0
LINE
  8
CSLAYER4
  6
CONTINUOUS
 62
     7
 10
290.416688
 20
140.757878
 11
290.411853
 21
140.793247
  0
LINE
  8
CSLAYER4
  6
CONTINUOUS
 62
     7
 10
289.293405
 20
140.793247
 11
290.411852
 21
140.793247
  0
LINE
  8
CSLAYER4
  6
CONTINUOUS
 62
     7
 10
289.293404
 20
140.793247
 11
289.303841
 21
140.669301
  0
LINE
  8
CSLAYER4
  6
CONTINUOUS
 62
     7
 10
289.303841
 20
140.669301
 11
289.317313
 21
140.545148
  0
LINE
  8
CSLAYER4
  6
CONTINUOUS
 62
     7
 10
289.317313
 20
140.545148
 11
289.334046
 21
140.421140
  0
LINE
  8
CSLAYER4
  6
CONTINUOUS
 62
     7
 10
289.334046
 20
140.421140
 11
289.354268
 21
140.297647
  0
LINE
  8
CSLAYER4
  6
CONTINUOUS
 62
     7
 10
289.354268
 20
140.297647
 11
289.378205
 21
140.175033
  0
LINE
  8
CSLAYER4
  6
CONTINUOUS
 62
     7
 10
289.378205
 20
140.175033
 11
289.406082
 21
140.053655
  0
LINE
  8
CSLAYER4
  6
CONTINUOUS
 62
     7
 10
289.406082
 20
140.053655
 11
289.438149
 21
139.933794
  0
LINE
  8
CSLAYER4
  6
CONTINUOUS
 62
     7
 10
289.438149
 20
139.933794
 11
289.474830
 21
139.815258
  0
LINE
  8
CSLAYER4
  6
CONTINUOUS
 62
     7
 10
289.474830
 20
139.815258
 11
289.516447
 21
139.698384
  0
LINE
  8
CSLAYER4
  6
CONTINUOUS
 62
     7
 10
289.516447
 20
139.698384
 11
289.563297
 21
139.583625
  0
LINE
  8
CSLAYER4
  6
CONTINUOUS
 62
     7
 10
289.563297
 20
139.583625
 11
289.615674
 21
139.471455
  0
LINE
  8
CSLAYER4
  6
CONTINUOUS
 62
     7
 10
289.615674
 20
139.471455
 11
289.673874
 21
139.362313
  0
LINE
  8
CSLAYER4
  6
CONTINUOUS
 62
     7
 10
289.673874
 20
139.362313
 11
289.737952
 21
139.257050
  0
LINE
  8
CSLAYER4
  6
CONTINUOUS
 62
     7
 10
289.737952
 20
139.257050
 11
289.807701
 21
139.156628
  0
LINE
  8
CSLAYER4
  6
CONTINUOUS
 62
     7
 10
289.807701
 20
139.156628
 11
289.883301
 21
139.061294
  0
LINE
  8
CSLAYER4
  6
CONTINUOUS
 62
     7
 10
289.883301
 20
139.061294
 11
289.964909
 21
138.971288
  0
LINE
  8
CSLAYER4
  6
CONTINUOUS
 62
     7
 10
289.964909
 20
138.971288
 11
290.052704
 21
138.886831
  0
LINE
  8
CSLAYER4
  6
CONTINUOUS
 62
     7
 10
290.052704
 20
138.886831
 11
290.146822
 21
138.808190
  0
LINE
  8
CSLAYER4
  6
CONTINUOUS
 62
     7
 10
290.146822
 20
138.808190
 11
290.245891
 21
138.736613
  0
LINE
  8
CSLAYER4
  6
CONTINUOUS
 62
     7
 10
290.245891
 20
138.736613
 11
290.348929
 21
138.672556
  0
LINE
  8
CSLAYER4
  6
CONTINUOUS
 62
     7
 10
290.348929
 20
138.672556
 11
290.455709
 21
138.615757
  0
LINE
  8
CSLAYER4
  6
CONTINUOUS
 62
     7
 10
290.455709
 20
138.615757
 11
290.566012
 21
138.565975
  0
LINE
  8
CSLAYER4
  6
CONTINUOUS
 62
     7
 10
290.566012
 20
138.565975
 11
290.679624
 21
138.522957
  0
LINE
  8
CSLAYER4
  6
CONTINUOUS
 62
     7
 10
290.679624
 20
138.522957
 11
290.796320
 21
138.486448
  0
ENDBLK
  8
0
  0
BLOCK
  8
CSLAYER1
  2
BLKF0006
 70
   64
 10
0.0
 20
0.0
 30
0.0
  0
LINE
  8
CSLAYER4
  6
CONTINUOUS
 62
     7
 10
254.916999
 20
129.516494
 11
255.006318
 21
129.490828
  0
LINE
  8
CSLAYER4
  6
CONTINUOUS
 62
     7
 10
255.006318
 20
129.490828
 11
255.096186
 21
129.467853
  0
LINE
  8
CSLAYER4
  6
CONTINUOUS
 62
     7
 10
255.096186
 20
129.467853
 11
255.186576
 21
129.447679
  0
LINE
  8
CSLAYER4
  6
CONTINUOUS
 62
     7
 10
255.186576
 20
129.447679
 11
255.277467
 21
129.430417
  0
LINE
  8
CSLAYER4
  6
CONTINUOUS
 62
     7
 10
255.277467
 20
129.430417
 11
255.368826
 21
129.416189
  0
LINE
  8
CSLAYER4
  6
CONTINUOUS
 62
     7
 10
255.368826
 20
129.416189
 11
255.460616
 21
129.405094
  0
LINE
  8
CSLAYER4
  6
CONTINUOUS
 62
     7
 10
255.460616
 20
129.405094
 11
255.552819
 21
129.397252
  0
LINE
  8
CSLAYER4
  6
CONTINUOUS
 62
     7
 10
255.552819
 20
129.397252
 11
255.645399
 21
129.392768
  0
LINE
  8
CSLAYER4
  6
CONTINUOUS
 62
     7
 10
255.645399
 20
129.392768
 11
255.738337
 21
129.391752
  0
LINE
  8
CSLAYER4
  6
CONTINUOUS
 62
     7
 10
255.738337
 20
129.391752
 11
255.831151
 21
129.394299
  0
LINE
  8
CSLAYER4
  6
CONTINUOUS
 62
     7
 10
255.831151
 20
129.394299
 11
255.923347
 21
129.400424
  0
LINE
  8
CSLAYER4
  6
CONTINUOUS
 62
     7
 10
255.923347
 20
129.400424
 11
256.014932
 21
129.410126
  0
LINE
  8
CSLAYER4
  6
CONTINUOUS
 62
     7
 10
256.014932
 20
129.410126
 11
256.105898
 21
129.423420
  0
LINE
  8
CSLAYER4
  6
CONTINUOUS
 62
     7
 10
256.105898
 20
129.423420
 11
256.196261
 21
129.440297
  0
LINE
  8
CSLAYER4
  6
CONTINUOUS
 62
     7
 10
256.196261
 20
129.440297
 11
256.286006
 21
129.460766
  0
LINE
  8
CSLAYER4
  6
CONTINUOUS
 62
     7
 10
256.286006
 20
129.460766
 11
256.375118
 21
129.484826
  0
LINE
  8
CSLAYER4
  6
CONTINUOUS
 62
     7
 10
256.375118
 20
129.484826
 11
256.463627
 21
129.512485
  0
LINE
  8
CSLAYER4
  6
CONTINUOUS
 62
     7
 10
256.463627
 20
129.512485
 11
256.551449
 21
129.543713
  0
LINE
  8
CSLAYER4
  6
CONTINUOUS
 62
     7
 10
256.551449
 20
129.543713
 11
256.637966
 21
129.578245
  0
LINE
  8
CSLAYER4
  6
CONTINUOUS
 62
     7
 10
256.637966
 20
129.578245
 11
256.723028
 21
129.615935
  0
LINE
  8
CSLAYER4
  6
CONTINUOUS
 62
     7
 10
256.723028
 20
129.615935
 11
256.806661
 21
129.656666
  0
LINE
  8
CSLAYER4
  6
CONTINUOUS
 62
     7
 10
256.806661
 20
129.656666
 11
256.888853
 21
129.700337
  0
LINE
  8
CSLAYER4
  6
CONTINUOUS
 62
     7
 10
256.888853
 20
129.700337
 11
256.969643
 21
129.746857
  0
LINE
  8
CSLAYER4
  6
CONTINUOUS
 62
     7
 10
256.969643
 20
129.746857
 11
257.049033
 21
129.796111
  0
LINE
  8
CSLAYER4
  6
CONTINUOUS
 62
     7
 10
257.049033
 20
129.796111
 11
257.083077
 21
129.818434
  0
LINE
  8
CSLAYER4
  6
CONTINUOUS
 62
     7
 10
257.083077
 20
129.818434
 11
257.116434
 21
129.841642
  0
LINE
  8
CSLAYER4
  6
CONTINUOUS
 62
     7
 10
257.116434
 20
129.841642
 11
257.149105
 21
129.865723
  0
LINE
  8
CSLAYER4
  6
CONTINUOUS
 62
     7
 10
257.149105
 20
129.865723
 11
257.181103
 21
129.890662
  0
LINE
  8
CSLAYER4
  6
CONTINUOUS
 62
     7
 10
257.181103
 20
129.890662
 11
257.212428
 21
129.916445
  0
LINE
  8
CSLAYER4
  6
CONTINUOUS
 62
     7
 10
257.212428
 20
129.916445
 11
257.243107
 21
129.943066
  0
LINE
  8
CSLAYER4
  6
CONTINUOUS
 62
     7
 10
257.243107
 20
129.943066
 11
257.273114
 21
129.970505
  0
LINE
  8
CSLAYER4
  6
CONTINUOUS
 62
     7
 10
257.273114
 20
129.970505
 11
257.302474
 21
129.998760
  0
LINE
  8
CSLAYER4
  6
CONTINUOUS
 62
     7
 10
257.302474
 20
129.998760
 11
257.331162
 21
130.027792
  0
LINE
  8
CSLAYER4
  6
CONTINUOUS
 62
     7
 10
257.331162
 20
130.027792
 11
257.359122
 21
130.057496
  0
LINE
  8
CSLAYER4
  6
CONTINUOUS
 62
     7
 10
257.359122
 20
130.057496
 11
257.386341
 21
130.087852
  0
LINE
  8
CSLAYER4
  6
CONTINUOUS
 62
     7
 10
257.386341
 20
130.087852
 11
257.412846
 21
130.118827
  0
LINE
  8
CSLAYER4
  6
CONTINUOUS
 62
     7
 10
257.412846
 20
130.118827
 11
257.438636
 21
130.150406
  0
LINE
  8
CSLAYER4
  6
CONTINUOUS
 62
     7
 10
257.438636
 20
130.150406
 11
257.463726
 21
130.182562
  0
LINE
  8
CSLAYER4
  6
CONTINUOUS
 62
     7
 10
257.463726
 20
130.182562
 11
257.488130
 21
130.215273
  0
LINE
  8
CSLAYER4
  6
CONTINUOUS
 62
     7
 10
257.488130
 20
130.215273
 11
257.511846
 21
130.248514
  0
LINE
  8
CSLAYER4
  6
CONTINUOUS
 62
     7
 10
257.511846
 20
130.248514
 11
257.534890
 21
130.282262
  0
LINE
  8
CSLAYER4
  6
CONTINUOUS
 62
     7
 10
257.534890
 20
130.282262
 11
257.557289
 21
130.316485
  0
LINE
  8
CSLAYER4
  6
CONTINUOUS
 62
     7
 10
257.557289
 20
130.316485
 11
257.579014
 21
130.351140
  0
LINE
  8
CSLAYER4
  6
CONTINUOUS
 62
     7
 10
257.579014
 20
130.351140
 11
257.600094
 21
130.386214
  0
LINE
  8
CSLAYER4
  6
CONTINUOUS
 62
     7
 10
257.600094
 20
130.386214
 11
257.620542
 21
130.421665
  0
LINE
  8
CSLAYER4
  6
CONTINUOUS
 62
     7
 10
257.620542
 20
130.421665
 11
257.640359
 21
130.457480
  0
LINE
  8
CSLAYER4
  6
CONTINUOUS
 62
     7
 10
257.640359
 20
130.457480
 11
257.659557
 21
130.493632
  0
LINE
  8
CSLAYER4
  6
CONTINUOUS
 62
     7
 10
257.659557
 20
130.493632
 11
257.678165
 21
130.530086
  0
LINE
  8
CSLAYER4
  6
CONTINUOUS
 62
     7
 10
257.678165
 20
130.530086
 11
257.697639
 21
130.570475
  0
LINE
  8
CSLAYER4
  6
CONTINUOUS
 62
     7
 10
257.697639
 20
130.570475
 11
257.715986
 21
130.611379
  0
LINE
  8
CSLAYER4
  6
CONTINUOUS
 62
     7
 10
257.715986
 20
130.611379
 11
257.733221
 21
130.652770
  0
LINE
  8
CSLAYER4
  6
CONTINUOUS
 62
     7
 10
257.733221
 20
130.652770
 11
257.749371
 21
130.694614
  0
LINE
  8
CSLAYER4
  6
CONTINUOUS
 62
     7
 10
257.749371
 20
130.694614
 11
257.764477
 21
130.736884
  0
LINE
  8
CSLAYER4
  6
CONTINUOUS
 62
     7
 10
257.764477
 20
130.736884
 11
257.778553
 21
130.779531
  0
LINE
  8
CSLAYER4
  6
CONTINUOUS
 62
     7
 10
257.778553
 20
130.779531
 11
257.791641
 21
130.822535
  0
LINE
  8
CSLAYER4
  6
CONTINUOUS
 62
     7
 10
257.791641
 20
130.822535
 11
257.803753
 21
130.865856
  0
LINE
  8
CSLAYER4
  6
CONTINUOUS
 62
     7
 10
257.803753
 20
130.865856
 11
257.814918
 21
130.909458
  0
LINE
  8
CSLAYER4
  6
CONTINUOUS
 62
     7
 10
257.814918
 20
130.909458
 11
257.825163
 21
130.953314
  0
LINE
  8
CSLAYER4
  6
CONTINUOUS
 62
     7
 10
257.825163
 20
130.953314
 11
257.834528
 21
130.997390
  0
LINE
  8
CSLAYER4
  6
CONTINUOUS
 62
     7
 10
257.834528
 20
130.997390
 11
257.843029
 21
131.041644
  0
LINE
  8
CSLAYER4
  6
CONTINUOUS
 62
     7
 10
257.843029
 20
131.041644
 11
257.850692
 21
131.086043
  0
LINE
  8
CSLAYER4
  6
CONTINUOUS
 62
     7
 10
257.850692
 20
131.086043
 11
257.857559
 21
131.130565
  0
LINE
  8
CSLAYER4
  6
CONTINUOUS
 62
     7
 10
257.857559
 20
131.130565
 11
257.863642
 21
131.175163
  0
LINE
  8
CSLAYER4
  6
CONTINUOUS
 62
     7
 10
257.863642
 20
131.175163
 11
257.868971
 21
131.219808
  0
LINE
  8
CSLAYER4
  6
CONTINUOUS
 62
     7
 10
257.868971
 20
131.219808
 11
257.873585
 21
131.264468
  0
LINE
  8
CSLAYER4
  6
CONTINUOUS
 62
     7
 10
257.873585
 20
131.264468
 11
257.877498
 21
131.309195
  0
LINE
  8
CSLAYER4
  6
CONTINUOUS
 62
     7
 10
257.877498
 20
131.309195
 11
257.880753
 21
131.354020
  0
LINE
  8
CSLAYER4
  6
CONTINUOUS
 62
     7
 10
257.880753
 20
131.354020
 11
257.883377
 21
131.398913
  0
LINE
  8
CSLAYER4
  6
CONTINUOUS
 62
     7
 10
257.883377
 20
131.398913
 11
257.885367
 21
131.443854
  0
LINE
  8
CSLAYER4
  6
CONTINUOUS
 62
     7
 10
257.885367
 20
131.443854
 11
257.886768
 21
131.488802
  0
LINE
  8
CSLAYER4
  6
CONTINUOUS
 62
     7
 10
257.886768
 20
131.488802
 11
257.887606
 21
131.533736
  0
LINE
  8
CSLAYER4
  6
CONTINUOUS
 62
     7
 10
257.887606
 20
131.533736
 11
257.887867
 21
131.578636
  0
LINE
  8
CSLAYER4
  6
CONTINUOUS
 62
     7
 10
257.887867
 20
131.578636
 11
257.887263
 21
131.634755
  0
LINE
  8
CSLAYER4
  6
CONTINUOUS
 62
     7
 10
257.887263
 20
131.634755
 11
257.885381
 21
131.690875
  0
LINE
  8
CSLAYER4
  6
CONTINUOUS
 62
     7
 10
257.885381
 20
131.690875
 11
257.882168
 21
131.746939
  0
LINE
  8
CSLAYER4
  6
CONTINUOUS
 62
     7
 10
257.882168
 20
131.746939
 11
257.877581
 21
131.802894
  0
LINE
  8
CSLAYER4
  6
CONTINUOUS
 62
     7
 10
257.877581
 20
131.802894
 11
257.871566
 21
131.858698
  0
LINE
  8
CSLAYER4
  6
CONTINUOUS
 62
     7
 10
257.871566
 20
131.858698
 11
257.864040
 21
131.914302
  0
LINE
  8
CSLAYER4
  6
CONTINUOUS
 62
     7
 10
257.864040
 20
131.914302
 11
257.854977
 21
131.969653
  0
LINE
  8
CSLAYER4
  6
CONTINUOUS
 62
     7
 10
257.854977
 20
131.969653
 11
257.844293
 21
132.024708
  0
LINE
  8
CSLAYER4
  6
CONTINUOUS
 62
     7
 10
257.844293
 20
132.024708
 11
257.831946
 21
132.079413
  0
LINE
  8
CSLAYER4
  6
CONTINUOUS
 62
     7
 10
257.831946
 20
132.079413
 11
257.817898
 21
132.133678
  0
LINE
  8
CSLAYER4
  6
CONTINUOUS
 62
     7
 10
257.817898
 20
132.133678
 11
257.802146
 21
132.187278
  0
LINE
  8
CSLAYER4
  6
CONTINUOUS
 62
     7
 10
257.802146
 20
132.187278
 11
257.784650
 21
132.240157
  0
LINE
  8
CSLAYER4
  6
CONTINUOUS
 62
     7
 10
257.784650
 20
132.240157
 11
257.765383
 21
132.292294
  0
LINE
  8
CSLAYER4
  6
CONTINUOUS
 62
     7
 10
257.765383
 20
132.292294
 11
257.744317
 21
132.343661
  0
LINE
  8
CSLAYER4
  6
CONTINUOUS
 62
     7
 10
257.744317
 20
132.343661
 11
257.721410
 21
132.394226
  0
LINE
  8
CSLAYER4
  6
CONTINUOUS
 62
     7
 10
257.721410
 20
132.394226
 11
257.696622
 21
132.443966
  0
LINE
  8
CSLAYER4
  6
CONTINUOUS
 62
     7
 10
257.696622
 20
132.443966
 11
257.669912
 21
132.492856
  0
LINE
  8
CSLAYER4
  6
CONTINUOUS
 62
     7
 10
257.669912
 20
132.492856
 11
257.641265
 21
132.540866
  0
LINE
  8
CSLAYER4
  6
CONTINUOUS
 62
     7
 10
257.641265
 20
132.540866
 11
257.610806
 21
132.587723
  0
LINE
  8
CSLAYER4
  6
CONTINUOUS
 62
     7
 10
257.610806
 20
132.587723
 11
257.578643
 21
132.633227
  0
LINE
  8
CSLAYER4
  6
CONTINUOUS
 62
     7
 10
257.578643
 20
132.633227
 11
257.544833
 21
132.677392
  0
LINE
  8
CSLAYER4
  6
CONTINUOUS
 62
     7
 10
257.544833
 20
132.677392
 11
257.509361
 21
132.720225
  0
LINE
  8
CSLAYER4
  6
CONTINUOUS
 62
     7
 10
257.509361
 20
132.720225
 11
257.472240
 21
132.761732
  0
LINE
  8
CSLAYER4
  6
CONTINUOUS
 62
     7
 10
257.472240
 20
132.761732
 11
257.433500
 21
132.801935
  0
LINE
  8
CSLAYER4
  6
CONTINUOUS
 62
     7
 10
257.433500
 20
132.801935
 11
257.406515
 21
132.828543
  0
LINE
  8
CSLAYER4
  6
CONTINUOUS
 62
     7
 10
257.406515
 20
132.828543
 11
257.379186
 21
132.854725
  0
LINE
  8
CSLAYER4
  6
CONTINUOUS
 62
     7
 10
257.379186
 20
132.854725
 11
257.351528
 21
132.880488
  0
LINE
  8
CSLAYER4
  6
CONTINUOUS
 62
     7
 10
257.351528
 20
132.880488
 11
257.323554
 21
132.905825
  0
LINE
  8
CSLAYER4
  6
CONTINUOUS
 62
     7
 10
257.323554
 20
132.905825
 11
257.295251
 21
132.930743
  0
LINE
  8
CSLAYER4
  6
CONTINUOUS
 62
     7
 10
257.295251
 20
132.930743
 11
257.266617
 21
132.955243
  0
LINE
  8
CSLAYER4
  6
CONTINUOUS
 62
     7
 10
257.266617
 20
132.955243
 11
257.237655
 21
132.979324
  0
LINE
  8
CSLAYER4
  6
CONTINUOUS
 62
     7
 10
257.237655
 20
132.979324
 11
257.208390
 21
133.002992
  0
LINE
  8
CSLAYER4
  6
CONTINUOUS
 62
     7
 10
257.208390
 20
133.002992
 11
257.178795
 21
133.026249
  0
LINE
  8
CSLAYER4
  6
CONTINUOUS
 62
     7
 10
257.178795
 20
133.026249
 11
257.148885
 21
133.049093
  0
LINE
  8
CSLAYER4
  6
CONTINUOUS
 62
     7
 10
257.148885
 20
133.049093
 11
257.118659
 21
133.071526
  0
LINE
  8
CSLAYER4
  6
CONTINUOUS
 62
     7
 10
257.118659
 20
133.071526
 11
257.088131
 21
133.093554
  0
LINE
  8
CSLAYER4
  6
CONTINUOUS
 62
     7
 10
257.088131
 20
133.093554
 11
257.057287
 21
133.115183
  0
LINE
  8
CSLAYER4
  6
CONTINUOUS
 62
     7
 10
257.057287
 20
133.115183
 11
257.026140
 21
133.136401
  0
LINE
  8
CSLAYER4
  6
CONTINUOUS
 62
     7
 10
257.026140
 20
133.136401
 11
256.994679
 21
133.157227
  0
LINE
  8
CSLAYER4
  6
CONTINUOUS
 62
     7
 10
256.994679
 20
133.157227
 11
256.962928
 21
133.177648
  0
LINE
  8
CSLAYER4
  6
CONTINUOUS
 62
     7
 10
256.962928
 20
133.177648
 11
256.930862
 21
133.197670
  0
LINE
  8
CSLAYER4
  6
CONTINUOUS
 62
     7
 10
256.930862
 20
133.197670
 11
256.898507
 21
133.217294
  0
LINE
  8
CSLAYER4
  6
CONTINUOUS
 62
     7
 10
256.898507
 20
133.217294
 11
256.865905
 21
133.236493
  0
LINE
  8
CSLAYER4
  6
CONTINUOUS
 62
     7
 10
256.865905
 20
133.236493
 11
256.833083
 21
133.255273
  0
LINE
  8
CSLAYER4
  6
CONTINUOUS
 62
     7
 10
256.833083
 20
133.255273
 11
256.800028
 21
133.273627
  0
LINE
  8
CSLAYER4
  6
CONTINUOUS
 62
     7
 10
256.800028
 20
133.273627
 11
256.766740
 21
133.291568
  0
LINE
  8
CSLAYER4
  6
CONTINUOUS
 62
     7
 10
256.766740
 20
133.291568
 11
256.733245
 21
133.309092
  0
LINE
  8
CSLAYER4
  6
CONTINUOUS
 62
     7
 10
256.733245
 20
133.309092
 11
256.699517
 21
133.326203
  0
LINE
  8
CSLAYER4
  6
CONTINUOUS
 62
     7
 10
255.511172
 20
133.850478
 11
256.699521
 21
133.326206
  0
LINE
  8
CSLAYER4
  6
CONTINUOUS
 62
     7
 10
255.511174
 20
133.850477
 11
255.485651
 21
133.860860
  0
LINE
  8
CSLAYER4
  6
CONTINUOUS
 62
     7
 10
255.485651
 20
133.860860
 11
255.460205
 21
133.871558
  0
LINE
  8
CSLAYER4
  6
CONTINUOUS
 62
     7
 10
255.460205
 20
133.871558
 11
255.434847
 21
133.882578
  0
LINE
  8
CSLAYER4
  6
CONTINUOUS
 62
     7
 10
255.434847
 20
133.882578
 11
255.409592
 21
133.893935
  0
LINE
  8
CSLAYER4
  6
CONTINUOUS
 62
     7
 10
255.409592
 20
133.893935
 11
255.384467
 21
133.905622
  0
LINE
  8
CSLAYER4
  6
CONTINUOUS
 62
     7
 10
255.384467
 20
133.905622
 11
255.359480
 21
133.917659
  0
LINE
  8
CSLAYER4
  6
CONTINUOUS
 62
     7
 10
255.359480
 20
133.917659
 11
255.334644
 21
133.930046
  0
LINE
  8
CSLAYER4
  6
CONTINUOUS
 62
     7
 10
255.334644
 20
133.930046
 11
255.309987
 21
133.942783
  0
LINE
  8
CSLAYER4
  6
CONTINUOUS
 62
     7
 10
255.309987
 20
133.942783
 11
255.285515
 21
133.955884
  0
LINE
  8
CSLAYER4
  6
CONTINUOUS
 62
     7
 10
255.285515
 20
133.955884
 11
255.261249
 21
133.969349
  0
LINE
  8
CSLAYER4
  6
CONTINUOUS
 62
     7
 10
255.261249
 20
133.969349
 11
255.237203
 21
133.983193
  0
LINE
  8
CSLAYER4
  6
CONTINUOUS
 62
     7
 10
255.237203
 20
133.983193
 11
255.213396
 21
133.997413
  0
LINE
  8
CSLAYER4
  6
CONTINUOUS
 62
     7
 10
255.213396
 20
133.997413
 11
255.189845
 21
134.012011
  0
LINE
  8
CSLAYER4
  6
CONTINUOUS
 62
     7
 10
255.189845
 20
134.012011
 11
255.166560
 21
134.027007
  0
LINE
  8
CSLAYER4
  6
CONTINUOUS
 62
     7
 10
255.166560
 20
134.027007
 11
255.143558
 21
134.042402
  0
LINE
  8
CSLAYER4
  6
CONTINUOUS
 62
     7
 10
255.143558
 20
134.042402
 11
255.120864
 21
134.058202
  0
LINE
  8
CSLAYER4
  6
CONTINUOUS
 62
     7
 10
255.120864
 20
134.058202
 11
255.098486
 21
134.074406
  0
LINE
  8
CSLAYER4
  6
CONTINUOUS
 62
     7
 10
255.098486
 20
134.074406
 11
255.076452
 21
134.091023
  0
LINE
  8
CSLAYER4
  6
CONTINUOUS
 62
     7
 10
255.076452
 20
134.091023
 11
255.054754
 21
134.108066
  0
LINE
  8
CSLAYER4
  6
CONTINUOUS
 62
     7
 10
255.054754
 20
134.108066
 11
255.033420
 21
134.125555
  0
LINE
  8
CSLAYER4
  6
CONTINUOUS
 62
     7
 10
255.033420
 20
134.125555
 11
255.012450
 21
134.143476
  0
LINE
  8
CSLAYER4
  6
CONTINUOUS
 62
     7
 10
255.012450
 20
134.143476
 11
254.991871
 21
134.161858
  0
LINE
  8
CSLAYER4
  6
CONTINUOUS
 62
     7
 10
254.991871
 20
134.161858
 11
254.971697
 21
134.180692
  0
LINE
  8
CSLAYER4
  6
CONTINUOUS
 62
     7
 10
254.971697
 20
134.180692
 11
254.951949
 21
134.199994
  0
LINE
  8
CSLAYER4
  6
CONTINUOUS
 62
     7
 10
254.951949
 20
134.199994
 11
254.936026
 21
134.216329
  0
LINE
  8
CSLAYER4
  6
CONTINUOUS
 62
     7
 10
254.936026
 20
134.216329
 11
254.920569
 21
134.233070
  0
LINE
  8
CSLAYER4
  6
CONTINUOUS
 62
     7
 10
254.920569
 20
134.233070
 11
254.905587
 21
134.250208
  0
LINE
  8
CSLAYER4
  6
CONTINUOUS
 62
     7
 10
254.905587
 20
134.250208
 11
254.891112
 21
134.267759
  0
LINE
  8
CSLAYER4
  6
CONTINUOUS
 62
     7
 10
254.891112
 20
134.267759
 11
254.877160
 21
134.285728
  0
LINE
  8
CSLAYER4
  6
CONTINUOUS
 62
     7
 10
254.877160
 20
134.285728
 11
254.863763
 21
134.304117
  0
LINE
  8
CSLAYER4
  6
CONTINUOUS
 62
     7
 10
254.863763
 20
134.304117
 11
254.850937
 21
134.322938
  0
LINE
  8
CSLAYER4
  6
CONTINUOUS
 62
     7
 10
254.850937
 20
134.322938
 11
254.838708
 21
134.342185
  0
LINE
  8
CSLAYER4
  6
CONTINUOUS
 62
     7
 10
254.838708
 20
134.342185
 11
254.827090
 21
134.361877
  0
LINE
  8
CSLAYER4
  6
CONTINUOUS
 62
     7
 10
254.827090
 20
134.361877
 11
254.816159
 21
134.381941
  0
LINE
  8
CSLAYER4
  6
CONTINUOUS
 62
     7
 10
254.816159
 20
134.381941
 11
254.805962
 21
134.402293
  0
LINE
  8
CSLAYER4
  6
CONTINUOUS
 62
     7
 10
254.805962
 20
134.402293
 11
254.796500
 21
134.422934
  0
LINE
  8
CSLAYER4
  6
CONTINUOUS
 62
     7
 10
254.796500
 20
134.422934
 11
254.787793
 21
134.443863
  0
LINE
  8
CSLAYER4
  6
CONTINUOUS
 62
     7
 10
254.787793
 20
134.443863
 11
254.779828
 21
134.465080
  0
LINE
  8
CSLAYER4
  6
CONTINUOUS
 62
     7
 10
254.779828
 20
134.465080
 11
254.772618
 21
134.486593
  0
LINE
  8
CSLAYER4
  6
CONTINUOUS
 62
     7
 10
254.772618
 20
134.486593
 11
254.766164
 21
134.508394
  0
LINE
  8
CSLAYER4
  6
CONTINUOUS
 62
     7
 10
254.766164
 20
134.508394
 11
254.760471
 21
134.530483
  0
LINE
  8
CSLAYER4
  6
CONTINUOUS
 62
     7
 10
254.760471
 20
134.530483
 11
254.755548
 21
134.552868
  0
LINE
  8
CSLAYER4
  6
CONTINUOUS
 62
     7
 10
254.755548
 20
134.552868
 11
254.751414
 21
134.575397
  0
LINE
  8
CSLAYER4
  6
CONTINUOUS
 62
     7
 10
254.751414
 20
134.575397
 11
254.748071
 21
134.598022
  0
LINE
  8
CSLAYER4
  6
CONTINUOUS
 62
     7
 10
254.748071
 20
134.598022
 11
254.745495
 21
134.620729
  0
LINE
  8
CSLAYER4
  6
CONTINUOUS
 62
     7
 10
254.745495
 20
134.620729
 11
254.743676
 21
134.643519
  0
LINE
  8
CSLAYER4
  6
CONTINUOUS
 62
     7
 10
254.743676
 20
134.643519
 11
254.742598
 21
134.666384
  0
LINE
  8
CSLAYER4
  6
CONTINUOUS
 62
     7
 10
254.742598
 20
134.666384
 11
254.742241
 21
134.689311
  0
LINE
  8
CSLAYER4
  6
CONTINUOUS
 62
     7
 10
254.742241
 20
134.689311
 11
254.742660
 21
134.727612
  0
LINE
  8
CSLAYER4
  6
CONTINUOUS
 62
     7
 10
254.742660
 20
134.727612
 11
254.743951
 21
134.766010
  0
LINE
  8
CSLAYER4
  6
CONTINUOUS
 62
     7
 10
254.743951
 20
134.766010
 11
254.746175
 21
134.804434
  0
LINE
  8
CSLAYER4
  6
CONTINUOUS
 62
     7
 10
254.746175
 20
134.804434
 11
254.749389
 21
134.842825
  0
LINE
  8
CSLAYER4
  6
CONTINUOUS
 62
     7
 10
254.749389
 20
134.842825
 11
254.753653
 21
134.881119
  0
LINE
  8
CSLAYER4
  6
CONTINUOUS
 62
     7
 10
254.753653
 20
134.881119
 11
254.759016
 21
134.919241
  0
LINE
  8
CSLAYER4
  6
CONTINUOUS
 62
     7
 10
254.759016
 20
134.919241
 11
254.765546
 21
134.957144
  0
LINE
  8
CSLAYER4
  6
CONTINUOUS
 62
     7
 10
254.765546
 20
134.957144
 11
254.773298
 21
134.994758
  0
LINE
  8
CSLAYER4
  6
CONTINUOUS
 62
     7
 10
254.773298
 20
134.994758
 11
254.782328
 21
135.032009
  0
LINE
  8
CSLAYER4
  6
CONTINUOUS
 62
     7
 10
254.782328
 20
135.032009
 11
254.792689
 21
135.068841
  0
LINE
  8
CSLAYER4
  6
CONTINUOUS
 62
     7
 10
254.792689
 20
135.068841
 11
254.804438
 21
135.105143
  0
LINE
  8
CSLAYER4
  6
CONTINUOUS
 62
     7
 10
254.804438
 20
135.105143
 11
254.817573
 21
135.140767
  0
LINE
  8
CSLAYER4
  6
CONTINUOUS
 62
     7
 10
254.817573
 20
135.140767
 11
254.832150
 21
135.175662
  0
LINE
  8
CSLAYER4
  6
CONTINUOUS
 62
     7
 10
254.832150
 20
135.175662
 11
254.848211
 21
135.209788
  0
LINE
  8
CSLAYER4
  6
CONTINUOUS
 62
     7
 10
254.848211
 20
135.209788
 11
254.865796
 21
135.243104
  0
LINE
  8
CSLAYER4
  6
CONTINUOUS
 62
     7
 10
254.865796
 20
135.243104
 11
254.884953
 21
135.275548
  0
LINE
  8
CSLAYER4
  6
CONTINUOUS
 62
     7
 10
254.884953
 20
135.275548
 11
254.905718
 21
135.307100
  0
LINE
  8
CSLAYER4
  6
CONTINUOUS
 62
     7
 10
254.905718
 20
135.307100
 11
254.928143
 21
135.337697
  0
LINE
  8
CSLAYER4
  6
CONTINUOUS
 62
     7
 10
254.928143
 20
135.337697
 11
254.952135
 21
135.367133
  0
LINE
  8
CSLAYER4
  6
CONTINUOUS
 62
     7
 10
254.952135
 20
135.367133
 11
254.977458
 21
135.395149
  0
LINE
  8
CSLAYER4
  6
CONTINUOUS
 62
     7
 10
254.977458
 20
135.395149
 11
255.004107
 21
135.421742
  0
LINE
  8
CSLAYER4
  6
CONTINUOUS
 62
     7
 10
255.004107
 20
135.421742
 11
255.032054
 21
135.446935
  0
LINE
  8
CSLAYER4
  6
CONTINUOUS
 62
     7
 10
255.032054
 20
135.446935
 11
255.061277
 21
135.470748
  0
LINE
  8
CSLAYER4
  6
CONTINUOUS
 62
     7
 10
255.061277
 20
135.470748
 11
255.091757
 21
135.493195
  0
LINE
  8
CSLAYER4
  6
CONTINUOUS
 62
     7
 10
255.091757
 20
135.493195
 11
255.119828
 21
135.512153
  0
LINE
  8
CSLAYER4
  6
CONTINUOUS
 62
     7
 10
255.119828
 20
135.512153
 11
255.148433
 21
135.530068
  0
LINE
  8
CSLAYER4
  6
CONTINUOUS
 62
     7
 10
255.148433
 20
135.530068
 11
255.177574
 21
135.546890
  0
LINE
  8
CSLAYER4
  6
CONTINUOUS
 62
     7
 10
255.177574
 20
135.546890
 11
255.207251
 21
135.562587
  0
LINE
  8
CSLAYER4
  6
CONTINUOUS
 62
     7
 10
255.207251
 20
135.562587
 11
255.237484
 21
135.577117
  0
LINE
  8
CSLAYER4
  6
CONTINUOUS
 62
     7
 10
255.237484
 20
135.577117
 11
255.268266
 21
135.590431
  0
LINE
  8
CSLAYER4
  6
CONTINUOUS
 62
     7
 10
255.268266
 20
135.590431
 11
255.299605
 21
135.602495
  0
LINE
  8
CSLAYER4
  6
CONTINUOUS
 62
     7
 10
255.299605
 20
135.602495
 11
255.331500
 21
135.613261
  0
LINE
  8
CSLAYER4
  6
CONTINUOUS
 62
     7
 10
255.331500
 20
135.613261
 11
255.363957
 21
135.622689
  0
LINE
  8
CSLAYER4
  6
CONTINUOUS
 62
     7
 10
255.363957
 20
135.622689
 11
255.396704
 21
135.630674
  0
LINE
  8
CSLAYER4
  6
CONTINUOUS
 62
     7
 10
255.396704
 20
135.630674
 11
255.429580
 21
135.637191
  0
LINE
  8
CSLAYER4
  6
CONTINUOUS
 62
     7
 10
255.429580
 20
135.637191
 11
255.462587
 21
135.642251
  0
LINE
  8
CSLAYER4
  6
CONTINUOUS
 62
     7
 10
255.462587
 20
135.642251
 11
255.495717
 21
135.645877
  0
LINE
  8
CSLAYER4
  6
CONTINUOUS
 62
     7
 10
255.495717
 20
135.645877
 11
255.528979
 21
135.648081
  0
LINE
  8
CSLAYER4
  6
CONTINUOUS
 62
     7
 10
255.528979
 20
135.648081
 11
255.562356
 21
135.648884
  0
LINE
  8
CSLAYER4
  6
CONTINUOUS
 62
     7
 10
255.562356
 20
135.648884
 11
255.595858
 21
135.648301
  0
LINE
  8
CSLAYER4
  6
CONTINUOUS
 62
     7
 10
255.595858
 20
135.648301
 11
255.629469
 21
135.646344
  0
LINE
  8
CSLAYER4
  6
CONTINUOUS
 62
     7
 10
255.629469
 20
135.646344
 11
255.663135
 21
135.643041
  0
LINE
  8
CSLAYER4
  6
CONTINUOUS
 62
     7
 10
255.663135
 20
135.643041
 11
255.696637
 21
135.638455
  0
LINE
  8
CSLAYER4
  6
CONTINUOUS
 62
     7
 10
255.696637
 20
135.638455
 11
255.729926
 21
135.632625
  0
LINE
  8
CSLAYER4
  6
CONTINUOUS
 62
     7
 10
255.729926
 20
135.632625
 11
255.762987
 21
135.625621
  0
LINE
  8
CSLAYER4
  6
CONTINUOUS
 62
     7
 10
255.762987
 20
135.625621
 11
255.795809
 21
135.617484
  0
LINE
  8
CSLAYER4
  6
CONTINUOUS
 62
     7
 10
255.795809
 20
135.617484
 11
255.828384
 21
135.608276
  0
LINE
  8
CSLAYER4
  6
CONTINUOUS
 62
     7
 10
255.828384
 20
135.608276
 11
255.860684
 21
135.598052
  0
LINE
  8
CSLAYER4
  6
CONTINUOUS
 62
     7
 10
255.860684
 20
135.598052
 11
255.918932
 21
135.577865
  0
LINE
  8
CSLAYER4
  6
CONTINUOUS
 62
     7
 10
255.918932
 20
135.577865
 11
255.975758
 21
135.554457
  0
LINE
  8
CSLAYER4
  6
CONTINUOUS
 62
     7
 10
255.975758
 20
135.554457
 11
256.031081
 21
135.527712
  0
LINE
  8
CSLAYER4
  6
CONTINUOUS
 62
     7
 10
256.031081
 20
135.527712
 11
256.084832
 21
135.497534
  0
LINE
  8
CSLAYER4
  6
CONTINUOUS
 62
     7
 10
256.084832
 20
135.497534
 11
256.136701
 21
135.463957
  0
LINE
  8
CSLAYER4
  6
CONTINUOUS
 62
     7
 10
256.136701
 20
135.463957
 11
256.186154
 21
135.427311
  0
LINE
  8
CSLAYER4
  6
CONTINUOUS
 62
     7
 10
256.186154
 20
135.427311
 11
256.233147
 21
135.387657
  0
LINE
  8
CSLAYER4
  6
CONTINUOUS
 62
     7
 10
256.233147
 20
135.387657
 11
256.277738
 21
135.345037
  0
LINE
  8
CSLAYER4
  6
CONTINUOUS
 62
     7
 10
256.277738
 20
135.345037
 11
256.319857
 21
135.299560
  0
LINE
  8
CSLAYER4
  6
CONTINUOUS
 62
     7
 10
256.319857
 20
135.299560
 11
256.359161
 21
135.251804
  0
LINE
  8
CSLAYER4
  6
CONTINUOUS
 62
     7
 10
256.359161
 20
135.251804
 11
256.395663
 21
135.202016
  0
LINE
  8
CSLAYER4
  6
CONTINUOUS
 62
     7
 10
256.395663
 20
135.202016
 11
256.429487
 21
135.150366
  0
LINE
  8
CSLAYER4
  6
CONTINUOUS
 62
     7
 10
256.429487
 20
135.150366
 11
256.460715
 21
135.097048
  0
LINE
  8
CSLAYER4
  6
CONTINUOUS
 62
     7
 10
256.460715
 20
135.097048
 11
256.489472
 21
135.042226
  0
LINE
  8
CSLAYER4
  6
CONTINUOUS
 62
     7
 10
256.489472
 20
135.042226
 11
256.515853
 21
134.986086
  0
LINE
  8
CSLAYER4
  6
CONTINUOUS
 62
     7
 10
256.515853
 20
134.986086
 11
256.539968
 21
134.928799
  0
LINE
  8
CSLAYER4
  6
CONTINUOUS
 62
     7
 10
256.539968
 20
134.928799
 11
256.561927
 21
134.870537
  0
LINE
  8
CSLAYER4
  6
CONTINUOUS
 62
     7
 10
256.561927
 20
134.870537
 11
256.581881
 21
134.811328
  0
LINE
  8
CSLAYER4
  6
CONTINUOUS
 62
     7
 10
256.581881
 20
134.811328
 11
256.599912
 21
134.751308
  0
LINE
  8
CSLAYER4
  6
CONTINUOUS
 62
     7
 10
256.599912
 20
134.751308
 11
256.616117
 21
134.690630
  0
LINE
  8
CSLAYER4
  6
CONTINUOUS
 62
     7
 10
256.616117
 20
134.690630
 11
256.630605
 21
134.629470
  0
LINE
  8
CSLAYER4
  6
CONTINUOUS
 62
     7
 10
256.630605
 20
134.629470
 11
256.643445
 21
134.567974
  0
LINE
  8
CSLAYER4
  6
CONTINUOUS
 62
     7
 10
256.643445
 20
134.567974
 11
256.654734
 21
134.506313
  0
LINE
  8
CSLAYER4
  6
CONTINUOUS
 62
     7
 10
256.654734
 20
134.506313
 11
256.664567
 21
134.444653
  0
LINE
  8
CSLAYER4
  6
CONTINUOUS
 62
     7
 10
257.713113
 20
134.444653
 11
256.664570
 21
134.444653
  0
LINE
  8
CSLAYER4
  6
CONTINUOUS
 62
     7
 10
257.713116
 20
134.444653
 11
257.709875
 21
134.517890
  0
LINE
  8
CSLAYER4
  6
CONTINUOUS
 62
     7
 10
257.709875
 20
134.517890
 11
257.705165
 21
134.591107
  0
LINE
  8
CSLAYER4
  6
CONTINUOUS
 62
     7
 10
257.705165
 20
134.591107
 11
257.698916
 21
134.664242
  0
LINE
  8
CSLAYER4
  6
CONTINUOUS
 62
     7
 10
257.698916
 20
134.664242
 11
257.691074
 21
134.737232
  0
LINE
  8
CSLAYER4
  6
CONTINUOUS
 62
     7
 10
257.691074
 20
134.737232
 11
257.681571
 21
134.810017
  0
LINE
  8
CSLAYER4
  6
CONTINUOUS
 62
     7
 10
257.681571
 20
134.810017
 11
257.670338
 21
134.882527
  0
LINE
  8
CSLAYER4
  6
CONTINUOUS
 62
     7
 10
257.670338
 20
134.882527
 11
257.657319
 21
134.954707
  0
LINE
  8
CSLAYER4
  6
CONTINUOUS
 62
     7
 10
257.657319
 20
134.954707
 11
257.642460
 21
135.026495
  0
LINE
  8
CSLAYER4
  6
CONTINUOUS
 62
     7
 10
257.642460
 20
135.026495
 11
257.625665
 21
135.097817
  0
LINE
  8
CSLAYER4
  6
CONTINUOUS
 62
     7
 10
257.625665
 20
135.097817
 11
257.606919
 21
135.168596
  0
LINE
  8
CSLAYER4
  6
CONTINUOUS
 62
     7
 10
257.606919
 20
135.168596
 11
257.586155
 21
135.238648
  0
LINE
  8
CSLAYER4
  6
CONTINUOUS
 62
     7
 10
257.586155
 20
135.238648
 11
257.563372
 21
135.307897
  0
LINE
  8
CSLAYER4
  6
CONTINUOUS
 62
     7
 10
257.563372
 20
135.307897
 11
257.538488
 21
135.376307
  0
LINE
  8
CSLAYER4
  6
CONTINUOUS
 62
     7
 10
257.538488
 20
135.376307
 11
257.511462
 21
135.443818
  0
LINE
  8
CSLAYER4
  6
CONTINUOUS
 62
     7
 10
257.511462
 20
135.443818
 11
257.482238
 21
135.510388
  0
LINE
  8
CSLAYER4
  6
CONTINUOUS
 62
     7
 10
257.482238
 20
135.510388
 11
257.450776
 21
135.575969
  0
LINE
  8
CSLAYER4
  6
CONTINUOUS
 62
     7
 10
257.450776
 20
135.575969
 11
257.417021
 21
135.640521
  0
LINE
  8
CSLAYER4
  6
CONTINUOUS
 62
     7
 10
257.417021
 20
135.640521
 11
257.380917
 21
135.703994
  0
LINE
  8
CSLAYER4
  6
CONTINUOUS
 62
     7
 10
257.380917
 20
135.703994
 11
257.342561
 21
135.766123
  0
LINE
  8
CSLAYER4
  6
CONTINUOUS
 62
     7
 10
257.342561
 20
135.766123
 11
257.302090
 21
135.826636
  0
LINE
  8
CSLAYER4
  6
CONTINUOUS
 62
     7
 10
257.302090
 20
135.826636
 11
257.259490
 21
135.885530
  0
LINE
  8
CSLAYER4
  6
CONTINUOUS
 62
     7
 10
257.259490
 20
135.885530
 11
257.214762
 21
135.942790
  0
LINE
  8
CSLAYER4
  6
CONTINUOUS
 62
     7
 10
257.214762
 20
135.942790
 11
257.167919
 21
135.998422
  0
LINE
  8
CSLAYER4
  6
CONTINUOUS
 62
     7
 10
257.167919
 20
135.998422
 11
257.118934
 21
136.052419
  0
LINE
  8
CSLAYER4
  6
CONTINUOUS
 62
     7
 10
257.118934
 20
136.052419
 11
257.069399
 21
136.105874
  0
LINE
  8
CSLAYER4
  6
CONTINUOUS
 62
     7
 10
257.069399
 20
136.105874
 11
257.018395
 21
136.157689
  0
LINE
  8
CSLAYER4
  6
CONTINUOUS
 62
     7
 10
257.018395
 20
136.157689
 11
256.965908
 21
136.207787
  0
LINE
  8
CSLAYER4
  6
CONTINUOUS
 62
     7
 10
256.965908
 20
136.207787
 11
256.911897
 21
136.256071
  0
LINE
  8
CSLAYER4
  6
CONTINUOUS
 62
     7
 10
256.911897
 20
136.256071
 11
256.856361
 21
136.302461
  0
LINE
  8
CSLAYER4
  6
CONTINUOUS
 62
     7
 10
256.856361
 20
136.302461
 11
256.799259
 21
136.346873
  0
LINE
  8
CSLAYER4
  6
CONTINUOUS
 62
     7
 10
256.799259
 20
136.346873
 11
256.740551
 21
136.389219
  0
LINE
  8
CSLAYER4
  6
CONTINUOUS
 62
     7
 10
256.740551
 20
136.389219
 11
256.680250
 21
136.429408
  0
LINE
  8
CSLAYER4
  6
CONTINUOUS
 62
     7
 10
256.680250
 20
136.429408
 11
256.618287
 21
136.467359
  0
LINE
  8
CSLAYER4
  6
CONTINUOUS
 62
     7
 10
256.618287
 20
136.467359
 11
256.555005
 21
136.502797
  0
LINE
  8
CSLAYER4
  6
CONTINUOUS
 62
     7
 10
256.555005
 20
136.502797
 11
256.490736
 21
136.535522
  0
LINE
  8
CSLAYER4
  6
CONTINUOUS
 62
     7
 10
256.490736
 20
136.535522
 11
256.425477
 21
136.565543
  0
LINE
  8
CSLAYER4
  6
CONTINUOUS
 62
     7
 10
256.425477
 20
136.565543
 11
256.359216
 21
136.592851
  0
LINE
  8
CSLAYER4
  6
CONTINUOUS
 62
     7
 10
256.359216
 20
136.592851
 11
256.291965
 21
136.617460
  0
LINE
  8
CSLAYER4
  6
CONTINUOUS
 62
     7
 10
256.291965
 20
136.617460
 11
256.223727
 21
136.639370
  0
LINE
  8
CSLAYER4
  6
CONTINUOUS
 62
     7
 10
256.223727
 20
136.639370
 11
256.154513
 21
136.658583
  0
LINE
  8
CSLAYER4
  6
CONTINUOUS
 62
     7
 10
256.154513
 20
136.658583
 11
256.084296
 21
136.675111
  0
LINE
  8
CSLAYER4
  6
CONTINUOUS
 62
     7
 10
256.084296
 20
136.675111
 11
256.013167
 21
136.688939
  0
LINE
  8
CSLAYER4
  6
CONTINUOUS
 62
     7
 10
256.013167
 20
136.688939
 11
255.941639
 21
136.700015
  0
LINE
  8
CSLAYER4
  6
CONTINUOUS
 62
     7
 10
255.941639
 20
136.700015
 11
255.869871
 21
136.708392
  0
LINE
  8
CSLAYER4
  6
CONTINUOUS
 62
     7
 10
255.869871
 20
136.708392
 11
255.797890
 21
136.714147
  0
LINE
  8
CSLAYER4
  6
CONTINUOUS
 62
     7
 10
255.797890
 20
136.714147
 11
255.725737
 21
136.717367
  0
LINE
  8
CSLAYER4
  6
CONTINUOUS
 62
     7
 10
255.725737
 20
136.717367
 11
255.653454
 21
136.718122
  0
LINE
  8
CSLAYER4
  6
CONTINUOUS
 62
     7
 10
255.653454
 20
136.718122
 11
255.581075
 21
136.716494
  0
LINE
  8
CSLAYER4
  6
CONTINUOUS
 62
     7
 10
255.581075
 20
136.716494
 11
255.504960
 21
136.712450
  0
LINE
  8
CSLAYER4
  6
CONTINUOUS
 62
     7
 10
255.504960
 20
136.712450
 11
255.429285
 21
136.705921
  0
LINE
  8
CSLAYER4
  6
CONTINUOUS
 62
     7
 10
255.429285
 20
136.705921
 11
255.354063
 21
136.696850
  0
LINE
  8
CSLAYER4
  6
CONTINUOUS
 62
     7
 10
255.354063
 20
136.696850
 11
255.279335
 21
136.685177
  0
LINE
  8
CSLAYER4
  6
CONTINUOUS
 62
     7
 10
255.279335
 20
136.685177
 11
255.205122
 21
136.670846
  0
LINE
  8
CSLAYER4
  6
CONTINUOUS
 62
     7
 10
255.205122
 20
136.670846
 11
255.131459
 21
136.653797
  0
LINE
  8
CSLAYER4
  6
CONTINUOUS
 62
     7
 10
255.131459
 20
136.653797
 11
255.058373
 21
136.633967
  0
LINE
  8
CSLAYER4
  6
CONTINUOUS
 62
     7
 10
255.058373
 20
136.633967
 11
254.985890
 21
136.611307
  0
LINE
  8
CSLAYER4
  6
CONTINUOUS
 62
     7
 10
254.985890
 20
136.611307
 11
254.914060
 21
136.585757
  0
LINE
  8
CSLAYER4
  6
CONTINUOUS
 62
     7
 10
254.914060
 20
136.585757
 11
254.843425
 21
136.557481
  0
LINE
  8
CSLAYER4
  6
CONTINUOUS
 62
     7
 10
254.843425
 20
136.557481
 11
254.774238
 21
136.526596
  0
LINE
  8
CSLAYER4
  6
CONTINUOUS
 62
     7
 10
254.774238
 20
136.526596
 11
254.706474
 21
136.493136
  0
LINE
  8
CSLAYER4
  6
CONTINUOUS
 62
     7
 10
254.706474
 20
136.493136
 11
254.640116
 21
136.457128
  0
LINE
  8
CSLAYER4
  6
CONTINUOUS
 62
     7
 10
254.640116
 20
136.457128
 11
254.575166
 21
136.418607
  0
LINE
  8
CSLAYER4
  6
CONTINUOUS
 62
     7
 10
254.575166
 20
136.418607
 11
254.511603
 21
136.377614
  0
LINE
  8
CSLAYER4
  6
CONTINUOUS
 62
     7
 10
254.511603
 20
136.377614
 11
254.449414
 21
136.334164
  0
LINE
  8
CSLAYER4
  6
CONTINUOUS
 62
     7
 10
254.449414
 20
136.334164
 11
254.388584
 21
136.288303
  0
LINE
  8
CSLAYER4
  6
CONTINUOUS
 62
     7
 10
254.388584
 20
136.288303
 11
254.329176
 21
136.240114
  0
LINE
  8
CSLAYER4
  6
CONTINUOUS
 62
     7
 10
254.329176
 20
136.240114
 11
254.271483
 21
136.189920
  0
LINE
  8
CSLAYER4
  6
CONTINUOUS
 62
     7
 10
254.271483
 20
136.189920
 11
254.215508
 21
136.137845
  0
LINE
  8
CSLAYER4
  6
CONTINUOUS
 62
     7
 10
254.215508
 20
136.137845
 11
254.161236
 21
136.083985
  0
LINE
  8
CSLAYER4
  6
CONTINUOUS
 62
     7
 10
254.161236
 20
136.083985
 11
254.108618
 21
136.028435
  0
LINE
  8
CSLAYER4
  6
CONTINUOUS
 62
     7
 10
254.108618
 20
136.028435
 11
254.057642
 21
135.971278
  0
LINE
  8
CSLAYER4
  6
CONTINUOUS
 62
     7
 10
254.057642
 20
135.971278
 11
254.008258
 21
135.912611
  0
LINE
  8
CSLAYER4
  6
CONTINUOUS
 62
     7
 10
254.008258
 20
135.912611
 11
253.973514
 21
135.864910
  0
LINE
  8
CSLAYER4
  6
CONTINUOUS
 62
     7
 10
253.973514
 20
135.864910
 11
253.940205
 21
135.816350
  0
LINE
  8
CSLAYER4
  6
CONTINUOUS
 62
     7
 10
253.940205
 20
135.816350
 11
253.908338
 21
135.766946
  0
LINE
  8
CSLAYER4
  6
CONTINUOUS
 62
     7
 10
253.908338
 20
135.766946
 11
253.877933
 21
135.716684
  0
LINE
  8
CSLAYER4
  6
CONTINUOUS
 62
     7
 10
253.877933
 20
135.716684
 11
253.848998
 21
135.665563
  0
LINE
  8
CSLAYER4
  6
CONTINUOUS
 62
     7
 10
253.848998
 20
135.665563
 11
253.821532
 21
135.613577
  0
LINE
  8
CSLAYER4
  6
CONTINUOUS
 62
     7
 10
253.821532
 20
135.613577
 11
253.795549
 21
135.560726
  0
LINE
  8
CSLAYER4
  6
CONTINUOUS
 62
     7
 10
253.795549
 20
135.560726
 11
253.771056
 21
135.506996
  0
LINE
  8
CSLAYER4
  6
CONTINUOUS
 62
     7
 10
253.771056
 20
135.506996
 11
253.748075
 21
135.452422
  0
LINE
  8
CSLAYER4
  6
CONTINUOUS
 62
     7
 10
253.748075
 20
135.452422
 11
253.726720
 21
135.397263
  0
LINE
  8
CSLAYER4
  6
CONTINUOUS
 62
     7
 10
253.726720
 20
135.397263
 11
253.706993
 21
135.341618
  0
LINE
  8
CSLAYER4
  6
CONTINUOUS
 62
     7
 10
253.706993
 20
135.341618
 11
253.688879
 21
135.285498
  0
LINE
  8
CSLAYER4
  6
CONTINUOUS
 62
     7
 10
253.688879
 20
135.285498
 11
253.672344
 21
135.228911
  0
LINE
  8
CSLAYER4
  6
CONTINUOUS
 62
     7
 10
253.672344
 20
135.228911
 11
253.657382
 21
135.171865
  0
LINE
  8
CSLAYER4
  6
CONTINUOUS
 62
     7
 10
253.657382
 20
135.171865
 11
253.643958
 21
135.114386
  0
LINE
  8
CSLAYER4
  6
CONTINUOUS
 62
     7
 10
253.643958
 20
135.114386
 11
253.632052
 21
135.056474
  0
LINE
  8
CSLAYER4
  6
CONTINUOUS
 62
     7
 10
253.632052
 20
135.056474
 11
253.621649
 21
134.998151
  0
LINE
  8
CSLAYER4
  6
CONTINUOUS
 62
     7
 10
253.621649
 20
134.998151
 11
253.612723
 21
134.939463
  0
LINE
  8
CSLAYER4
  6
CONTINUOUS
 62
     7
 10
253.612723
 20
134.939463
 11
253.605266
 21
134.880590
  0
LINE
  8
CSLAYER4
  6
CONTINUOUS
 62
     7
 10
253.605266
 20
134.880590
 11
253.599251
 21
134.821566
  0
LINE
  8
CSLAYER4
  6
CONTINUOUS
 62
     7
 10
253.599251
 20
134.821566
 11
253.594643
 21
134.762419
  0
LINE
  8
CSLAYER4
  6
CONTINUOUS
 62
     7
 10
253.594643
 20
134.762419
 11
253.591395
 21
134.703167
  0
LINE
  8
CSLAYER4
  6
CONTINUOUS
 62
     7
 10
253.591395
 20
134.703167
 11
253.589473
 21
134.643841
  0
LINE
  8
CSLAYER4
  6
CONTINUOUS
 62
     7
 10
253.589473
 20
134.643841
 11
253.588841
 21
134.584460
  0
LINE
  8
CSLAYER4
  6
CONTINUOUS
 62
     7
 10
253.588841
 20
134.584460
 11
253.589432
 21
134.526885
  0
LINE
  8
CSLAYER4
  6
CONTINUOUS
 62
     7
 10
253.589432
 20
134.526885
 11
253.591251
 21
134.469283
  0
LINE
  8
CSLAYER4
  6
CONTINUOUS
 62
     7
 10
253.591251
 20
134.469283
 11
253.594348
 21
134.411693
  0
LINE
  8
CSLAYER4
  6
CONTINUOUS
 62
     7
 10
253.594348
 20
134.411693
 11
253.598791
 21
134.354194
  0
LINE
  8
CSLAYER4
  6
CONTINUOUS
 62
     7
 10
253.598791
 20
134.354194
 11
253.604641
 21
134.296825
  0
LINE
  8
CSLAYER4
  6
CONTINUOUS
 62
     7
 10
253.604641
 20
134.296825
 11
253.611954
 21
134.239654
  0
LINE
  8
CSLAYER4
  6
CONTINUOUS
 62
     7
 10
253.611954
 20
134.239654
 11
253.620784
 21
134.182732
  0
LINE
  8
CSLAYER4
  6
CONTINUOUS
 62
     7
 10
253.620784
 20
134.182732
 11
253.631207
 21
134.126117
  0
LINE
  8
CSLAYER4
  6
CONTINUOUS
 62
     7
 10
253.631207
 20
134.126117
 11
253.643271
 21
134.069867
  0
LINE
  8
CSLAYER4
  6
CONTINUOUS
 62
     7
 10
253.643271
 20
134.069867
 11
253.657032
 21
134.014057
  0
LINE
  8
CSLAYER4
  6
CONTINUOUS
 62
     7
 10
253.657032
 20
134.014057
 11
253.672516
 21
133.958885
  0
LINE
  8
CSLAYER4
  6
CONTINUOUS
 62
     7
 10
253.672516
 20
133.958885
 11
253.689751
 21
133.904407
  0
LINE
  8
CSLAYER4
  6
CONTINUOUS
 62
     7
 10
253.689751
 20
133.904407
 11
253.708785
 21
133.850670
  0
LINE
  8
CSLAYER4
  6
CONTINUOUS
 62
     7
 10
253.708785
 20
133.850670
 11
253.729665
 21
133.797709
  0
LINE
  8
CSLAYER4
  6
CONTINUOUS
 62
     7
 10
253.729665
 20
133.797709
 11
253.752441
 21
133.745565
  0
LINE
  8
CSLAYER4
  6
CONTINUOUS
 62
     7
 10
253.752441
 20
133.745565
 11
253.777147
 21
133.694279
  0
LINE
  8
CSLAYER4
  6
CONTINUOUS
 62
     7
 10
253.777147
 20
133.694279
 11
253.803844
 21
133.643887
  0
LINE
  8
CSLAYER4
  6
CONTINUOUS
 62
     7
 10
253.803844
 20
133.643887
 11
253.832559
 21
133.594421
  0
LINE
  8
CSLAYER4
  6
CONTINUOUS
 62
     7
 10
253.832559
 20
133.594421
 11
253.863225
 21
133.546129
  0
LINE
  8
CSLAYER4
  6
CONTINUOUS
 62
     7
 10
253.863225
 20
133.546129
 11
253.895676
 21
133.499279
  0
LINE
  8
CSLAYER4
  6
CONTINUOUS
 62
     7
 10
253.895676
 20
133.499279
 11
253.929905
 21
133.453864
  0
LINE
  8
CSLAYER4
  6
CONTINUOUS
 62
     7
 10
253.929905
 20
133.453864
 11
253.965906
 21
133.409885
  0
LINE
  8
CSLAYER4
  6
CONTINUOUS
 62
     7
 10
253.965906
 20
133.409885
 11
254.003678
 21
133.367333
  0
LINE
  8
CSLAYER4
  6
CONTINUOUS
 62
     7
 10
254.003678
 20
133.367333
 11
254.043209
 21
133.326203
  0
LINE
  8
CSLAYER4
  6
CONTINUOUS
 62
     7
 10
254.043209
 20
133.326203
 11
254.066259
 21
133.303393
  0
LINE
  8
CSLAYER4
  6
CONTINUOUS
 62
     7
 10
254.066259
 20
133.303393
 11
254.089598
 21
133.280768
  0
LINE
  8
CSLAYER4
  6
CONTINUOUS
 62
     7
 10
254.089598
 20
133.280768
 11
254.113219
 21
133.258363
  0
LINE
  8
CSLAYER4
  6
CONTINUOUS
 62
     7
 10
254.113219
 20
133.258363
 11
254.137128
 21
133.236184
  0
LINE
  8
CSLAYER4
  6
CONTINUOUS
 62
     7
 10
254.137128
 20
133.236184
 11
254.161318
 21
133.214259
  0
LINE
  8
CSLAYER4
  6
CONTINUOUS
 62
     7
 10
254.161318
 20
133.214259
 11
254.185790
 21
133.192603
  0
LINE
  8
CSLAYER4
  6
CONTINUOUS
 62
     7
 10
254.185790
 20
133.192603
 11
254.210537
 21
133.171241
  0
LINE
  8
CSLAYER4
  6
CONTINUOUS
 62
     7
 10
254.210537
 20
133.171241
 11
254.235558
 21
133.150195
  0
LINE
  8
CSLAYER4
  6
CONTINUOUS
 62
     7
 10
254.235558
 20
133.150195
 11
254.260854
 21
133.129479
  0
LINE
  8
CSLAYER4
  6
CONTINUOUS
 62
     7
 10
254.260854
 20
133.129479
 11
254.286425
 21
133.109113
  0
LINE
  8
CSLAYER4
  6
CONTINUOUS
 62
     7
 10
254.286425
 20
133.109113
 11
254.312256
 21
133.089118
  0
LINE
  8
CSLAYER4
  6
CONTINUOUS
 62
     7
 10
254.312256
 20
133.089118
 11
254.338363
 21
133.069521
  0
LINE
  8
CSLAYER4
  6
CONTINUOUS
 62
     7
 10
254.338363
 20
133.069521
 11
254.364730
 21
133.050337
  0
LINE
  8
CSLAYER4
  6
CONTINUOUS
 62
     7
 10
254.364730
 20
133.050337
 11
254.391358
 21
133.031577
  0
LINE
  8
CSLAYER4
  6
CONTINUOUS
 62
     7
 10
254.391358
 20
133.031577
 11
254.418240
 21
133.013278
  0
LINE
  8
CSLAYER4
  6
CONTINUOUS
 62
     7
 10
254.418240
 20
133.013278
 11
254.445384
 21
132.995446
  0
LINE
  8
CSLAYER4
  6
CONTINUOUS
 62
     7
 10
254.445384
 20
132.995446
 11
254.472788
 21
132.978108
  0
LINE
  8
CSLAYER4
  6
CONTINUOUS
 62
     7
 10
254.472788
 20
132.978108
 11
254.500439
 21
132.961285
  0
LINE
  8
CSLAYER4
  6
CONTINUOUS
 62
     7
 10
254.500439
 20
132.961285
 11
254.528358
 21
132.944984
  0
LINE
  8
CSLAYER4
  6
CONTINUOUS
 62
     7
 10
254.528358
 20
132.944984
 11
254.556572
 21
132.929205
  0
LINE
  8
CSLAYER4
  6
CONTINUOUS
 62
     7
 10
254.556572
 20
132.929205
 11
254.585075
 21
132.913982
  0
LINE
  8
CSLAYER4
  6
CONTINUOUS
 62
     7
 10
254.585075
 20
132.913982
 11
254.613873
 21
132.899329
  0
LINE
  8
CSLAYER4
  6
CONTINUOUS
 62
     7
 10
254.613873
 20
132.899329
 11
254.642959
 21
132.885274
  0
LINE
  8
CSLAYER4
  6
CONTINUOUS
 62
     7
 10
254.642959
 20
132.885274
 11
254.672334
 21
132.871836
  0
LINE
  8
CSLAYER4
  6
CONTINUOUS
 62
     7
 10
256.140297
 20
132.242711
 11
254.672336
 21
132.871837
  0
LINE
  8
CSLAYER4
  6
CONTINUOUS
 62
     7
 10
256.140299
 20
132.242711
 11
256.182226
 21
132.223450
  0
LINE
  8
CSLAYER4
  6
CONTINUOUS
 62
     7
 10
256.182226
 20
132.223450
 11
256.223384
 21
132.202604
  0
LINE
  8
CSLAYER4
  6
CONTINUOUS
 62
     7
 10
256.223384
 20
132.202604
 11
256.263676
 21
132.180095
  0
LINE
  8
CSLAYER4
  6
CONTINUOUS
 62
     7
 10
256.263676
 20
132.180095
 11
256.302952
 21
132.155864
  0
LINE
  8
CSLAYER4
  6
CONTINUOUS
 62
     7
 10
256.302952
 20
132.155864
 11
256.341102
 21
132.129840
  0
LINE
  8
CSLAYER4
  6
CONTINUOUS
 62
     7
 10
256.341102
 20
132.129840
 11
256.377933
 21
132.102004
  0
LINE
  8
CSLAYER4
  6
CONTINUOUS
 62
     7
 10
256.377933
 20
132.102004
 11
256.413186
 21
132.072423
  0
LINE
  8
CSLAYER4
  6
CONTINUOUS
 62
     7
 10
256.413186
 20
132.072423
 11
256.446777
 21
132.041063
  0
LINE
  8
CSLAYER4
  6
CONTINUOUS
 62
     7
 10
256.446777
 20
132.041063
 11
256.478610
 21
132.007878
  0
LINE
  8
CSLAYER4
  6
CONTINUOUS
 62
     7
 10
256.478610
 20
132.007878
 11
256.508630
 21
131.972825
  0
LINE
  8
CSLAYER4
  6
CONTINUOUS
 62
     7
 10
256.508630
 20
131.972825
 11
256.536590
 21
131.936069
  0
LINE
  8
CSLAYER4
  6
CONTINUOUS
 62
     7
 10
256.536590
 20
131.936069
 11
256.562188
 21
131.898035
  0
LINE
  8
CSLAYER4
  6
CONTINUOUS
 62
     7
 10
256.562188
 20
131.898035
 11
256.585452
 21
131.858780
  0
LINE
  8
CSLAYER4
  6
CONTINUOUS
 62
     7
 10
256.585452
 20
131.858780
 11
256.606422
 21
131.818322
  0
LINE
  8
CSLAYER4
  6
CONTINUOUS
 62
     7
 10
256.606422
 20
131.818322
 11
256.625126
 21
131.776705
  0
LINE
  8
CSLAYER4
  6
CONTINUOUS
 62
     7
 10
256.625126
 20
131.776705
 11
256.641633
 21
131.733955
  0
LINE
  8
CSLAYER4
  6
CONTINUOUS
 62
     7
 10
256.641633
 20
131.733955
 11
256.655970
 21
131.690099
  0
LINE
  8
CSLAYER4
  6
CONTINUOUS
 62
     7
 10
256.655970
 20
131.690099
 11
256.668165
 21
131.645295
  0
LINE
  8
CSLAYER4
  6
CONTINUOUS
 62
     7
 10
256.668165
 20
131.645295
 11
256.678190
 21
131.599969
  0
LINE
  8
CSLAYER4
  6
CONTINUOUS
 62
     7
 10
256.678190
 20
131.599969
 11
256.686155
 21
131.554225
  0
LINE
  8
CSLAYER4
  6
CONTINUOUS
 62
     7
 10
256.686155
 20
131.554225
 11
256.692170
 21
131.508158
  0
LINE
  8
CSLAYER4
  6
CONTINUOUS
 62
     7
 10
256.692170
 20
131.508158
 11
256.696317
 21
131.461858
  0
LINE
  8
CSLAYER4
  6
CONTINUOUS
 62
     7
 10
256.696317
 20
131.461858
 11
256.698734
 21
131.415420
  0
LINE
  8
CSLAYER4
  6
CONTINUOUS
 62
     7
 10
256.698734
 20
131.415420
 11
256.699517
 21
131.368927
  0
LINE
  8
CSLAYER4
  6
CONTINUOUS
 62
     7
 10
256.699517
 20
131.368927
 11
256.698542
 21
131.325469
  0
LINE
  8
CSLAYER4
  6
CONTINUOUS
 62
     7
 10
256.698542
 20
131.325469
 11
256.695534
 21
131.282204
  0
LINE
  8
CSLAYER4
  6
CONTINUOUS
 62
     7
 10
256.695534
 20
131.282204
 11
256.690426
 21
131.239172
  0
LINE
  8
CSLAYER4
  6
CONTINUOUS
 62
     7
 10
256.690426
 20
131.239172
 11
256.683093
 21
131.196421
  0
LINE
  8
CSLAYER4
  6
CONTINUOUS
 62
     7
 10
256.683093
 20
131.196421
 11
256.673480
 21
131.154048
  0
LINE
  8
CSLAYER4
  6
CONTINUOUS
 62
     7
 10
256.673480
 20
131.154048
 11
256.661587
 21
131.112417
  0
LINE
  8
CSLAYER4
  6
CONTINUOUS
 62
     7
 10
256.661587
 20
131.112417
 11
256.647414
 21
131.071651
  0
LINE
  8
CSLAYER4
  6
CONTINUOUS
 62
     7
 10
256.647414
 20
131.071651
 11
256.630949
 21
131.031749
  0
LINE
  8
CSLAYER4
  6
CONTINUOUS
 62
     7
 10
256.630949
 20
131.031749
 11
256.612162
 21
130.992728
  0
LINE
  8
CSLAYER4
  6
CONTINUOUS
 62
     7
 10
256.612162
 20
130.992728
 11
256.591206
 21
130.954838
  0
LINE
  8
CSLAYER4
  6
CONTINUOUS
 62
     7
 10
256.591206
 20
130.954838
 11
256.568299
 21
130.918405
  0
LINE
  8
CSLAYER4
  6
CONTINUOUS
 62
     7
 10
256.568299
 20
130.918405
 11
256.543539
 21
130.883400
  0
LINE
  8
CSLAYER4
  6
CONTINUOUS
 62
     7
 10
256.543539
 20
130.883400
 11
256.517034
 21
130.849795
  0
LINE
  8
CSLAYER4
  6
CONTINUOUS
 62
     7
 10
256.517034
 20
130.849795
 11
256.488868
 21
130.817551
  0
LINE
  8
CSLAYER4
  6
CONTINUOUS
 62
     7
 10
256.488868
 20
130.817551
 11
256.459136
 21
130.786631
  0
LINE
  8
CSLAYER4
  6
CONTINUOUS
 62
     7
 10
256.459136
 20
130.786631
 11
256.427907
 21
130.757009
  0
LINE
  8
CSLAYER4
  6
CONTINUOUS
 62
     7
 10
256.427907
 20
130.757009
 11
256.395306
 21
130.728650
  0
LINE
  8
CSLAYER4
  6
CONTINUOUS
 62
     7
 10
256.395306
 20
130.728650
 11
256.361468
 21
130.701583
  0
LINE
  8
CSLAYER4
  6
CONTINUOUS
 62
     7
 10
256.361468
 20
130.701583
 11
256.326572
 21
130.675807
  0
LINE
  8
CSLAYER4
  6
CONTINUOUS
 62
     7
 10
256.326572
 20
130.675807
 11
256.290729
 21
130.651286
  0
LINE
  8
CSLAYER4
  6
CONTINUOUS
 62
     7
 10
256.290729
 20
130.651286
 11
256.254063
 21
130.627982
  0
LINE
  8
CSLAYER4
  6
CONTINUOUS
 62
     7
 10
256.254063
 20
130.627982
 11
256.216695
 21
130.605872
  0
LINE
  8
CSLAYER4
  6
CONTINUOUS
 62
     7
 10
256.216695
 20
130.605872
 11
256.178738
 21
130.584901
  0
LINE
  8
CSLAYER4
  6
CONTINUOUS
 62
     7
 10
256.178738
 20
130.584901
 11
256.140299
 21
130.565044
  0
LINE
  8
CSLAYER4
  6
CONTINUOUS
 62
     7
 10
256.140299
 20
130.565044
 11
256.103083
 21
130.554119
  0
LINE
  8
CSLAYER4
  6
CONTINUOUS
 62
     7
 10
256.103083
 20
130.554119
 11
256.065695
 21
130.544204
  0
LINE
  8
CSLAYER4
  6
CONTINUOUS
 62
     7
 10
256.065695
 20
130.544204
 11
256.028115
 21
130.535318
  0
LINE
  8
CSLAYER4
  6
CONTINUOUS
 62
     7
 10
256.028115
 20
130.535318
 11
255.990356
 21
130.527470
  0
LINE
  8
CSLAYER4
  6
CONTINUOUS
 62
     7
 10
255.990356
 20
130.527470
 11
255.952412
 21
130.520680
  0
LINE
  8
CSLAYER4
  6
CONTINUOUS
 62
     7
 10
255.952412
 20
130.520680
 11
255.914283
 21
130.514953
  0
LINE
  8
CSLAYER4
  6
CONTINUOUS
 62
     7
 10
255.914283
 20
130.514953
 11
255.875975
 21
130.510325
  0
LINE
  8
CSLAYER4
  6
CONTINUOUS
 62
     7
 10
255.875975
 20
130.510325
 11
255.837489
 21
130.506796
  0
LINE
  8
CSLAYER4
  6
CONTINUOUS
 62
     7
 10
255.837489
 20
130.506796
 11
255.798824
 21
130.504385
  0
LINE
  8
CSLAYER4
  6
CONTINUOUS
 62
     7
 10
255.798824
 20
130.504385
 11
255.760152
 21
130.503122
  0
LINE
  8
CSLAYER4
  6
CONTINUOUS
 62
     7
 10
255.760152
 20
130.503122
 11
255.721569
 21
130.502992
  0
LINE
  8
CSLAYER4
  6
CONTINUOUS
 62
     7
 10
255.721569
 20
130.502992
 11
255.683069
 21
130.503987
  0
LINE
  8
CSLAYER4
  6
CONTINUOUS
 62
     7
 10
255.683069
 20
130.503987
 11
255.644644
 21
130.506116
  0
LINE
  8
CSLAYER4
  6
CONTINUOUS
 62
     7
 10
255.644644
 20
130.506116
 11
255.606309
 21
130.509350
  0
LINE
  8
CSLAYER4
  6
CONTINUOUS
 62
     7
 10
255.606309
 20
130.509350
 11
255.568056
 21
130.513703
  0
LINE
  8
CSLAYER4
  6
CONTINUOUS
 62
     7
 10
255.568056
 20
130.513703
 11
255.529878
 21
130.519155
  0
LINE
  8
CSLAYER4
  6
CONTINUOUS
 62
     7
 10
255.529878
 20
130.519155
 11
255.491790
 21
130.525699
  0
LINE
  8
CSLAYER4
  6
CONTINUOUS
 62
     7
 10
255.491790
 20
130.525699
 11
255.453805
 21
130.533328
  0
LINE
  8
CSLAYER4
  6
CONTINUOUS
 62
     7
 10
255.453805
 20
130.533328
 11
255.416073
 21
130.541993
  0
LINE
  8
CSLAYER4
  6
CONTINUOUS
 62
     7
 10
255.416073
 20
130.541993
 11
255.378610
 21
130.551668
  0
LINE
  8
CSLAYER4
  6
CONTINUOUS
 62
     7
 10
255.378610
 20
130.551668
 11
255.341429
 21
130.562332
  0
LINE
  8
CSLAYER4
  6
CONTINUOUS
 62
     7
 10
255.341429
 20
130.562332
 11
255.304528
 21
130.573956
  0
LINE
  8
CSLAYER4
  6
CONTINUOUS
 62
     7
 10
255.304528
 20
130.573956
 11
255.267902
 21
130.586515
  0
LINE
  8
CSLAYER4
  6
CONTINUOUS
 62
     7
 10
255.267902
 20
130.586515
 11
255.231558
 21
130.599994
  0
LINE
  8
CSLAYER4
  6
CONTINUOUS
 62
     7
 10
255.231558
 20
130.599994
 11
255.206159
 21
130.610458
  0
LINE
  8
CSLAYER4
  6
CONTINUOUS
 62
     7
 10
255.206159
 20
130.610458
 11
255.180959
 21
130.621459
  0
LINE
  8
CSLAYER4
  6
CONTINUOUS
 62
     7
 10
255.180959
 20
130.621459
 11
255.156006
 21
130.633015
  0
LINE
  8
CSLAYER4
  6
CONTINUOUS
 62
     7
 10
255.156006
 20
130.633015
 11
255.131315
 21
130.645134
  0
LINE
  8
CSLAYER4
  6
CONTINUOUS
 62
     7
 10
255.131315
 20
130.645134
 11
255.106919
 21
130.657844
  0
LINE
  8
CSLAYER4
  6
CONTINUOUS
 62
     7
 10
255.106919
 20
130.657844
 11
255.082845
 21
130.671144
  0
LINE
  8
CSLAYER4
  6
CONTINUOUS
 62
     7
 10
255.082845
 20
130.671144
 11
255.059128
 21
130.685062
  0
LINE
  8
CSLAYER4
  6
CONTINUOUS
 62
     7
 10
255.059128
 20
130.685062
 11
255.035789
 21
130.699612
  0
LINE
  8
CSLAYER4
  6
CONTINUOUS
 62
     7
 10
255.035789
 20
130.699612
 11
255.012855
 21
130.714801
  0
LINE
  8
CSLAYER4
  6
CONTINUOUS
 62
     7
 10
255.012855
 20
130.714801
 11
254.990374
 21
130.730642
  0
LINE
  8
CSLAYER4
  6
CONTINUOUS
 62
     7
 10
254.990374
 20
130.730642
 11
254.968415
 21
130.747108
  0
LINE
  8
CSLAYER4
  6
CONTINUOUS
 62
     7
 10
254.968415
 20
130.747108
 11
254.947013
 21
130.764205
  0
LINE
  8
CSLAYER4
  6
CONTINUOUS
 62
     7
 10
254.947013
 20
130.764205
 11
254.926187
 21
130.781948
  0
LINE
  8
CSLAYER4
  6
CONTINUOUS
 62
     7
 10
254.926187
 20
130.781948
 11
254.905951
 21
130.800343
  0
LINE
  8
CSLAYER4
  6
CONTINUOUS
 62
     7
 10
254.905951
 20
130.800343
 11
254.886327
 21
130.819405
  0
LINE
  8
CSLAYER4
  6
CONTINUOUS
 62
     7
 10
254.886327
 20
130.819405
 11
254.867334
 21
130.839146
  0
LINE
  8
CSLAYER4
  6
CONTINUOUS
 62
     7
 10
254.867334
 20
130.839146
 11
254.848994
 21
130.859573
  0
LINE
  8
CSLAYER4
  6
CONTINUOUS
 62
     7
 10
254.848994
 20
130.859573
 11
254.831327
 21
130.880701
  0
LINE
  8
CSLAYER4
  6
CONTINUOUS
 62
     7
 10
254.831327
 20
130.880701
 11
254.814414
 21
130.902461
  0
LINE
  8
CSLAYER4
  6
CONTINUOUS
 62
     7
 10
254.814414
 20
130.902461
 11
254.798326
 21
130.924770
  0
LINE
  8
CSLAYER4
  6
CONTINUOUS
 62
     7
 10
254.798326
 20
130.924770
 11
254.783069
 21
130.947615
  0
LINE
  8
CSLAYER4
  6
CONTINUOUS
 62
     7
 10
254.783069
 20
130.947615
 11
254.768636
 21
130.971002
  0
LINE
  8
CSLAYER4
  6
CONTINUOUS
 62
     7
 10
254.768636
 20
130.971002
 11
254.755026
 21
130.994939
  0
LINE
  8
CSLAYER4
  6
CONTINUOUS
 62
     7
 10
254.755026
 20
130.994939
 11
254.742241
 21
131.019410
  0
LINE
  8
CSLAYER4
  6
CONTINUOUS
 62
     7
 10
254.742241
 20
131.019410
 11
254.728515
 21
131.047810
  0
LINE
  8
CSLAYER4
  6
CONTINUOUS
 62
     7
 10
254.728515
 20
131.047810
 11
254.715311
 21
131.077006
  0
LINE
  8
CSLAYER4
  6
CONTINUOUS
 62
     7
 10
254.715311
 20
131.077006
 11
254.702622
 21
131.106951
  0
LINE
  8
CSLAYER4
  6
CONTINUOUS
 62
     7
 10
254.702622
 20
131.106951
 11
254.690427
 21
131.137596
  0
LINE
  8
CSLAYER4
  6
CONTINUOUS
 62
     7
 10
254.690427
 20
131.137596
 11
254.678720
 21
131.168887
  0
LINE
  8
CSLAYER4
  6
CONTINUOUS
 62
     7
 10
254.678720
 20
131.168887
 11
254.667493
 21
131.200768
  0
LINE
  8
CSLAYER4
  6
CONTINUOUS
 62
     7
 10
254.667493
 20
131.200768
 11
254.656726
 21
131.233184
  0
LINE
  8
CSLAYER4
  6
CONTINUOUS
 62
     7
 10
254.656726
 20
131.233184
 11
254.646406
 21
131.266102
  0
LINE
  8
CSLAYER4
  6
CONTINUOUS
 62
     7
 10
254.646406
 20
131.266102
 11
254.636532
 21
131.299445
  0
LINE
  8
CSLAYER4
  6
CONTINUOUS
 62
     7
 10
254.636532
 20
131.299445
 11
254.627091
 21
131.333187
  0
LINE
  8
CSLAYER4
  6
CONTINUOUS
 62
     7
 10
254.627091
 20
131.333187
 11
254.618061
 21
131.367259
  0
LINE
  8
CSLAYER4
  6
CONTINUOUS
 62
     7
 10
254.618061
 20
131.367259
 11
254.609437
 21
131.401611
  0
LINE
  8
CSLAYER4
  6
CONTINUOUS
 62
     7
 10
254.609437
 20
131.401611
 11
254.601204
 21
131.436197
  0
LINE
  8
CSLAYER4
  6
CONTINUOUS
 62
     7
 10
254.601204
 20
131.436197
 11
254.593356
 21
131.470963
  0
LINE
  8
CSLAYER4
  6
CONTINUOUS
 62
     7
 10
254.593356
 20
131.470963
 11
254.585871
 21
131.505851
  0
LINE
  8
CSLAYER4
  6
CONTINUOUS
 62
     7
 10
254.585871
 20
131.505851
 11
254.578751
 21
131.540822
  0
LINE
  8
CSLAYER4
  6
CONTINUOUS
 62
     7
 10
254.578751
 20
131.540822
 11
254.571966
 21
131.575827
  0
LINE
  8
CSLAYER4
  6
CONTINUOUS
 62
     7
 10
254.571966
 20
131.575827
 11
254.565498
 21
131.610970
  0
LINE
  8
CSLAYER4
  6
CONTINUOUS
 62
     7
 10
254.565498
 20
131.610970
 11
254.559318
 21
131.646242
  0
LINE
  8
CSLAYER4
  6
CONTINUOUS
 62
     7
 10
254.559318
 20
131.646242
 11
254.553420
 21
131.681618
  0
LINE
  8
CSLAYER4
  6
CONTINUOUS
 62
     7
 10
254.553420
 20
131.681618
 11
254.547804
 21
131.717050
  0
LINE
  8
CSLAYER4
  6
CONTINUOUS
 62
     7
 10
254.547804
 20
131.717050
 11
254.542455
 21
131.752494
  0
LINE
  8
CSLAYER4
  6
CONTINUOUS
 62
     7
 10
254.542455
 20
131.752494
 11
254.537367
 21
131.787925
  0
LINE
  8
CSLAYER4
  6
CONTINUOUS
 62
     7
 10
254.537367
 20
131.787925
 11
254.532533
 21
131.823294
  0
LINE
  8
CSLAYER4
  6
CONTINUOUS
 62
     7
 10
253.414084
 20
131.823293
 11
254.532531
 21
131.823293
  0
LINE
  8
CSLAYER4
  6
CONTINUOUS
 62
     7
 10
253.414083
 20
131.823294
 11
253.424520
 21
131.699348
  0
LINE
  8
CSLAYER4
  6
CONTINUOUS
 62
     7
 10
253.424520
 20
131.699348
 11
253.437992
 21
131.575195
  0
LINE
  8
CSLAYER4
  6
CONTINUOUS
 62
     7
 10
253.437992
 20
131.575195
 11
253.454726
 21
131.451187
  0
LINE
  8
CSLAYER4
  6
CONTINUOUS
 62
     7
 10
253.454726
 20
131.451187
 11
253.474947
 21
131.327694
  0
LINE
  8
CSLAYER4
  6
CONTINUOUS
 62
     7
 10
253.474947
 20
131.327694
 11
253.498884
 21
131.205080
  0
LINE
  8
CSLAYER4
  6
CONTINUOUS
 62
     7
 10
253.498884
 20
131.205080
 11
253.526762
 21
131.083701
  0
LINE
  8
CSLAYER4
  6
CONTINUOUS
 62
     7
 10
253.526762
 20
131.083701
 11
253.558828
 21
130.963840
  0
LINE
  8
CSLAYER4
  6
CONTINUOUS
 62
     7
 10
253.558828
 20
130.963840
 11
253.595508
 21
130.845305
  0
LINE
  8
CSLAYER4
  6
CONTINUOUS
 62
     7
 10
253.595508
 20
130.845305
 11
253.637126
 21
130.728431
  0
LINE
  8
CSLAYER4
  6
CONTINUOUS
 62
     7
 10
253.637126
 20
130.728431
 11
253.683976
 21
130.613672
  0
LINE
  8
CSLAYER4
  6
CONTINUOUS
 62
     7
 10
253.683976
 20
130.613672
 11
253.736354
 21
130.501501
  0
LINE
  8
CSLAYER4
  6
CONTINUOUS
 62
     7
 10
253.736354
 20
130.501501
 11
253.794554
 21
130.392359
  0
LINE
  8
CSLAYER4
  6
CONTINUOUS
 62
     7
 10
253.794554
 20
130.392359
 11
253.858631
 21
130.287097
  0
LINE
  8
CSLAYER4
  6
CONTINUOUS
 62
     7
 10
253.858631
 20
130.287097
 11
253.928381
 21
130.186675
  0
LINE
  8
CSLAYER4
  6
CONTINUOUS
 62
     7
 10
253.928381
 20
130.186675
 11
254.003981
 21
130.091341
  0
LINE
  8
CSLAYER4
  6
CONTINUOUS
 62
     7
 10
254.003981
 20
130.091341
 11
254.085588
 21
130.001335
  0
LINE
  8
CSLAYER4
  6
CONTINUOUS
 62
     7
 10
254.085588
 20
130.001335
 11
254.173383
 21
129.916877
  0
LINE
  8
CSLAYER4
  6
CONTINUOUS
 62
     7
 10
254.173383
 20
129.916877
 11
254.267501
 21
129.838236
  0
LINE
  8
CSLAYER4
  6
CONTINUOUS
 62
     7
 10
254.267501
 20
129.838236
 11
254.366570
 21
129.766660
  0
LINE
  8
CSLAYER4
  6
CONTINUOUS
 62
     7
 10
254.366570
 20
129.766660
 11
254.469608
 21
129.702603
  0
LINE
  8
CSLAYER4
  6
CONTINUOUS
 62
     7
 10
254.469608
 20
129.702603
 11
254.576388
 21
129.645804
  0
LINE
  8
CSLAYER4
  6
CONTINUOUS
 62
     7
 10
254.576388
 20
129.645804
 11
254.686691
 21
129.596022
  0
LINE
  8
CSLAYER4
  6
CONTINUOUS
 62
     7
 10
254.686691
 20
129.596022
 11
254.800304
 21
129.553004
  0
LINE
  8
CSLAYER4
  6
CONTINUOUS
 62
     7
 10
254.800304
 20
129.553004
 11
254.916999
 21
129.516494
  0
ENDBLK
  8
0
  0
BLOCK
  8
CSLAYER1
  2
BLKF0007
 70
   64
 10
0.0
 20
0.0
 30
0.0
  0
LINE
  8
CSLAYER4
  6
CONTINUOUS
 62
     7
 10
268.177972
 20
133.050013
 11
268.200460
 21
132.695824
  0
LINE
  8
CSLAYER4
  6
CONTINUOUS
 62
     7
 10
268.200460
 20
132.695824
 11
268.259415
 21
132.337807
  0
LINE
  8
CSLAYER4
  6
CONTINUOUS
 62
     7
 10
268.259415
 20
132.337807
 11
268.354983
 21
131.982921
  0
LINE
  8
CSLAYER4
  6
CONTINUOUS
 62
     7
 10
268.354983
 20
131.982921
 11
268.487279
 21
131.638108
  0
LINE
  8
CSLAYER4
  6
CONTINUOUS
 62
     7
 10
268.487279
 20
131.638108
 11
268.654950
 21
131.309635
  0
LINE
  8
CSLAYER4
  6
CONTINUOUS
 62
     7
 10
268.654950
 20
131.309635
 11
268.853247
 21
131.002330
  0
LINE
  8
CSLAYER4
  6
CONTINUOUS
 62
     7
 10
268.853247
 20
131.002330
 11
269.076942
 21
130.720829
  0
LINE
  8
CSLAYER4
  6
CONTINUOUS
 62
     7
 10
269.076942
 20
130.720829
 11
269.321642
 21
130.468991
  0
LINE
  8
CSLAYER4
  6
CONTINUOUS
 62
     7
 10
269.321642
 20
130.468991
 11
269.594357
 21
130.239649
  0
LINE
  8
CSLAYER4
  6
CONTINUOUS
 62
     7
 10
269.594357
 20
130.239649
 11
269.894421
 21
130.033799
  0
LINE
  8
CSLAYER4
  6
CONTINUOUS
 62
     7
 10
269.894421
 20
130.033799
 11
270.217131
 21
129.856487
  0
LINE
  8
CSLAYER4
  6
CONTINUOUS
 62
     7
 10
270.217131
 20
129.856487
 11
270.557755
 21
129.712710
  0
LINE
  8
CSLAYER4
  6
CONTINUOUS
 62
     7
 10
270.557755
 20
129.712710
 11
270.910636
 21
129.605219
  0
LINE
  8
CSLAYER4
  6
CONTINUOUS
 62
     7
 10
270.910636
 20
129.605219
 11
271.268907
 21
129.533876
  0
LINE
  8
CSLAYER4
  6
CONTINUOUS
 62
     7
 10
271.268907
 20
129.533876
 11
271.625647
 21
129.498360
  0
LINE
  8
CSLAYER4
  6
CONTINUOUS
 62
     7
 10
271.625647
 20
129.498360
 11
271.976886
 21
129.498360
  0
LINE
  8
CSLAYER4
  6
CONTINUOUS
 62
     7
 10
271.976886
 20
129.498360
 11
272.333619
 21
129.533876
  0
LINE
  8
CSLAYER4
  6
CONTINUOUS
 62
     7
 10
272.333619
 20
129.533876
 11
272.691897
 21
129.605219
  0
LINE
  8
CSLAYER4
  6
CONTINUOUS
 62
     7
 10
272.691897
 20
129.605219
 11
273.044778
 21
129.712710
  0
LINE
  8
CSLAYER4
  6
CONTINUOUS
 62
     7
 10
273.044778
 20
129.712710
 11
273.385395
 21
129.856487
  0
LINE
  8
CSLAYER4
  6
CONTINUOUS
 62
     7
 10
273.385395
 20
129.856487
 11
273.708105
 21
130.033799
  0
LINE
  8
CSLAYER4
  6
CONTINUOUS
 62
     7
 10
273.708105
 20
130.033799
 11
274.008176
 21
130.239649
  0
LINE
  8
CSLAYER4
  6
CONTINUOUS
 62
     7
 10
274.008176
 20
130.239649
 11
274.280891
 21
130.468991
  0
LINE
  8
CSLAYER4
  6
CONTINUOUS
 62
     7
 10
274.280891
 20
130.468991
 11
274.525584
 21
130.720829
  0
LINE
  8
CSLAYER4
  6
CONTINUOUS
 62
     7
 10
274.525584
 20
130.720829
 11
274.749287
 21
131.002330
  0
LINE
  8
CSLAYER4
  6
CONTINUOUS
 62
     7
 10
274.749287
 20
131.002330
 11
274.947583
 21
131.309635
  0
LINE
  8
CSLAYER4
  6
CONTINUOUS
 62
     7
 10
274.947583
 20
131.309635
 11
275.115248
 21
131.638108
  0
LINE
  8
CSLAYER4
  6
CONTINUOUS
 62
     7
 10
275.115248
 20
131.638108
 11
275.247551
 21
131.982921
  0
LINE
  8
CSLAYER4
  6
CONTINUOUS
 62
     7
 10
275.247551
 20
131.982921
 11
275.343111
 21
132.337807
  0
LINE
  8
CSLAYER4
  6
CONTINUOUS
 62
     7
 10
275.343111
 20
132.337807
 11
275.402073
 21
132.695824
  0
LINE
  8
CSLAYER4
  6
CONTINUOUS
 62
     7
 10
275.402073
 20
132.695824
 11
275.424561
 21
133.050013
  0
LINE
  8
CSLAYER4
  6
CONTINUOUS
 62
     7
 10
275.424561
 20
133.050013
 11
275.424671
 21
133.059966
  0
LINE
  8
CSLAYER4
  6
CONTINUOUS
 62
     7
 10
275.424671
 20
133.059966
 11
275.410519
 21
133.420294
  0
LINE
  8
CSLAYER4
  6
CONTINUOUS
 62
     7
 10
275.410519
 20
133.420294
 11
275.361417
 21
133.776814
  0
LINE
  8
CSLAYER4
  6
CONTINUOUS
 62
     7
 10
275.361417
 20
133.776814
 11
275.277791
 21
134.126941
  0
LINE
  8
CSLAYER4
  6
CONTINUOUS
 62
     7
 10
275.277791
 20
134.126941
 11
275.160347
 21
134.467400
  0
LINE
  8
CSLAYER4
  6
CONTINUOUS
 62
     7
 10
275.160347
 20
134.467400
 11
275.010706
 21
134.793722
  0
LINE
  8
CSLAYER4
  6
CONTINUOUS
 62
     7
 10
275.010706
 20
134.793722
 11
274.830173
 21
135.103495
  0
LINE
  8
CSLAYER4
  6
CONTINUOUS
 62
     7
 10
274.830173
 20
135.103495
 11
274.620005
 21
135.394420
  0
LINE
  8
CSLAYER4
  6
CONTINUOUS
 62
     7
 10
274.620005
 20
135.394420
 11
274.381979
 21
135.663661
  0
LINE
  8
CSLAYER4
  6
CONTINUOUS
 62
     7
 10
274.381979
 20
135.663661
 11
274.119289
 21
135.907561
  0
LINE
  8
CSLAYER4
  6
CONTINUOUS
 62
     7
 10
274.119289
 20
135.907561
 11
273.834002
 21
136.124279
  0
LINE
  8
CSLAYER4
  6
CONTINUOUS
 62
     7
 10
273.834002
 20
136.124279
 11
273.528115
 21
136.312091
  0
LINE
  8
CSLAYER4
  6
CONTINUOUS
 62
     7
 10
273.528115
 20
136.312091
 11
273.204279
 21
136.468969
  0
LINE
  8
CSLAYER4
  6
CONTINUOUS
 62
     7
 10
273.204279
 20
136.468969
 11
272.866614
 21
136.592719
  0
LINE
  8
CSLAYER4
  6
CONTINUOUS
 62
     7
 10
272.866614
 20
136.592719
 11
272.517668
 21
136.682254
  0
LINE
  8
CSLAYER4
  6
CONTINUOUS
 62
     7
 10
272.517668
 20
136.682254
 11
272.161340
 21
136.736400
  0
LINE
  8
CSLAYER4
  6
CONTINUOUS
 62
     7
 10
272.161340
 20
136.736400
 11
271.801119
 21
136.754521
  0
LINE
  8
CSLAYER4
  6
CONTINUOUS
 62
     7
 10
271.801119
 20
136.754521
 11
271.441028
 21
136.736383
  0
LINE
  8
CSLAYER4
  6
CONTINUOUS
 62
     7
 10
271.441028
 20
136.736383
 11
271.084611
 21
136.682203
  0
LINE
  8
CSLAYER4
  6
CONTINUOUS
 62
     7
 10
271.084611
 20
136.682203
 11
270.735768
 21
136.592671
  0
LINE
  8
CSLAYER4
  6
CONTINUOUS
 62
     7
 10
270.735768
 20
136.592671
 11
270.397773
 21
136.468769
  0
LINE
  8
CSLAYER4
  6
CONTINUOUS
 62
     7
 10
270.397773
 20
136.468769
 11
270.074707
 21
136.312249
  0
LINE
  8
CSLAYER4
  6
CONTINUOUS
 62
     7
 10
270.074707
 20
136.312249
 11
269.768895
 21
136.124530
  0
LINE
  8
CSLAYER4
  6
CONTINUOUS
 62
     7
 10
269.768895
 20
136.124530
 11
269.482681
 21
135.907087
  0
LINE
  8
CSLAYER4
  6
CONTINUOUS
 62
     7
 10
269.482681
 20
135.907087
 11
269.219723
 21
135.662809
  0
LINE
  8
CSLAYER4
  6
CONTINUOUS
 62
     7
 10
269.219723
 20
135.662809
 11
268.982261
 21
135.394087
  0
LINE
  8
CSLAYER4
  6
CONTINUOUS
 62
     7
 10
268.982261
 20
135.394087
 11
268.771982
 21
135.102918
  0
LINE
  8
CSLAYER4
  6
CONTINUOUS
 62
     7
 10
268.771982
 20
135.102918
 11
268.591003
 21
134.792146
  0
LINE
  8
CSLAYER4
  6
CONTINUOUS
 62
     7
 10
268.591003
 20
134.792146
 11
268.441514
 21
134.465725
  0
LINE
  8
CSLAYER4
  6
CONTINUOUS
 62
     7
 10
268.441514
 20
134.465725
 11
268.324502
 21
134.126124
  0
LINE
  8
CSLAYER4
  6
CONTINUOUS
 62
     7
 10
268.324502
 20
134.126124
 11
268.240917
 21
133.775759
  0
LINE
  8
CSLAYER4
  6
CONTINUOUS
 62
     7
 10
268.240917
 20
133.775759
 11
268.191905
 21
133.419034
  0
LINE
  8
CSLAYER4
  6
CONTINUOUS
 62
     7
 10
268.191905
 20
133.419034
 11
268.177862
 21
133.059966
  0
LINE
  8
CSLAYER4
  6
CONTINUOUS
 62
     7
 10
268.177862
 20
133.059966
 11
268.177972
 21
133.050013
  0
CIRCLE
  8
CSLAYER4
  6
CONTINUOUS
 62
     7
 10
271.801267
 20
133.093937
 40
3.240000
  0
ENDBLK
  8
0
  0
BLOCK
  8
CSLAYER1
  2
BLKF0008
 70
   64
 10
0.0
 20
0.0
 30
0.0
  0
TEXT
  8
CSLAYER1
 62
     7
 10
439.704529
 20
94.009560
 40
4.000000
 41
0.818182
  1
(81)
 50
90.000000
 51
0.000000
  7
EASYDRAW_FONT
 72
     5
 11
439.704529
 21
106.009560
  0
ENDBLK
  8
0
  0
BLOCK
  8
CSLAYER1
  2
BLKF0009
 70
   64
 10
0.0
 20
0.0
 30
0.0
  0
TEXT
  8
CSLAYER1
 62
     7
 10
438.834778
 20
174.462250
 40
4.000000
 41
0.818182
  1
(81)
 50
90.000000
 51
0.000000
  7
EASYDRAW_FONT
 72
     5
 11
438.834778
 21
186.462250
  0
ENDBLK
  8
0
  0
BLOCK
  8
CSLAYER1
  2
BLKF0010
 70
   64
 10
0.0
 20
0.0
 30
0.0
  0
TEXT
  8
CSLAYER1
 62
     7
 10
344.900818
 20
25.733503
 40
4.000000
 41
0.803571
  1
(137)
 50
0.000000
 51
0.000000
  7
EASYDRAW_FONT
 72
     5
 11
359.900818
 21
25.733503
  0
ENDBLK
  8
0
  0
ENDSEC
  0
SECTION
  2
ENTITIES
  0
TEXT
  8
CSLAYER1
 62
     7
 10
50.231174
 20
427.743866
 40
6.000000
 41
0.846774
  1
SMOLENSKY CHECK VALVE
 50
0.000000
 51
0.000000
  7
EASYDRAW_FONT
 72
     5
 11
155.231174
 21
427.743866
  0
TEXT
  8
CSLAYER1
 62
     7
 10
50.314304
 20
407.743866
 40
6.000000
 41
0.865385
  1
株式会社　イシザキ
 50
0.000000
 51
0.000000
  7
EASYDRAW_FONT
 72
     5
 11
95.314304
 21
407.743866
  0
TEXT
  8
CSLAYER1
 62
     7
 10
50.199680
 20
417.743866
 40
6.000000
 41
0.851064
  1
SM ・ SMC 10K 40A
 50
0.000000
 51
0.000000
  7
EASYDRAW_FONT
 72
     5
 11
130.199680
 21
417.743866
  0
LINE
  8
CSLAYER1
  6
CONTINUOUS
 62
     7
 10
43.165530
 20
195.235966
 11
41.665530
 21
196.735966
  0
LINE
  8
CSLAYER1
  6
CONTINUOUS
 62
     7
 10
78.665530
 20
99.235966
 11
78.665530
 21
75.235966
  0
ARC
  8
CSLAYER1
  6
CONTINUOUS
 62
     7
 10
76.665530
 20
99.235966
 40
2.000000
 50
0.000000
 51
90.000000
  0
LINE
  8
CSLAYER1
  6
CONTINUOUS
 62
     7
 10
76.665530
 20
73.235966
 11
43.165530
 21
73.235966
  0
LINE
  8
CSLAYER1
  6
CONTINUOUS
 62
     7
 10
43.165530
 20
73.235966
 11
41.665530
 21
71.735966
  0
LINE
  8
CSLAYER1
  6
CONTINUOUS
 62
     7
 10
41.665530
 20
213.735966
 11
41.665530
 21
196.735966
  0
LINE
  8
CSLAYER1
  6
CONTINUOUS
 62
     7
 10
41.665530
 20
71.735966
 11
41.665530
 21
54.735966
  0
ARC
  8
CSLAYER1
  6
CONTINUOUS
 62
     7
 10
76.665530
 20
75.235966
 40
2.000000
 50
270.000000
 51
360.000000
  0
LINE
  8
CSLAYER1
  6
CENTER
 62
     7
 10
59.165530
 20
220.235966
 11
59.165530
 21
190.235966
  0
LINE
  8
CSLAYER1
  6
CENTER
 62
     7
 10
59.165530
 20
78.235966
 11
59.165530
 21
48.235966
  0
ARC
  8
CSLAYER1
  6
CONTINUOUS
 62
     7
 10
65.165530
 20
116.235966
 40
15.000000
 50
180.000000
 51
270.000000
  0
LINE
  8
CSLAYER1
  6
CONTINUOUS
 62
     7
 10
50.165530
 20
116.235966
 11
50.165530
 21
151.564605
  0
LINE
  8
CSLAYER1
  6
CONTINUOUS
 62
     7
 10
158.165530
 20
101.235966
 11
65.165530
 21
101.235966
  0
LINE
  8
CSLAYER1
  6
CONTINUOUS
 62
     7
 10
43.165530
 20
195.235966
 11
180.165530
 21
195.235966
  0
LINE
  8
CSLAYER1
  6
CONTINUOUS
 62
     7
 10
43.165530
 20
53.235966
 11
90.165530
 21
53.235966
  0
LINE
  8
CSLAYER1
  6
CONTINUOUS
 62
     7
 10
41.665530
 20
54.735966
 11
43.165530
 21
53.235966
  0
LINE
  8
CSLAYER1
  6
CONTINUOUS
 62
     7
 10
41.665530
 20
213.735966
 11
43.165530
 21
215.235966
  0
LINE
  8
CSLAYER1
  6
CENTER
 62
     7
 10
111.665530
 20
220.235966
 11
111.665530
 21
73.235966
  0
LINE
  8
CSLAYER1
  6
CONTINUOUS
 62
     7
 10
75.165530
 20
193.235966
 11
75.165530
 21
179.277417
  0
ARC
  8
CSLAYER1
  6
CONTINUOUS
 62
     7
 10
73.165530
 20
193.235966
 40
2.000000
 50
0.000000
 51
90.000000
  0
LINE
  8
CSLAYER1
  6
CONTINUOUS
 62
     7
 10
73.665530
 20
176.679341
 11
60.165530
 21
168.885113
  0
ARC
  8
CSLAYER1
  6
CONTINUOUS
 62
     7
 10
70.165530
 20
151.564605
 40
20.000000
 50
120.000000
 51
180.000000
  0
LINE
  8
CSLAYER1
  6
CONTINUOUS
 62
     7
 10
180.165530
 20
195.235966
 11
181.665530
 21
196.735966
  0
LINE
  8
CSLAYER1
  6
CONTINUOUS
 62
     7
 10
43.165530
 20
73.235966
 11
180.165530
 21
73.235966
  0
LINE
  8
CSLAYER1
  6
CONTINUOUS
 62
     7
 10
180.165530
 20
73.235966
 11
181.665530
 21
71.735966
  0
LINE
  8
CSLAYER1
  6
CONTINUOUS
 62
     7
 10
181.665530
 20
213.735966
 11
181.665530
 21
196.735966
  0
LINE
  8
CSLAYER1
  6
CONTINUOUS
 62
     7
 10
181.665530
 20
71.735966
 11
181.665530
 21
54.735966
  0
ARC
  8
CSLAYER1
  6
CONTINUOUS
 62
     7
 10
146.665530
 20
75.235966
 40
2.000000
 50
180.000000
 51
270.000000
  0
LINE
  8
CSLAYER1
  6
CENTER
 62
     7
 10
164.165530
 20
220.235966
 11
164.165530
 21
190.235966
  0
LINE
  8
CSLAYER1
  6
CENTER
 62
     7
 10
164.165530
 20
48.235966
 11
164.165530
 21
78.235966
  0
LINE
  8
CSLAYER1
  6
CONTINUOUS
 62
     7
 10
180.165530
 20
215.235966
 11
43.165530
 21
215.235966
  0
LINE
  8
CSLAYER1
  6
CONTINUOUS
 62
     7
 10
180.165530
 20
53.235966
 11
43.165530
 21
53.235966
  0
LINE
  8
CSLAYER1
  6
CONTINUOUS
 62
     7
 10
181.665530
 20
54.735966
 11
180.165530
 21
53.235966
  0
LINE
  8
CSLAYER1
  6
CONTINUOUS
 62
     7
 10
181.665530
 20
213.735966
 11
180.165530
 21
215.235966
  0
LINE
  8
CSLAYER1
  6
CONTINUOUS
 62
     7
 10
148.165530
 20
193.235966
 11
148.165530
 21
179.277417
  0
ARC
  8
CSLAYER1
  6
CONTINUOUS
 62
     7
 10
150.165530
 20
193.235966
 40
2.000000
 50
90.000000
 51
180.000000
  0
LINE
  8
CSLAYER1
  6
CONTINUOUS
 62
     7
 10
149.665530
 20
176.679341
 11
163.165530
 21
168.885113
  0
ARC
  8
CSLAYER1
  6
CONTINUOUS
 62
     7
 10
72.165530
 20
179.277417
 40
3.000000
 50
300.000000
 51
360.000000
  0
ARC
  8
CSLAYER1
  6
CONTINUOUS
 62
     7
 10
151.165530
 20
179.277417
 40
3.000000
 50
180.000000
 51
240.000000
  0
LINE
  8
CSLAYER1
  6
CENTER
 62
     7
 10
111.665530
 20
75.966024
 11
111.665530
 21
48.235966
  0
INSERT
  8
CSLAYER1
  2
BLKF0000
 10
0.0
 20
0.0
 30
0.0
  0
LINE
  8
CSLAYER1
  6
CONTINUOUS
 62
     7
 10
209.127676
 20
195.235966
 11
207.627676
 21
196.735966
  0
LINE
  8
CSLAYER1
  6
CONTINUOUS
 62
     7
 10
244.627676
 20
99.235966
 11
244.627676
 21
75.235966
  0
ARC
  8
CSLAYER1
  6
CONTINUOUS
 62
     7
 10
242.627676
 20
99.235966
 40
2.000000
 50
0.000000
 51
90.000000
  0
LINE
  8
CSLAYER1
  6
CONTINUOUS
 62
     7
 10
346.127676
 20
73.235966
 11
209.127676
 21
73.235966
  0
LINE
  8
CSLAYER1
  6
CONTINUOUS
 62
     7
 10
209.127676
 20
73.235966
 11
207.627676
 21
71.735966
  0
LINE
  8
CSLAYER1
  6
CONTINUOUS
 62
     7
 10
207.627676
 20
213.735966
 11
207.627676
 21
196.735966
  0
LINE
  8
CSLAYER1
  6
CONTINUOUS
 62
     7
 10
207.627676
 20
71.735966
 11
207.627676
 21
54.735966
  0
ARC
  8
CSLAYER1
  6
CONTINUOUS
 62
     7
 10
242.627676
 20
75.235966
 40
2.000000
 50
270.000000
 51
360.000000
  0
LINE
  8
CSLAYER1
  6
CENTER
 62
     7
 10
225.127676
 20
220.235966
 11
225.127676
 21
190.235966
  0
LINE
  8
CSLAYER1
  6
CENTER
 62
     7
 10
225.127676
 20
78.235966
 11
225.127676
 21
48.235966
  0
ARC
  8
CSLAYER1
  6
CONTINUOUS
 62
     7
 10
231.127676
 20
116.235966
 40
15.000000
 50
180.000000
 51
270.000000
  0
LINE
  8
CSLAYER1
  6
CONTINUOUS
 62
     7
 10
216.127676
 20
116.235966
 11
216.127676
 21
151.564605
  0
LINE
  8
CSLAYER1
  6
CONTINUOUS
 62
     7
 10
230.935682
 20
101.235966
 11
242.627676
 21
101.235966
  0
LINE
  8
CSLAYER1
  6
CONTINUOUS
 62
     7
 10
209.127676
 20
215.235966
 11
346.127676
 21
215.235966
  0
LINE
  8
CSLAYER1
  6
CONTINUOUS
 62
     7
 10
209.127676
 20
195.235966
 11
346.127676
 21
195.235966
  0
LINE
  8
CSLAYER1
  6
CONTINUOUS
 62
     7
 10
209.127676
 20
53.235966
 11
346.127676
 21
53.235966
  0
LINE
  8
CSLAYER1
  6
CONTINUOUS
 62
     7
 10
207.627676
 20
54.735966
 11
209.127676
 21
53.235966
  0
LINE
  8
CSLAYER1
  6
CONTINUOUS
 62
     7
 10
207.627676
 20
213.735966
 11
209.127676
 21
215.235966
  0
LINE
  8
CSLAYER1
  6
CENTER
 62
     7
 10
277.627676
 20
220.235966
 11
277.627676
 21
73.235966
  0
LINE
  8
CSLAYER1
  6
CONTINUOUS
 62
     7
 10
241.127676
 20
193.235966
 11
241.127676
 21
179.277417
  0
ARC
  8
CSLAYER1
  6
CONTINUOUS
 62
     7
 10
239.127676
 20
193.235966
 40
2.000000
 50
0.000000
 51
90.000000
  0
LINE
  8
CSLAYER1
  6
CONTINUOUS
 62
     7
 10
239.627676
 20
176.679341
 11
226.127676
 21
168.885113
  0
ARC
  8
CSLAYER1
  6
CONTINUOUS
 62
     7
 10
236.127676
 20
151.564605
 40
20.000000
 50
120.000000
 51
180.000000
  0
LINE
  8
CSLAYER1
  6
CONTINUOUS
 62
     7
 10
346.127676
 20
195.235966
 11
347.627676
 21
196.735966
  0
LINE
  8
CSLAYER1
  6
CONTINUOUS
 62
     7
 10
346.127676
 20
73.235966
 11
347.627676
 21
71.735966
  0
LINE
  8
CSLAYER1
  6
CONTINUOUS
 62
     7
 10
347.627676
 20
213.735966
 11
347.627676
 21
196.735966
  0
LINE
  8
CSLAYER1
  6
CONTINUOUS
 62
     7
 10
347.627676
 20
71.735966
 11
347.627676
 21
54.735966
  0
LINE
  8
CSLAYER1
  6
CENTER
 62
     7
 10
330.127676
 20
220.235966
 11
330.127676
 21
190.235966
  0
LINE
  8
CSLAYER1
  6
CENTER
 62
     7
 10
330.127676
 20
48.235966
 11
330.127676
 21
78.235966
  0
LINE
  8
CSLAYER1
  6
CONTINUOUS
 62
     7
 10
347.627676
 20
54.735966
 11
346.127676
 21
53.235966
  0
LINE
  8
CSLAYER1
  6
CONTINUOUS
 62
     7
 10
347.627676
 20
213.735966
 11
346.127676
 21
215.235966
  0
LINE
  8
CSLAYER1
  6
CONTINUOUS
 62
     7
 10
314.127676
 20
193.235966
 11
314.127676
 21
179.277417
  0
ARC
  8
CSLAYER1
  6
CONTINUOUS
 62
     7
 10
316.127676
 20
193.235966
 40
2.000000
 50
90.000000
 51
180.000000
  0
LINE
  8
CSLAYER1
  6
CONTINUOUS
 62
     7
 10
315.627676
 20
176.679341
 11
329.127676
 21
168.885113
  0
ARC
  8
CSLAYER1
  6
CONTINUOUS
 62
     7
 10
319.127676
 20
151.564605
 40
20.000000
 50
23.152537
 51
60.000000
  0
LINE
  8
CSLAYER1
  6
CONTINUOUS
 62
     7
 10
340.102393
 20
157.477193
 11
370.631000
 21
155.714850
  0
LINE
  8
CSLAYER1
  6
CONTINUOUS
 62
     7
 10
370.630980
 20
112.486336
 11
373.387776
 21
115.579816
  0
LINE
  8
CSLAYER1
  6
CONTINUOUS
 62
     7
 10
370.631000
 20
155.714850
 11
373.619449
 21
152.360231
  0
LINE
  8
CSLAYER1
  6
CONTINUOUS
 62
     7
 10
358.127676
 20
107.946042
 11
358.127676
 21
108.934455
  0
LINE
  8
CSLAYER1
  6
CONTINUOUS
 62
     7
 10
311.878463
 20
77.118994
 11
346.870595
 21
91.256733
  0
ARC
  8
CSLAYER1
  6
CONTINUOUS
 62
     7
 10
312.627676
 20
75.264626
 40
2.000000
 50
112.000000
 51
180.000000
  0
ARC
  8
CSLAYER1
  6
CONTINUOUS
 62
     7
 10
340.275287
 20
160.472207
 40
3.000000
 50
203.152537
 51
266.696120
  0
ARC
  8
CSLAYER1
  6
CONTINUOUS
 62
     7
 10
361.127676
 20
108.934455
 40
3.000000
 50
93.293750
 51
180.000000
  0
ARC
  8
CSLAYER1
  6
CONTINUOUS
 62
     7
 10
340.127676
 20
107.946042
 40
18.000000
 50
292.000000
 51
360.000000
  0
ARC
  8
CSLAYER1
  6
CONTINUOUS
 62
     7
 10
238.127676
 20
179.277417
 40
3.000000
 50
300.000000
 51
360.000000
  0
ARC
  8
CSLAYER1
  6
CONTINUOUS
 62
     7
 10
317.127676
 20
179.277417
 40
3.000000
 50
180.000000
 51
240.000000
  0
LINE
  8
CSLAYER1
  6
CENTER
 62
     7
 10
277.627676
 20
75.966024
 11
277.627676
 21
48.235966
  0
ARC
  8
CSLAYER1
  6
CONTINUOUS
 62
     7
 10
153.165530
 20
151.564605
 40
20.000000
 50
0.000000
 51
60.000000
  0
LINE
  8
CSLAYER1
  6
CONTINUOUS
 62
     7
 10
173.165530
 20
116.235966
 11
173.165530
 21
151.564605
  0
ARC
  8
CSLAYER1
  6
CONTINUOUS
 62
     7
 10
158.165530
 20
116.235966
 40
15.000000
 50
270.000000
 51
360.000000
  0
LINE
  8
CSLAYER1
  6
CONTINUOUS
 62
     7
 10
373.387776
 20
115.579816
 11
373.387776
 21
152.620291
  0
ARC
  8
CSLAYER1
  6
CONTINUOUS
 62
     7
 10
319.127676
 20
151.564605
 40
20.000000
 50
0.000000
 51
60.000000
  0
LINE
  8
CSLAYER1
  6
CONTINUOUS
 62
     7
 10
339.127676
 20
116.235966
 11
339.127676
 21
151.564605
  0
ARC
  8
CSLAYER1
  6
CONTINUOUS
 62
     7
 10
324.127676
 20
116.235966
 40
15.000000
 50
270.000000
 51
360.000000
  0
LINE
  8
CSLAYER1
  6
CONTINUOUS
 62
     7
 10
324.319670
 20
101.235966
 11
231.127676
 21
101.235966
  0
LINE
  8
CSLAYER1
  6
CONTINUOUS
 62
     7
 10
144.665530
 20
99.235966
 11
144.665530
 21
75.235966
  0
ARC
  8
CSLAYER1
  6
CONTINUOUS
 62
     7
 10
146.665530
 20
99.235966
 40
2.000000
 50
90.000000
 51
180.000000
  0
LINE
  8
CSLAYER1
  6
CONTINUOUS
 62
     7
 10
181.665530
 20
71.735966
 11
41.665530
 21
71.735966
  0
LINE
  8
CSLAYER1
  6
CONTINUOUS
 62
     7
 10
181.665530
 20
54.735966
 11
41.665530
 21
54.735966
  0
LINE
  8
CSLAYER1
  6
CONTINUOUS
 62
     7
 10
181.665530
 20
213.735966
 11
41.665530
 21
213.735966
  0
LINE
  8
CSLAYER1
  6
CONTINUOUS
 62
     7
 10
181.665530
 20
196.735966
 11
41.665530
 21
196.735966
  0
INSERT
  8
CSLAYER4
  2
BLKF0001
 10
0.0
 20
0.0
 30
0.0
  0
LINE
  8
CSLAYER4
  6
CONTINUOUS
 62
     7
 10
170.427695
 20
158.237002
 11
170.425997
 21
158.257591
  0
INSERT
  8
CSLAYER4
  2
BLKF0002
 10
0.0
 20
0.0
 30
0.0
  0
LINE
  8
CSLAYER4
  6
CONTINUOUS
 62
     7
 10
284.921521
 20
158.257591
 11
284.919823
 21
158.237002
  0
LINE
  8
CSLAYER4
  6
CONTINUOUS
 62
     7
 10
250.710578
 20
141.259515
 11
248.293614
 21
141.259515
  0
LINE
  8
CSLAYER4
  6
CONTINUOUS
 62
     7
 10
245.840287
 20
146.070477
 11
250.710578
 21
141.259515
  0
LINE
  8
CSLAYER4
  6
CONTINUOUS
 62
     7
 10
245.840287
 20
146.070477
 11
245.840287
 21
132.619021
  0
LINE
  8
CSLAYER4
  6
CONTINUOUS
 62
     7
 10
248.293614
 20
132.619021
 11
245.840287
 21
132.619021
  0
LINE
  8
CSLAYER4
  6
CONTINUOUS
 62
     7
 10
248.293614
 20
132.619021
 11
248.293614
 21
141.259515
  0
LINE
  8
CSLAYER4
  6
CONTINUOUS
 62
     7
 10
273.108118
 20
127.453261
 11
271.457386
 21
124.643505
  0
LINE
  8
CSLAYER4
  6
CONTINUOUS
 62
     7
 10
271.457386
 20
124.643505
 11
273.283727
 21
120.253261
  0
LINE
  8
CSLAYER4
  6
CONTINUOUS
 62
     7
 10
273.283727
 20
120.253261
 11
272.124703
 21
120.253261
  0
LINE
  8
CSLAYER4
  6
CONTINUOUS
 62
     7
 10
272.124703
 20
120.253261
 11
270.860313
 21
123.554725
  0
LINE
  8
CSLAYER4
  6
CONTINUOUS
 62
     7
 10
270.860313
 20
123.554725
 11
270.403727
 21
122.817164
  0
LINE
  8
CSLAYER4
  6
CONTINUOUS
 62
     7
 10
270.403727
 20
120.253261
 11
270.403727
 21
122.817164
  0
LINE
  8
CSLAYER4
  6
CONTINUOUS
 62
     7
 10
270.403727
 20
120.253261
 11
269.420313
 21
120.253261
  0
LINE
  8
CSLAYER4
  6
CONTINUOUS
 62
     7
 10
269.420313
 20
127.453261
 11
269.420313
 21
120.253261
  0
LINE
  8
CSLAYER4
  6
CONTINUOUS
 62
     7
 10
269.420313
 20
127.453261
 11
270.403727
 21
127.453261
  0
LINE
  8
CSLAYER4
  6
CONTINUOUS
 62
     7
 10
270.403727
 20
124.748871
 11
270.403727
 21
127.453261
  0
LINE
  8
CSLAYER4
  6
CONTINUOUS
 62
     7
 10
270.403727
 20
124.748871
 11
271.913972
 21
127.453261
  0
LINE
  8
CSLAYER4
  6
CONTINUOUS
 62
     7
 10
271.913972
 20
127.453261
 11
273.108118
 21
127.453261
  0
LINE
  8
CSLAYER4
  6
CONTINUOUS
 62
     7
 10
277.779337
 20
123.273749
 11
277.779337
 21
124.257164
  0
LINE
  8
CSLAYER4
  6
CONTINUOUS
 62
     7
 10
277.779337
 20
123.273749
 11
273.810557
 21
123.273749
  0
LINE
  8
CSLAYER4
  6
CONTINUOUS
 62
     7
 10
273.810557
 20
124.257164
 11
273.810557
 21
123.273749
  0
LINE
  8
CSLAYER4
  6
CONTINUOUS
 62
     7
 10
273.810557
 20
124.257164
 11
277.779337
 21
124.257164
  0
LINE
  8
CSLAYER1
  6
CONTINUOUS
 62
     7
 10
259.401099
 20
138.466900
 11
259.401099
 21
145.688075
  0
LINE
  8
CSLAYER1
  6
CONTINUOUS
 62
     7
 10
259.401099
 20
145.688075
 11
260.439317
 21
145.688075
  0
LINE
  8
CSLAYER1
  6
CONTINUOUS
 62
     7
 10
259.401099
 20
138.466900
 11
260.068525
 21
138.466900
  0
LINE
  8
CSLAYER1
  6
CONTINUOUS
 62
     7
 10
261.774168
 20
138.466900
 11
262.469403
 21
138.466900
  0
LINE
  8
CSLAYER1
  6
CONTINUOUS
 62
     7
 10
264.165777
 20
138.466900
 11
264.805393
 21
138.466900
  0
LINE
  8
CSLAYER1
  6
CONTINUOUS
 62
     7
 10
260.068525
 20
138.466900
 11
260.068525
 21
144.408843
  0
LINE
  8
CSLAYER1
  6
CONTINUOUS
 62
     7
 10
264.805393
 20
138.466900
 11
264.805393
 21
145.688075
  0
LINE
  8
CSLAYER1
  6
CONTINUOUS
 62
     7
 10
264.165777
 20
138.466900
 11
264.165777
 21
144.408843
  0
LINE
  8
CSLAYER1
  6
CONTINUOUS
 62
     7
 10
260.068525
 20
144.408843
 11
260.124795
 21
144.408843
  0
LINE
  8
CSLAYER1
  6
CONTINUOUS
 62
     7
 10
260.124795
 20
144.408843
 11
261.774168
 21
138.466900
  0
LINE
  8
CSLAYER1
  6
CONTINUOUS
 62
     7
 10
264.165777
 20
144.408843
 11
264.116902
 21
144.408843
  0
LINE
  8
CSLAYER1
  6
CONTINUOUS
 62
     7
 10
262.469403
 20
138.466900
 11
264.116902
 21
144.408843
  0
LINE
  8
CSLAYER1
  6
CONTINUOUS
 62
     5
 10
262.091516
 20
139.813636
 11
262.154941
 21
139.813636
  0
LINE
  8
CSLAYER1
  6
CONTINUOUS
 62
     7
 10
264.805393
 20
145.688075
 11
263.829180
 21
145.688075
  0
LINE
  8
CSLAYER1
  6
CONTINUOUS
 62
     7
 10
260.439317
 20
145.688075
 11
262.091516
 21
139.813636
  0
LINE
  8
CSLAYER1
  6
CONTINUOUS
 62
     7
 10
262.154941
 20
139.813636
 11
263.829180
 21
145.688075
  0
LINE
  8
CSLAYER1
  6
CONTINUOUS
 62
     7
 10
271.645505
 20
145.688075
 11
271.645505
 21
138.466900
  0
LINE
  8
CSLAYER1
  6
CONTINUOUS
 62
     7
 10
271.645505
 20
138.466900
 11
275.471685
 21
138.466900
  0
LINE
  8
CSLAYER1
  6
CONTINUOUS
 62
     7
 10
275.471685
 20
138.466900
 11
275.471685
 21
139.396479
  0
LINE
  8
CSLAYER1
  6
CONTINUOUS
 62
     7
 10
275.471685
 20
139.396479
 11
272.279763
 21
139.396479
  0
LINE
  8
CSLAYER1
  6
CONTINUOUS
 62
     7
 10
272.279763
 20
139.396479
 11
272.279763
 21
145.688075
  0
LINE
  8
CSLAYER1
  6
CONTINUOUS
 62
     7
 10
271.645505
 20
145.688075
 11
272.279763
 21
145.688075
  0
LINE
  8
CSLAYER1
  6
CONTINUOUS
 62
     7
 10
277.473268
 20
145.688075
 11
277.473268
 21
138.466900
  0
LINE
  8
CSLAYER1
  6
CONTINUOUS
 62
     7
 10
277.473268
 20
145.688075
 11
281.497908
 21
145.688075
  0
LINE
  8
CSLAYER1
  6
CONTINUOUS
 62
     7
 10
281.497908
 20
145.688075
 11
281.497908
 21
144.731996
  0
LINE
  8
CSLAYER1
  6
CONTINUOUS
 62
     7
 10
281.497908
 20
144.731996
 11
278.127504
 21
144.731996
  0
LINE
  8
CSLAYER1
  6
CONTINUOUS
 62
     7
 10
278.127504
 20
144.731996
 11
278.127504
 21
142.723234
  0
LINE
  8
CSLAYER1
  6
CONTINUOUS
 62
     7
 10
278.127504
 20
142.723234
 11
281.164213
 21
142.723234
  0
LINE
  8
CSLAYER1
  6
CONTINUOUS
 62
     7
 10
281.164213
 20
142.723234
 11
281.164213
 21
141.786236
  0
LINE
  8
CSLAYER1
  6
CONTINUOUS
 62
     7
 10
281.164213
 20
141.786236
 11
278.127504
 21
141.786236
  0
LINE
  8
CSLAYER1
  6
CONTINUOUS
 62
     7
 10
278.127504
 20
141.786236
 11
278.127504
 21
139.388123
  0
LINE
  8
CSLAYER1
  6
CONTINUOUS
 62
     7
 10
278.127504
 20
139.388123
 11
281.497908
 21
139.388123
  0
LINE
  8
CSLAYER1
  6
CONTINUOUS
 62
     7
 10
277.473268
 20
138.466900
 11
281.497908
 21
138.466900
  0
LINE
  8
CSLAYER1
  6
CONTINUOUS
 62
     7
 10
283.553874
 20
145.688075
 11
283.553874
 21
138.466900
  0
LINE
  8
CSLAYER1
  6
CONTINUOUS
 62
     7
 10
283.553874
 20
138.466900
 11
284.231902
 21
138.466900
  0
LINE
  8
CSLAYER1
  6
CONTINUOUS
 62
     7
 10
284.231902
 20
138.466900
 11
284.231902
 21
144.210016
  0
LINE
  8
CSLAYER1
  6
CONTINUOUS
 62
     7
 10
283.553874
 20
145.688075
 11
284.275438
 21
145.688075
  0
LINE
  8
CSLAYER1
  6
CONTINUOUS
 62
     7
 10
287.123396
 20
145.688075
 11
287.801827
 21
145.688075
  0
LINE
  8
CSLAYER1
  6
CONTINUOUS
 62
     7
 10
287.123396
 20
139.929008
 11
287.123396
 21
145.688075
  0
LINE
  8
CSLAYER1
  6
CONTINUOUS
 62
     7
 10
287.801827
 20
145.688075
 11
287.801827
 21
138.466900
  0
LINE
  8
CSLAYER1
  6
CONTINUOUS
 62
     7
 10
287.801827
 20
138.466900
 11
287.073738
 21
138.466900
  0
LINE
  8
CSLAYER1
  6
CONTINUOUS
 62
     7
 10
287.123396
 20
139.929008
 11
287.069912
 21
139.929008
  0
LINE
  8
CSLAYER1
  6
CONTINUOUS
 62
     7
 10
284.231902
 20
144.210016
 11
284.296554
 21
144.210016
  0
LINE
  8
CSLAYER1
  6
CONTINUOUS
 62
     7
 10
284.296554
 20
144.210016
 11
287.073738
 21
138.466900
  0
LINE
  8
CSLAYER1
  6
CONTINUOUS
 62
     7
 10
287.069912
 20
139.929008
 11
284.275438
 21
145.688075
  0
LINE
  8
CSLAYER1
  6
CONTINUOUS
 62
     7
 10
295.124977
 20
145.688075
 11
295.124977
 21
138.466900
  0
LINE
  8
CSLAYER1
  6
CONTINUOUS
 62
     7
 10
295.124977
 20
145.688075
 11
295.823121
 21
145.688075
  0
LINE
  8
CSLAYER1
  6
CONTINUOUS
 62
     7
 10
295.124977
 20
138.466900
 11
295.841739
 21
138.466900
  0
LINE
  8
CSLAYER1
  6
CONTINUOUS
 62
     7
 10
295.841739
 20
138.466900
 11
295.841739
 21
140.906704
  0
LINE
  8
CSLAYER1
  6
CONTINUOUS
 62
     7
 10
295.823121
 20
145.688075
 11
295.823121
 21
142.116821
  0
LINE
  8
CSLAYER1
  6
CONTINUOUS
 62
     7
 10
298.578465
 20
145.688075
 11
299.512112
 21
145.688075
  0
LINE
  8
CSLAYER1
  6
CONTINUOUS
 62
     7
 10
298.839107
 20
138.466900
 11
299.863052
 21
138.466900
  0
LINE
  8
CSLAYER1
  6
CONTINUOUS
 62
     7
 10
298.578465
 20
145.688075
 11
295.823121
 21
142.116821
  0
LINE
  8
CSLAYER1
  6
CONTINUOUS
 62
     7
 10
299.512112
 20
145.688075
 11
297.376794
 21
142.920448
  0
LINE
  8
CSLAYER1
  6
CONTINUOUS
 62
     7
 10
299.863052
 20
138.466900
 11
297.376794
 21
142.920448
  0
LINE
  8
CSLAYER1
  6
CONTINUOUS
 62
     7
 10
298.839107
 20
138.466900
 11
296.847777
 21
142.234780
  0
LINE
  8
CSLAYER1
  6
CONTINUOUS
 62
     7
 10
296.847777
 20
142.234780
 11
295.823121
 21
140.906704
  0
LINE
  8
CSLAYER1
  6
CONTINUOUS
 62
     7
 10
300.724877
 20
145.688075
 11
301.552167
 21
145.688075
  0
LINE
  8
CSLAYER1
  6
CONTINUOUS
 62
     7
 10
304.413215
 20
145.688075
 11
305.257741
 21
145.688075
  0
LINE
  8
CSLAYER1
  6
CONTINUOUS
 62
     7
 10
302.637987
 20
138.466900
 11
303.327396
 21
138.466900
  0
LINE
  8
CSLAYER1
  6
CONTINUOUS
 62
     7
 10
302.637987
 20
138.466900
 11
302.637987
 21
141.497024
  0
LINE
  8
CSLAYER1
  6
CONTINUOUS
 62
     7
 10
303.327396
 20
138.466900
 11
303.327396
 21
141.497024
  0
LINE
  8
CSLAYER1
  6
CONTINUOUS
 62
     7
 10
302.637987
 20
141.497024
 11
300.724877
 21
145.688075
  0
LINE
  8
CSLAYER1
  6
CONTINUOUS
 62
     7
 10
303.327396
 20
141.497024
 11
305.257741
 21
145.688075
  0
LINE
  8
CSLAYER1
  6
CONTINUOUS
 62
     7
 10
302.960849
 20
142.319872
 11
303.029868
 21
142.319872
  0
LINE
  8
CSLAYER1
  6
CONTINUOUS
 62
     7
 10
302.829498
 20
142.318146
 11
301.552167
 21
145.688075
  0
LINE
  8
CSLAYER1
  6
CONTINUOUS
 62
     7
 10
303.029868
 20
142.319872
 11
304.413215
 21
145.688075
  0
LINE
  8
CSLAYER1
  6
CONTINUOUS
 62
     7
 10
281.497908
 20
139.388123
 11
281.497908
 21
138.466900
  0
INSERT
  8
CSLAYER1
  2
BLKF0003
 10
0.0
 20
0.0
 30
0.0
  0
INSERT
  8
CSLAYER1
  2
BLKF0004
 10
0.0
 20
0.0
 30
0.0
  0
INSERT
  8
CSLAYER1
  2
BLKF0005
 10
0.0
 20
0.0
 30
0.0
  0
LINE
  8
CSLAYER1
  6
CONTINUOUS
 62
     7
 10
259.401099
 20
129.496947
 11
259.401099
 21
136.718122
  0
LINE
  8
CSLAYER1
  6
CONTINUOUS
 62
     7
 10
259.401099
 20
136.718122
 11
260.439317
 21
136.718122
  0
LINE
  8
CSLAYER1
  6
CONTINUOUS
 62
     7
 10
259.401099
 20
129.496947
 11
260.068525
 21
129.496947
  0
LINE
  8
CSLAYER1
  6
CONTINUOUS
 62
     7
 10
261.774168
 20
129.496947
 11
262.469403
 21
129.496947
  0
LINE
  8
CSLAYER1
  6
CONTINUOUS
 62
     7
 10
264.165777
 20
129.496947
 11
264.805393
 21
129.496947
  0
LINE
  8
CSLAYER1
  6
CONTINUOUS
 62
     7
 10
260.068525
 20
129.496947
 11
260.068525
 21
135.438890
  0
LINE
  8
CSLAYER1
  6
CONTINUOUS
 62
     7
 10
264.805393
 20
129.496947
 11
264.805393
 21
136.718122
  0
LINE
  8
CSLAYER1
  6
CONTINUOUS
 62
     7
 10
264.165777
 20
129.496947
 11
264.165777
 21
135.438890
  0
LINE
  8
CSLAYER1
  6
CONTINUOUS
 62
     7
 10
260.068525
 20
135.438890
 11
260.124795
 21
135.438890
  0
LINE
  8
CSLAYER1
  6
CONTINUOUS
 62
     7
 10
260.124795
 20
135.438890
 11
261.774168
 21
129.496947
  0
LINE
  8
CSLAYER1
  6
CONTINUOUS
 62
     7
 10
264.165777
 20
135.438890
 11
264.116902
 21
135.438890
  0
LINE
  8
CSLAYER1
  6
CONTINUOUS
 62
     7
 10
262.469403
 20
129.496947
 11
264.116902
 21
135.438890
  0
LINE
  8
CSLAYER1
  6
CONTINUOUS
 62
     7
 10
264.805393
 20
136.718122
 11
263.829180
 21
136.718122
  0
LINE
  8
CSLAYER1
  6
CONTINUOUS
 62
     7
 10
260.439317
 20
136.718122
 11
262.091516
 21
130.843683
  0
LINE
  8
CSLAYER1
  6
CONTINUOUS
 62
     7
 10
262.154941
 20
130.843683
 11
263.829180
 21
136.718122
  0
INSERT
  8
CSLAYER1
  2
BLKF0006
 10
0.0
 20
0.0
 30
0.0
  0
INSERT
  8
CSLAYER1
  2
BLKF0007
 10
0.0
 20
0.0
 30
0.0
  0
LINE
  8
CSLAYER1
  6
CONTINUOUS
 62
     7
 10
270.713092
 20
134.920496
 11
272.297295
 21
134.920496
  0
LINE
  8
CSLAYER1
  6
CONTINUOUS
 62
     7
 10
270.713092
 20
134.920496
 11
270.713092
 21
131.052756
  0
LINE
  8
CSLAYER1
  6
CONTINUOUS
 62
     7
 10
270.713092
 20
131.052756
 11
271.062758
 21
131.052756
  0
LINE
  8
CSLAYER1
  6
CONTINUOUS
 62
     7
 10
271.062758
 20
131.052756
 11
271.062758
 21
132.587007
  0
LINE
  8
CSLAYER1
  6
CONTINUOUS
 62
     7
 10
271.062758
 20
132.587007
 11
271.926221
 21
132.587007
  0
LINE
  8
CSLAYER1
  6
CONTINUOUS
 62
     7
 10
272.696915
 20
131.052756
 11
273.210710
 21
131.052756
  0
LINE
  8
CSLAYER1
  6
CONTINUOUS
 62
     7
 10
271.062758
 20
133.086530
 11
271.062758
 21
134.428108
  0
LINE
  8
CSLAYER1
  6
CONTINUOUS
 62
     7
 10
271.062758
 20
134.428108
 11
272.183118
 21
134.428108
  0
LINE
  8
CSLAYER1
  6
CONTINUOUS
 62
     7
 10
271.062758
 20
133.086530
 11
272.240207
 21
133.086530
  0
LINE
  8
CSLAYER1
  6
CONTINUOUS
 62
     7
 10
272.696915
 20
131.052756
 11
271.926221
 21
132.587007
  0
ARC
  8
CSLAYER1
  6
CONTINUOUS
 62
     7
 10
272.158299
 20
134.079172
 40
0.852728
 50
16.813305
 51
80.618849
  0
ARC
  8
CSLAYER1
  6
CONTINUOUS
 62
     7
 10
271.305582
 20
133.779363
 40
1.756178
 50
-24.514508
 51
18.129563
  0
ARC
  8
CSLAYER1
  6
CONTINUOUS
 62
     7
 10
272.202842
 20
133.372606
 40
0.771040
 50
280.212276
 51
336.078889
  0
ARC
  8
CSLAYER1
  6
CONTINUOUS
 62
     7
 10
272.180904
 20
133.958123
 40
0.457636
 50
7.898580
 51
53.559298
  0
ARC
  8
CSLAYER1
  6
CONTINUOUS
 62
     7
 10
271.624077
 20
133.775877
 40
1.039441
 50
-25.395544
 51
13.640759
  0
ARC
  8
CSLAYER1
  6
CONTINUOUS
 62
     7
 10
272.166603
 20
133.519876
 40
0.439552
 50
279.639685
 51
334.420970
  0
LINE
  8
CSLAYER1
  6
CONTINUOUS
 62
     7
 10
272.339544
 20
132.613781
 11
273.210710
 21
131.052756
  0
ARC
  8
CSLAYER1
  6
CONTINUOUS
 62
     7
 10
272.167715
 20
133.979471
 40
0.448901
 50
50.585215
 51
88.033532
  0
LINE
  8
CSLAYER1
  6
CONTINUOUS
 62
     7
 10
282.517088
 20
127.536931
 11
282.517088
 21
126.920616
  0
LINE
  8
CSLAYER1
  6
CONTINUOUS
 62
     7
 10
262.160311
 20
120.253261
 11
263.060311
 21
120.253261
  0
LINE
  8
CSLAYER1
  6
CONTINUOUS
 62
     7
 10
262.160311
 20
127.453261
 11
263.060311
 21
127.453261
  0
LINE
  8
CSLAYER1
  6
CONTINUOUS
 62
     7
 10
262.160311
 20
126.201088
 11
262.160311
 21
120.253261
  0
LINE
  8
CSLAYER1
  6
CONTINUOUS
 62
     7
 10
265.694856
 20
127.453261
 11
266.785767
 21
127.453261
  0
LINE
  8
CSLAYER1
  6
CONTINUOUS
 62
     7
 10
261.847267
 20
126.201088
 11
262.160311
 21
126.201088
  0
LINE
  8
CSLAYER1
  6
CONTINUOUS
 62
     7
 10
262.160311
 20
127.453261
 11
261.847267
 21
126.201088
  0
LINE
  8
CSLAYER1
  6
CONTINUOUS
 62
     7
 10
264.140311
 20
125.888044
 11
264.140311
 21
121.818478
  0
LINE
  8
CSLAYER1
  6
CONTINUOUS
 62
     7
 10
265.040311
 20
125.898716
 11
265.040311
 21
121.818478
  0
LINE
  8
CSLAYER1
  6
CONTINUOUS
 62
     7
 10
265.694856
 20
126.553261
 11
266.785767
 21
126.553261
  0
ARC
  8
CSLAYER1
  6
CONTINUOUS
 62
     7
 10
265.694856
 20
125.898716
 40
0.654545
 50
90.000000
 51
180.000000
  0
ARC
  8
CSLAYER1
  6
CONTINUOUS
 62
     7
 10
265.694856
 20
125.898716
 40
1.554545
 50
90.000000
 51
180.000000
  0
ARC
  8
CSLAYER1
  6
CONTINUOUS
 62
     7
 10
265.694856
 20
121.807807
 40
0.654545
 50
180.000000
 51
270.000000
  0
ARC
  8
CSLAYER1
  6
CONTINUOUS
 62
     7
 10
265.694856
 20
121.807807
 40
1.554545
 50
180.000000
 51
270.000000
  0
LINE
  8
CSLAYER1
  6
CONTINUOUS
 62
     7
 10
268.340313
 20
125.888044
 11
268.340313
 21
121.818478
  0
LINE
  8
CSLAYER1
  6
CONTINUOUS
 62
     7
 10
267.440313
 20
125.898716
 11
267.440313
 21
121.818478
  0
ARC
  8
CSLAYER1
  6
CONTINUOUS
 62
     7
 10
266.785767
 20
125.898716
 40
0.654545
 50
0.000000
 51
90.000000
  0
ARC
  8
CSLAYER1
  6
CONTINUOUS
 62
     7
 10
266.785767
 20
125.898716
 40
1.554545
 50
0.000000
 51
90.000000
  0
ARC
  8
CSLAYER1
  6
CONTINUOUS
 62
     7
 10
266.785767
 20
121.807807
 40
0.654545
 50
270.000000
 51
360.000000
  0
ARC
  8
CSLAYER1
  6
CONTINUOUS
 62
     7
 10
266.785767
 20
121.807807
 40
1.554545
 50
270.000000
 51
360.000000
  0
LINE
  8
CSLAYER1
  6
CONTINUOUS
 62
     7
 10
265.694856
 20
121.153261
 11
266.785767
 21
121.153261
  0
LINE
  8
CSLAYER1
  6
CONTINUOUS
 62
     7
 10
265.694856
 20
120.253261
 11
266.785767
 21
120.253261
  0
LINE
  8
CSLAYER1
  6
CONTINUOUS
 62
     7
 10
263.060311
 20
127.453261
 11
263.060311
 21
120.253261
  0
LINE
  8
CSLAYER4
  6
CONTINUOUS
 62
     7
 10
177.464892
 20
152.276148
 11
172.875449
 21
151.441703
  0
LINE
  8
CSLAYER4
  6
CONTINUOUS
 62
     7
 10
177.464892
 20
165.425441
 11
164.992099
 21
167.693221
  0
LINE
  8
CSLAYER4
  6
CONTINUOUS
 62
     7
 10
177.875449
 20
164.933506
 11
177.875449
 21
152.768083
  0
ARC
  8
CSLAYER4
  6
CONTINUOUS
 62
     7
 10
177.375449
 20
164.933506
 40
0.500000
 50
0.000000
 51
79.695154
  0
ARC
  8
CSLAYER4
  6
CONTINUOUS
 62
     7
 10
177.375449
 20
152.768083
 40
0.500000
 50
280.304846
 51
360.000000
  0
LINE
  8
CSLAYER1
  6
CONTINUOUS
 62
     7
 10
340.102393
 20
110.723645
 11
370.631000
 21
112.485988
  0
ARC
  8
CSLAYER1
  6
CONTINUOUS
 62
     7
 10
340.275287
 20
107.728632
 40
3.000000
 50
93.303880
 51
156.847463
  0
LINE
  8
CSLAYER1
  6
CONTINUOUS
 62
     7
 10
376.127676
 20
151.287003
 11
376.127676
 21
134.235967
  0
LINE
  8
CSLAYER1
  6
CONTINUOUS
 62
     7
 10
385.127676
 20
146.767937
 11
385.127676
 21
134.235967
  0
LINE
  8
CSLAYER1
  6
CONTINUOUS
 62
     7
 10
373.626991
 20
152.367023
 11
375.180012
 21
152.285632
  0
LINE
  8
CSLAYER1
  6
CONTINUOUS
 62
     7
 10
383.523187
 20
148.515024
 11
377.127676
 21
148.515024
  0
LINE
  8
CSLAYER1
  6
CONTINUOUS
 62
     7
 10
385.024791
 20
146.914171
 11
384.389213
 21
148.015024
  0
LINE
  8
CSLAYER1
  6
CONTINUOUS
 62
     7
 10
390.877676
 20
143.380305
 11
385.390816
 21
146.548145
  0
LINE
  8
CSLAYER1
  6
CONTINUOUS
 62
     7
 10
391.127676
 20
142.947292
 11
391.127676
 21
134.235967
  0
LINE
  8
CSLAYER1
  6
CONTINUOUS
 62
     7
 10
384.100538
 20
141.452846
 11
376.127676
 21
141.452846
  0
ARC
  8
CSLAYER1
  6
CONTINUOUS
 62
     7
 10
375.127676
 20
151.287003
 40
1.000000
 50
0.000000
 51
87.000000
  0
ARC
  8
CSLAYER1
  6
CONTINUOUS
 62
     7
 10
377.127676
 20
149.515024
 40
1.000000
 50
180.000000
 51
270.000000
  0
ARC
  8
CSLAYER1
  6
CONTINUOUS
 62
     7
 10
390.627676
 20
142.947292
 40
0.500000
 50
0.000000
 51
60.000000
  0
ARC
  8
CSLAYER1
  6
CONTINUOUS
 62
     7
 10
378.547445
 20
144.983935
 40
6.580686
 50
-32.451377
 51
27.532576
  0
ARC
  8
CSLAYER1
  6
CONTINUOUS
 62
     7
 10
359.260501
 20
134.235967
 40
25.867175
 50
0.000000
 51
16.200384
  0
ARC
  8
CSLAYER1
  6
CONTINUOUS
 62
     7
 10
385.890816
 20
147.414171
 40
1.000000
 50
210.000000
 51
240.000000
  0
ARC
  8
CSLAYER1
  6
CONTINUOUS
 62
     7
 10
383.523187
 20
147.515024
 40
1.000000
 50
30.000000
 51
90.000000
  0
LINE
  8
CSLAYER1
  6
CONTINUOUS
 62
     7
 10
373.626991
 20
152.367023
 11
373.387776
 21
152.151632
  0
LINE
  8
CSLAYER1
  6
CONTINUOUS
 62
     7
 10
373.626991
 20
152.367023
 11
373.626991
 21
134.235967
  0
LINE
  8
CSLAYER1
  6
CONTINUOUS
 62
     7
 10
396.627676
 20
138.735967
 11
394.227676
 21
141.135967
  0
LINE
  8
CSLAYER1
  6
CONTINUOUS
 62
     7
 10
391.127676
 20
141.135967
 11
394.227676
 21
141.135967
  0
LINE
  8
CSLAYER1
  6
CONTINUOUS
 62
     7
 10
396.627676
 20
138.735967
 11
396.627676
 21
134.235967
  0
LINE
  8
CSLAYER1
  6
CONTINUOUS
 62
     7
 10
394.227676
 20
141.135967
 11
394.227676
 21
134.235967
  0
LINE
  8
CSLAYER1
  6
CONTINUOUS
 62
     7
 10
414.627676
 20
136.235967
 11
414.627676
 21
134.235967
  0
LINE
  8
CSLAYER1
  6
CONTINUOUS
 62
     7
 10
413.627676
 20
137.235967
 11
414.627676
 21
136.235967
  0
LINE
  8
CSLAYER1
  6
CONTINUOUS
 62
     7
 10
414.627676
 20
132.235967
 11
414.627676
 21
134.235967
  0
LINE
  8
CSLAYER1
  6
CONTINUOUS
 62
     7
 10
397.627676
 20
145.735967
 11
398.827676
 21
145.735967
  0
LINE
  8
CSLAYER1
  6
CONTINUOUS
 62
     7
 10
407.627676
 20
159.235967
 11
401.503193
 21
159.235967
  0
ARC
  8
CSLAYER1
  6
CONTINUOUS
 62
     7
 10
407.627676
 20
158.235967
 40
1.000000
 50
0.000000
 51
90.000000
  0
ARC
  8
CSLAYER1
  6
CONTINUOUS
 62
     7
 10
401.503193
 20
158.235967
 40
1.000000
 50
90.000000
 51
172.405357
  0
LINE
  8
CSLAYER1
  6
CONTINUOUS
 62
     7
 10
408.627676
 20
139.185712
 11
408.627676
 21
158.235967
  0
LINE
  8
CSLAYER1
  6
CONTINUOUS
 62
     7
 10
400.511965
 20
158.368131
 11
398.827676
 21
145.735967
  0
LINE
  8
CSLAYER1
  6
CONTINUOUS
 62
     7
 10
408.627676
 20
137.235967
 11
408.627676
 21
134.235967
  0
LINE
  8
CSLAYER1
  6
CONTINUOUS
 62
     7
 10
413.181094
 20
140.009470
 11
408.627676
 21
140.009470
  0
LINE
  8
CSLAYER1
  6
CONTINUOUS
 62
     7
 10
413.181094
 20
137.122719
 11
408.627676
 21
137.122719
  0
LINE
  8
CSLAYER1
  6
CONTINUOUS
 62
     7
 10
413.627676
 20
139.235967
 11
413.181094
 21
140.009470
  0
ARC
  8
CSLAYER1
  6
CONTINUOUS
 62
     7
 10
410.348843
 20
138.566094
 40
3.178833
 50
-27.004365
 51
27.004365
  0
ARC
  8
CSLAYER1
  6
CONTINUOUS
 62
     7
 10
401.332218
 20
134.235967
 40
12.195458
 50
0.000000
 51
13.692271
  0
LINE
  8
CSLAYER1
  6
CONTINUOUS
 62
     7
 10
413.627676
 20
139.235967
 11
413.627676
 21
134.235967
  0
LINE
  8
CSLAYER1
  6
CONTINUOUS
 62
     7
 10
408.627676
 20
140.009470
 11
408.627676
 21
134.235967
  0
LINE
  8
CSLAYER1
  6
CONTINUOUS
 62
     7
 10
398.827676
 20
145.735967
 11
398.827676
 21
134.235967
  0
LINE
  8
CSLAYER1
  6
CONTINUOUS
 62
     7
 10
400.511965
 20
158.368131
 11
400.511965
 21
134.235967
  0
LINE
  8
CSLAYER1
  6
CONTINUOUS
 62
     7
 10
407.627676
 20
137.122242
 11
401.511965
 21
137.122242
  0
LINE
  8
CSLAYER1
  6
CONTINUOUS
 62
     7
 10
407.627676
 20
148.329954
 11
401.511965
 21
148.329954
  0
LINE
  8
CSLAYER1
  6
CONTINUOUS
 62
     7
 10
407.627676
 20
157.054149
 11
401.511965
 21
157.054149
  0
LINE
  8
CSLAYER1
  6
CONTINUOUS
 62
     7
 10
407.627676
 20
152.792317
 11
401.511965
 21
152.792317
  0
ARC
  8
CSLAYER1
  6
CONTINUOUS
 62
     7
 10
397.627676
 20
144.735967
 40
1.000000
 50
90.000000
 51
180.000000
  0
LINE
  8
CSLAYER1
  6
CONTINUOUS
 62
     7
 10
396.627676
 20
144.735967
 11
396.627676
 21
134.235967
  0
LINE
  8
CSLAYER1
  6
CONTINUOUS
 62
     7
 10
376.127676
 20
117.184932
 11
376.127676
 21
134.235967
  0
LINE
  8
CSLAYER1
  6
CONTINUOUS
 62
     7
 10
385.127676
 20
121.703998
 11
385.127676
 21
134.235967
  0
LINE
  8
CSLAYER1
  6
CONTINUOUS
 62
     7
 10
373.626991
 20
116.104912
 11
375.180012
 21
116.186302
  0
LINE
  8
CSLAYER1
  6
CONTINUOUS
 62
     7
 10
383.523187
 20
119.956911
 11
377.127676
 21
119.956911
  0
LINE
  8
CSLAYER1
  6
CONTINUOUS
 62
     7
 10
385.024791
 20
121.557764
 11
384.389213
 21
120.456911
  0
LINE
  8
CSLAYER1
  6
CONTINUOUS
 62
     7
 10
390.877676
 20
125.091630
 11
385.390816
 21
121.923790
  0
LINE
  8
CSLAYER1
  6
CONTINUOUS
 62
     7
 10
391.127676
 20
125.524643
 11
391.127676
 21
134.235967
  0
LINE
  8
CSLAYER1
  6
CONTINUOUS
 62
     7
 10
384.100538
 20
127.019089
 11
376.127676
 21
127.019089
  0
ARC
  8
CSLAYER1
  6
CONTINUOUS
 62
     7
 10
375.127676
 20
117.184932
 40
1.000000
 50
273.000000
 51
360.000000
  0
ARC
  8
CSLAYER1
  6
CONTINUOUS
 62
     7
 10
377.127676
 20
118.956911
 40
1.000000
 50
90.000000
 51
180.000000
  0
ARC
  8
CSLAYER1
  6
CONTINUOUS
 62
     7
 10
390.627676
 20
125.524643
 40
0.500000
 50
300.000000
 51
360.000000
  0
ARC
  8
CSLAYER1
  6
CONTINUOUS
 62
     7
 10
378.547445
 20
123.488000
 40
6.580686
 50
-27.532576
 51
32.451377
  0
ARC
  8
CSLAYER1
  6
CONTINUOUS
 62
     7
 10
359.260501
 20
134.235967
 40
25.867175
 50
343.799616
 51
360.000000
  0
ARC
  8
CSLAYER1
  6
CONTINUOUS
 62
     7
 10
385.890816
 20
121.057764
 40
1.000000
 50
120.000000
 51
150.000000
  0
ARC
  8
CSLAYER1
  6
CONTINUOUS
 62
     7
 10
383.523187
 20
120.956911
 40
1.000000
 50
270.000000
 51
330.000000
  0
LINE
  8
CSLAYER1
  6
CONTINUOUS
 62
     7
 10
373.626991
 20
116.104912
 11
373.387776
 21
116.320302
  0
LINE
  8
CSLAYER1
  6
CONTINUOUS
 62
     7
 10
373.626991
 20
116.104912
 11
373.626991
 21
134.235967
  0
LINE
  8
CSLAYER1
  6
CONTINUOUS
 62
     7
 10
396.627676
 20
129.735967
 11
394.227676
 21
127.335967
  0
LINE
  8
CSLAYER1
  6
CONTINUOUS
 62
     7
 10
391.127676
 20
127.335967
 11
394.227676
 21
127.335967
  0
LINE
  8
CSLAYER1
  6
CONTINUOUS
 62
     7
 10
396.627676
 20
129.735967
 11
396.627676
 21
134.235967
  0
LINE
  8
CSLAYER1
  6
CONTINUOUS
 62
     7
 10
394.227676
 20
127.335967
 11
394.227676
 21
134.235967
  0
LINE
  8
CSLAYER1
  6
CONTINUOUS
 62
     7
 10
414.627676
 20
132.235967
 11
414.627676
 21
134.235967
  0
LINE
  8
CSLAYER1
  6
CONTINUOUS
 62
     7
 10
413.627676
 20
131.235967
 11
414.627676
 21
132.235967
  0
LINE
  8
CSLAYER1
  6
CONTINUOUS
 62
     7
 10
414.627676
 20
136.235967
 11
414.627676
 21
134.235967
  0
LINE
  8
CSLAYER1
  6
CONTINUOUS
 62
     7
 10
397.627676
 20
122.735967
 11
398.827676
 21
122.735967
  0
LINE
  8
CSLAYER1
  6
CONTINUOUS
 62
     7
 10
407.627676
 20
109.235967
 11
401.503193
 21
109.235967
  0
ARC
  8
CSLAYER1
  6
CONTINUOUS
 62
     7
 10
407.627676
 20
110.235967
 40
1.000000
 50
270.000000
 51
360.000000
  0
ARC
  8
CSLAYER1
  6
CONTINUOUS
 62
     7
 10
401.503193
 20
110.235967
 40
1.000000
 50
187.594643
 51
270.000000
  0
LINE
  8
CSLAYER1
  6
CONTINUOUS
 62
     7
 10
408.627676
 20
129.286222
 11
408.627676
 21
110.235967
  0
LINE
  8
CSLAYER1
  6
CONTINUOUS
 62
     7
 10
400.511965
 20
110.103804
 11
398.827676
 21
122.735967
  0
LINE
  8
CSLAYER1
  6
CONTINUOUS
 62
     7
 10
408.627676
 20
131.235967
 11
408.627676
 21
134.235967
  0
LINE
  8
CSLAYER1
  6
CONTINUOUS
 62
     7
 10
413.181094
 20
128.462465
 11
408.627676
 21
128.462465
  0
LINE
  8
CSLAYER1
  6
CONTINUOUS
 62
     7
 10
413.181094
 20
131.349216
 11
408.627676
 21
131.349216
  0
LINE
  8
CSLAYER1
  6
CONTINUOUS
 62
     7
 10
413.627676
 20
129.235967
 11
413.181094
 21
128.462465
  0
ARC
  8
CSLAYER1
  6
CONTINUOUS
 62
     7
 10
410.348843
 20
129.905840
 40
3.178833
 50
-27.004365
 51
27.004365
  0
ARC
  8
CSLAYER1
  6
CONTINUOUS
 62
     7
 10
401.332218
 20
134.235967
 40
12.195458
 50
346.307729
 51
360.000000
  0
LINE
  8
CSLAYER1
  6
CONTINUOUS
 62
     7
 10
413.627676
 20
129.235967
 11
413.627676
 21
134.235967
  0
LINE
  8
CSLAYER1
  6
CONTINUOUS
 62
     7
 10
408.627676
 20
128.462465
 11
408.627676
 21
134.235967
  0
LINE
  8
CSLAYER1
  6
CONTINUOUS
 62
     7
 10
398.827676
 20
122.735967
 11
398.827676
 21
134.235967
  0
LINE
  8
CSLAYER1
  6
CONTINUOUS
 62
     7
 10
400.511965
 20
110.103804
 11
400.511965
 21
134.235967
  0
LINE
  8
CSLAYER1
  6
CONTINUOUS
 62
     7
 10
407.627676
 20
131.349693
 11
401.511965
 21
131.349693
  0
LINE
  8
CSLAYER1
  6
CONTINUOUS
 62
     7
 10
407.627676
 20
120.141980
 11
401.511965
 21
120.141980
  0
LINE
  8
CSLAYER1
  6
CONTINUOUS
 62
     7
 10
407.627676
 20
111.417786
 11
401.511965
 21
111.417786
  0
LINE
  8
CSLAYER1
  6
CONTINUOUS
 62
     7
 10
407.627676
 20
115.679618
 11
401.511965
 21
115.679618
  0
ARC
  8
CSLAYER1
  6
CONTINUOUS
 62
     7
 10
397.627676
 20
123.735967
 40
1.000000
 50
180.000000
 51
270.000000
  0
LINE
  8
CSLAYER1
  6
CONTINUOUS
 62
     7
 10
396.627676
 20
123.735967
 11
396.627676
 21
134.235967
  0
LINE
  8
CSLAYER4
  6
CENTER
 62
     7
 10
277.627676
 20
134.235967
 11
420.664125
 21
134.235967
  0
ARC
  8
CSLAYER1
  6
CONTINUOUS
 62
     7
 10
312.627676
 20
99.235966
 40
2.000000
 50
90.000000
 51
180.000000
  0
LINE
  8
CSLAYER1
  6
CONTINUOUS
 62
     7
 10
310.627676
 20
99.235966
 11
310.627676
 21
75.235966
  0
ARC
  8
CSLAYER1
  6
CONTINUOUS
 62
     7
 10
312.627676
 20
75.235966
 40
2.000000
 50
180.000000
 51
270.000000
  0
LINE
  8
CSLAYER1
  6
CONTINUOUS
 62
     7
 10
285.990715
 20
127.375820
 11
287.064791
 21
127.375820
  0
LINE
  8
CSLAYER1
  6
CONTINUOUS
 62
     7
 10
284.460159
 20
125.834758
 11
284.460159
 21
121.827995
  0
LINE
  8
CSLAYER1
  6
CONTINUOUS
 62
     7
 10
285.346271
 20
125.845265
 11
285.346271
 21
121.827995
  0
LINE
  8
CSLAYER1
  6
CONTINUOUS
 62
     7
 10
285.990715
 20
126.489709
 11
287.064791
 21
126.489709
  0
ARC
  8
CSLAYER1
  6
CONTINUOUS
 62
     7
 10
285.990715
 20
125.845265
 40
0.644444
 50
90.000000
 51
180.000000
  0
ARC
  8
CSLAYER1
  6
CONTINUOUS
 62
     7
 10
285.990715
 20
125.845265
 40
1.530556
 50
90.000000
 51
180.000000
  0
ARC
  8
CSLAYER1
  6
CONTINUOUS
 62
     7
 10
285.990715
 20
121.817487
 40
0.644444
 50
180.000000
 51
270.000000
  0
ARC
  8
CSLAYER1
  6
CONTINUOUS
 62
     7
 10
285.990715
 20
121.817487
 40
1.530556
 50
180.000000
 51
270.000000
  0
LINE
  8
CSLAYER1
  6
CONTINUOUS
 62
     7
 10
288.595347
 20
125.834758
 11
288.595347
 21
121.827995
  0
LINE
  8
CSLAYER1
  6
CONTINUOUS
 62
     7
 10
287.709236
 20
125.845265
 11
287.709236
 21
121.827995
  0
ARC
  8
CSLAYER1
  6
CONTINUOUS
 62
     7
 10
287.064791
 20
125.845265
 40
0.644444
 50
0.000000
 51
90.000000
  0
ARC
  8
CSLAYER1
  6
CONTINUOUS
 62
     7
 10
287.064791
 20
125.845265
 40
1.530556
 50
0.000000
 51
90.000000
  0
ARC
  8
CSLAYER1
  6
CONTINUOUS
 62
     7
 10
287.064791
 20
121.817487
 40
0.644444
 50
270.000000
 51
360.000000
  0
ARC
  8
CSLAYER1
  6
CONTINUOUS
 62
     7
 10
287.064791
 20
121.817487
 40
1.530556
 50
270.000000
 51
360.000000
  0
LINE
  8
CSLAYER1
  6
CONTINUOUS
 62
     7
 10
285.990715
 20
121.173043
 11
287.064791
 21
121.173043
  0
LINE
  8
CSLAYER1
  6
CONTINUOUS
 62
     7
 10
285.990715
 20
120.286931
 11
287.064791
 21
120.286931
  0
LINE
  8
CSLAYER1
  6
CONTINUOUS
 62
     7
 10
281.624604
 20
127.536931
 11
282.510715
 21
127.536931
  0
LINE
  8
CSLAYER1
  6
CONTINUOUS
 62
     7
 10
281.624604
 20
120.286931
 11
282.510715
 21
120.286931
  0
LINE
  8
CSLAYER1
  6
CONTINUOUS
 62
     7
 10
283.396826
 20
122.945265
 11
283.396826
 21
122.059154
  0
LINE
  8
CSLAYER1
  6
CONTINUOUS
 62
     7
 10
280.258203
 20
122.945265
 11
281.624604
 21
122.945265
  0
LINE
  8
CSLAYER1
  6
CONTINUOUS
 62
     7
 10
282.510715
 20
127.536931
 11
282.510715
 21
122.945265
  0
LINE
  8
CSLAYER1
  6
CONTINUOUS
 62
     7
 10
282.510715
 20
122.945265
 11
283.396826
 21
122.945265
  0
LINE
  8
CSLAYER1
  6
CONTINUOUS
 62
     7
 10
281.624604
 20
122.059154
 11
281.624604
 21
120.286931
  0
LINE
  8
CSLAYER1
  6
CONTINUOUS
 62
     7
 10
282.510715
 20
122.059154
 11
282.510715
 21
120.286931
  0
LINE
  8
CSLAYER1
  6
CONTINUOUS
 62
     7
 10
282.510715
 20
122.059154
 11
283.396826
 21
122.059154
  0
LINE
  8
CSLAYER1
  6
CONTINUOUS
 62
     7
 10
279.261639
 20
122.059154
 11
281.624604
 21
122.059154
  0
LINE
  8
CSLAYER1
  6
CONTINUOUS
 62
     7
 10
281.624604
 20
127.536931
 11
279.261639
 21
122.945265
  0
LINE
  8
CSLAYER1
  6
CONTINUOUS
 62
     7
 10
279.261639
 20
122.945265
 11
279.261639
 21
122.059154
  0
LINE
  8
CSLAYER1
  6
CONTINUOUS
 62
     7
 10
281.624604
 20
122.945265
 11
281.624604
 21
125.635521
  0
LINE
  8
CSLAYER1
  6
CONTINUOUS
 62
     7
 10
281.624604
 20
125.600429
 11
280.258203
 21
122.945265
  0
LINE
  8
CSLAYER1
  6
CENTER
 62
     7
 10
202.627677
 20
314.470900
 11
352.627677
 21
314.470900
  0
LINE
  8
CSLAYER1
  6
CENTER
 62
     7
 10
304.497735
 20
341.340958
 11
325.003832
 21
361.847055
  0
CIRCLE
  8
CSLAYER1
  6
CONTINUOUS
 62
     7
 10
314.750783
 20
351.594006
 40
9.500000
  0
LINE
  8
CSLAYER1
  6
CENTER
 62
     7
 10
250.757620
 20
341.340958
 11
230.251523
 21
361.847055
  0
CIRCLE
  8
CSLAYER1
  6
CONTINUOUS
 62
     7
 10
240.504571
 20
351.594006
 40
9.500000
  0
CIRCLE
  8
CSLAYER1
  6
CONTINUOUS
 62
     7
 10
277.627677
 20
314.470900
 40
70.000000
  0
CIRCLE
  8
CSLAYER1
  6
CONTINUOUS
 62
     7
 10
277.627677
 20
314.470900
 40
29.500000
  0
LINE
  8
CSLAYER1
  6
CENTER
 62
     7
 10
304.497735
 20
287.600843
 11
325.003832
 21
267.094746
  0
CIRCLE
  8
CSLAYER1
  6
CONTINUOUS
 62
     7
 10
314.750783
 20
277.347794
 40
9.500000
  0
LINE
  8
CSLAYER1
  6
CENTER
 62
     7
 10
250.757620
 20
287.600843
 11
230.251523
 21
267.094746
  0
CIRCLE
  8
CSLAYER1
  6
CONTINUOUS
 62
     7
 10
240.504571
 20
277.347794
 40
9.500000
  0
CIRCLE
  8
CSLAYER1
  6
CENTER
 62
     7
 10
277.627677
 20
314.470900
 40
52.500000
  0
LINE
  8
CSLAYER1
  6
CENTER
 62
     7
 10
277.627677
 20
390.072687
 11
277.627677
 21
239.470900
  0
LINE
  8
CSLAYER1
  6
CONTINUOUS
 62
     7
 10
414.627676
 20
134.371513
 11
414.627676
 21
20.000000
  0
LINE
  8
CSLAYER1
  6
CONTINUOUS
 62
     7
 10
442.718750
 20
53.235966
 11
339.647133
 21
53.235966
  0
LINE
  8
CSLAYER1
  6
CONTINUOUS
 62
     7
 10
277.627676
 20
20.000000
 11
277.627676
 21
48.235966
  0
LINE
  8
CSLAYER1
  6
CONTINUOUS
 62
     7
 10
414.627676
 20
23.600755
 11
277.627676
 21
23.600755
  0
LINE
  8
CSLAYER1
  6
CONTINUOUS
 62
     7
 10
414.627676
 20
23.600755
 11
411.729899
 21
24.377213
  0
LINE
  8
CSLAYER1
  6
CONTINUOUS
 62
     7
 10
414.627676
 20
23.600755
 11
411.729899
 21
22.824298
  0
LINE
  8
CSLAYER1
  6
CONTINUOUS
 62
     7
 10
277.627676
 20
23.600755
 11
280.525454
 21
24.377213
  0
LINE
  8
CSLAYER1
  6
CONTINUOUS
 62
     7
 10
277.627676
 20
23.600755
 11
280.525454
 21
22.824298
  0
LINE
  8
CSLAYER1
  6
CONTINUOUS
 62
     7
 10
440.918373
 20
53.235966
 11
440.918373
 21
134.371513
  0
LINE
  8
CSLAYER1
  6
CONTINUOUS
 62
     7
 10
440.918373
 20
53.235966
 11
440.141916
 21
56.133743
  0
LINE
  8
CSLAYER1
  6
CONTINUOUS
 62
     7
 10
440.918373
 20
53.235966
 11
441.694830
 21
56.133743
  0
LINE
  8
CSLAYER1
  6
CONTINUOUS
 62
     7
 10
440.918373
 20
134.371513
 11
440.141916
 21
131.473736
  0
LINE
  8
CSLAYER1
  6
CONTINUOUS
 62
     7
 10
440.918373
 20
134.371513
 11
441.694830
 21
131.473736
  0
LINE
  8
CSLAYER1
  6
CONTINUOUS
 62
     7
 10
370.630980
 20
292.721269
 11
373.387776
 21
295.814749
  0
LINE
  8
CSLAYER1
  6
CONTINUOUS
 62
     7
 10
370.631000
 20
335.949783
 11
373.619449
 21
332.595164
  0
LINE
  8
CSLAYER1
  6
CONTINUOUS
 62
     7
 10
343.633083
 20
291.162396
 11
370.631000
 21
292.720921
  0
LINE
  8
CSLAYER1
  6
CONTINUOUS
 62
     7
 10
373.387776
 20
295.814749
 11
373.387776
 21
332.855224
  0
LINE
  8
CSLAYER1
  6
CONTINUOUS
 62
     7
 10
376.127676
 20
331.521935
 11
376.127676
 21
314.470899
  0
LINE
  8
CSLAYER1
  6
CONTINUOUS
 62
     7
 10
385.127676
 20
327.002869
 11
385.127676
 21
314.470899
  0
LINE
  8
CSLAYER1
  6
CONTINUOUS
 62
     7
 10
373.626991
 20
332.601955
 11
375.180012
 21
332.520564
  0
LINE
  8
CSLAYER1
  6
CONTINUOUS
 62
     7
 10
383.523187
 20
328.749956
 11
377.127676
 21
328.749956
  0
LINE
  8
CSLAYER1
  6
CONTINUOUS
 62
     7
 10
385.024791
 20
327.149103
 11
384.389213
 21
328.249956
  0
LINE
  8
CSLAYER1
  6
CONTINUOUS
 62
     7
 10
390.877676
 20
323.615237
 11
385.390816
 21
326.783077
  0
LINE
  8
CSLAYER1
  6
CONTINUOUS
 62
     7
 10
391.127676
 20
323.182224
 11
391.127676
 21
314.470899
  0
LINE
  8
CSLAYER1
  6
CONTINUOUS
 62
     7
 10
384.100538
 20
321.687778
 11
376.127676
 21
321.687778
  0
ARC
  8
CSLAYER1
  6
CONTINUOUS
 62
     7
 10
375.127676
 20
331.521935
 40
1.000000
 50
0.000000
 51
87.000000
  0
ARC
  8
CSLAYER1
  6
CONTINUOUS
 62
     7
 10
377.127676
 20
329.749956
 40
1.000000
 50
180.000000
 51
270.000000
  0
ARC
  8
CSLAYER1
  6
CONTINUOUS
 62
     7
 10
390.627676
 20
323.182224
 40
0.500000
 50
0.000000
 51
60.000000
  0
ARC
  8
CSLAYER1
  6
CONTINUOUS
 62
     7
 10
378.547445
 20
325.218867
 40
6.580686
 50
-32.451377
 51
27.532576
  0
ARC
  8
CSLAYER1
  6
CONTINUOUS
 62
     7
 10
359.260501
 20
314.470899
 40
25.867175
 50
0.000000
 51
16.200384
  0
ARC
  8
CSLAYER1
  6
CONTINUOUS
 62
     7
 10
385.890816
 20
327.649103
 40
1.000000
 50
210.000000
 51
240.000000
  0
ARC
  8
CSLAYER1
  6
CONTINUOUS
 62
     7
 10
383.523187
 20
327.749956
 40
1.000000
 50
30.000000
 51
90.000000
  0
LINE
  8
CSLAYER1
  6
CONTINUOUS
 62
     7
 10
373.626991
 20
332.601955
 11
373.387776
 21
332.386565
  0
LINE
  8
CSLAYER1
  6
CONTINUOUS
 62
     7
 10
373.626991
 20
332.601955
 11
373.626991
 21
314.470899
  0
LINE
  8
CSLAYER1
  6
CONTINUOUS
 62
     7
 10
396.627676
 20
318.970899
 11
394.227676
 21
321.370899
  0
LINE
  8
CSLAYER1
  6
CONTINUOUS
 62
     7
 10
391.127676
 20
321.370899
 11
394.227676
 21
321.370899
  0
LINE
  8
CSLAYER1
  6
CONTINUOUS
 62
     7
 10
396.627676
 20
318.970899
 11
396.627676
 21
314.470899
  0
LINE
  8
CSLAYER1
  6
CONTINUOUS
 62
     7
 10
394.227676
 20
321.370899
 11
394.227676
 21
314.470899
  0
LINE
  8
CSLAYER1
  6
CONTINUOUS
 62
     7
 10
414.627676
 20
316.470899
 11
414.627676
 21
314.470899
  0
LINE
  8
CSLAYER1
  6
CONTINUOUS
 62
     7
 10
413.627676
 20
317.470899
 11
414.627676
 21
316.470899
  0
LINE
  8
CSLAYER1
  6
CONTINUOUS
 62
     7
 10
414.627676
 20
312.470899
 11
414.627676
 21
314.470899
  0
LINE
  8
CSLAYER1
  6
CONTINUOUS
 62
     7
 10
397.627676
 20
325.970899
 11
398.827676
 21
325.970899
  0
LINE
  8
CSLAYER1
  6
CONTINUOUS
 62
     7
 10
407.627676
 20
339.470899
 11
401.503193
 21
339.470899
  0
ARC
  8
CSLAYER1
  6
CONTINUOUS
 62
     7
 10
407.627676
 20
338.470899
 40
1.000000
 50
0.000000
 51
90.000000
  0
ARC
  8
CSLAYER1
  6
CONTINUOUS
 62
     7
 10
401.503193
 20
338.470899
 40
1.000000
 50
90.000000
 51
172.405357
  0
LINE
  8
CSLAYER1
  6
CONTINUOUS
 62
     7
 10
408.627676
 20
319.420644
 11
408.627676
 21
338.470899
  0
LINE
  8
CSLAYER1
  6
CONTINUOUS
 62
     7
 10
400.511965
 20
338.603063
 11
398.827676
 21
325.970899
  0
LINE
  8
CSLAYER1
  6
CONTINUOUS
 62
     7
 10
408.627676
 20
317.470899
 11
408.627676
 21
314.470899
  0
LINE
  8
CSLAYER1
  6
CONTINUOUS
 62
     7
 10
413.181094
 20
320.244402
 11
408.627676
 21
320.244402
  0
LINE
  8
CSLAYER1
  6
CONTINUOUS
 62
     7
 10
413.181094
 20
317.357651
 11
408.627676
 21
317.357651
  0
LINE
  8
CSLAYER1
  6
CONTINUOUS
 62
     7
 10
413.627676
 20
319.470899
 11
413.181094
 21
320.244402
  0
ARC
  8
CSLAYER1
  6
CONTINUOUS
 62
     7
 10
410.348843
 20
318.801026
 40
3.178833
 50
-27.004365
 51
27.004365
  0
ARC
  8
CSLAYER1
  6
CONTINUOUS
 62
     7
 10
401.332218
 20
314.470899
 40
12.195458
 50
0.000000
 51
13.692271
  0
LINE
  8
CSLAYER1
  6
CONTINUOUS
 62
     7
 10
413.627676
 20
319.470899
 11
413.627676
 21
314.470899
  0
LINE
  8
CSLAYER1
  6
CONTINUOUS
 62
     7
 10
408.627676
 20
320.244402
 11
408.627676
 21
314.470899
  0
LINE
  8
CSLAYER1
  6
CONTINUOUS
 62
     7
 10
398.827676
 20
325.970899
 11
398.827676
 21
314.470899
  0
LINE
  8
CSLAYER1
  6
CONTINUOUS
 62
     7
 10
400.511965
 20
338.603063
 11
400.511965
 21
314.470899
  0
LINE
  8
CSLAYER1
  6
CONTINUOUS
 62
     7
 10
407.627676
 20
317.357174
 11
401.511965
 21
317.357174
  0
LINE
  8
CSLAYER1
  6
CONTINUOUS
 62
     7
 10
407.627676
 20
328.564886
 11
401.511965
 21
328.564886
  0
LINE
  8
CSLAYER1
  6
CONTINUOUS
 62
     7
 10
407.627676
 20
337.289081
 11
401.511965
 21
337.289081
  0
LINE
  8
CSLAYER1
  6
CONTINUOUS
 62
     7
 10
407.627676
 20
333.027249
 11
401.511965
 21
333.027249
  0
ARC
  8
CSLAYER1
  6
CONTINUOUS
 62
     7
 10
397.627676
 20
324.970899
 40
1.000000
 50
90.000000
 51
180.000000
  0
LINE
  8
CSLAYER1
  6
CONTINUOUS
 62
     7
 10
396.627676
 20
324.970899
 11
396.627676
 21
314.470899
  0
LINE
  8
CSLAYER1
  6
CONTINUOUS
 62
     7
 10
376.127676
 20
297.419864
 11
376.127676
 21
314.470899
  0
LINE
  8
CSLAYER1
  6
CONTINUOUS
 62
     7
 10
385.127676
 20
301.938930
 11
385.127676
 21
314.470899
  0
LINE
  8
CSLAYER1
  6
CONTINUOUS
 62
     7
 10
373.626991
 20
296.339844
 11
375.180012
 21
296.421234
  0
LINE
  8
CSLAYER1
  6
CONTINUOUS
 62
     7
 10
383.523187
 20
300.191843
 11
377.127676
 21
300.191843
  0
LINE
  8
CSLAYER1
  6
CONTINUOUS
 62
     7
 10
385.024791
 20
301.792696
 11
384.389213
 21
300.691843
  0
LINE
  8
CSLAYER1
  6
CONTINUOUS
 62
     7
 10
390.877676
 20
305.326562
 11
385.390816
 21
302.158722
  0
LINE
  8
CSLAYER1
  6
CONTINUOUS
 62
     7
 10
391.127676
 20
305.759575
 11
391.127676
 21
314.470899
  0
LINE
  8
CSLAYER1
  6
CONTINUOUS
 62
     7
 10
384.100538
 20
307.254021
 11
376.127676
 21
307.254021
  0
ARC
  8
CSLAYER1
  6
CONTINUOUS
 62
     7
 10
375.127676
 20
297.419864
 40
1.000000
 50
273.000000
 51
360.000000
  0
ARC
  8
CSLAYER1
  6
CONTINUOUS
 62
     7
 10
377.127676
 20
299.191843
 40
1.000000
 50
90.000000
 51
180.000000
  0
ARC
  8
CSLAYER1
  6
CONTINUOUS
 62
     7
 10
390.627676
 20
305.759575
 40
0.500000
 50
300.000000
 51
360.000000
  0
ARC
  8
CSLAYER1
  6
CONTINUOUS
 62
     7
 10
378.547445
 20
303.722932
 40
6.580686
 50
-27.532576
 51
32.451377
  0
ARC
  8
CSLAYER1
  6
CONTINUOUS
 62
     7
 10
359.260501
 20
314.470899
 40
25.867175
 50
343.799616
 51
360.000000
  0
ARC
  8
CSLAYER1
  6
CONTINUOUS
 62
     7
 10
385.890816
 20
301.292696
 40
1.000000
 50
120.000000
 51
150.000000
  0
ARC
  8
CSLAYER1
  6
CONTINUOUS
 62
     7
 10
383.523187
 20
301.191843
 40
1.000000
 50
270.000000
 51
330.000000
  0
LINE
  8
CSLAYER1
  6
CONTINUOUS
 62
     7
 10
373.626991
 20
296.339844
 11
373.387776
 21
296.555235
  0
LINE
  8
CSLAYER1
  6
CONTINUOUS
 62
     7
 10
373.626991
 20
296.339844
 11
373.626991
 21
314.470899
  0
LINE
  8
CSLAYER1
  6
CONTINUOUS
 62
     7
 10
396.627676
 20
309.970899
 11
394.227676
 21
307.570899
  0
LINE
  8
CSLAYER1
  6
CONTINUOUS
 62
     7
 10
391.127676
 20
307.570899
 11
394.227676
 21
307.570899
  0
LINE
  8
CSLAYER1
  6
CONTINUOUS
 62
     7
 10
396.627676
 20
309.970899
 11
396.627676
 21
314.470899
  0
LINE
  8
CSLAYER1
  6
CONTINUOUS
 62
     7
 10
394.227676
 20
307.570899
 11
394.227676
 21
314.470899
  0
LINE
  8
CSLAYER1
  6
CONTINUOUS
 62
     7
 10
414.627676
 20
312.470899
 11
414.627676
 21
314.470899
  0
LINE
  8
CSLAYER1
  6
CONTINUOUS
 62
     7
 10
413.627676
 20
311.470899
 11
414.627676
 21
312.470899
  0
LINE
  8
CSLAYER1
  6
CONTINUOUS
 62
     7
 10
414.627676
 20
316.470899
 11
414.627676
 21
314.470899
  0
LINE
  8
CSLAYER1
  6
CONTINUOUS
 62
     7
 10
397.627676
 20
302.970899
 11
398.827676
 21
302.970899
  0
LINE
  8
CSLAYER1
  6
CONTINUOUS
 62
     7
 10
407.627676
 20
289.470899
 11
401.503193
 21
289.470899
  0
ARC
  8
CSLAYER1
  6
CONTINUOUS
 62
     7
 10
407.627676
 20
290.470899
 40
1.000000
 50
270.000000
 51
360.000000
  0
ARC
  8
CSLAYER1
  6
CONTINUOUS
 62
     7
 10
401.503193
 20
290.470899
 40
1.000000
 50
187.594643
 51
270.000000
  0
LINE
  8
CSLAYER1
  6
CONTINUOUS
 62
     7
 10
408.627676
 20
309.521154
 11
408.627676
 21
290.470899
  0
LINE
  8
CSLAYER1
  6
CONTINUOUS
 62
     7
 10
400.511965
 20
290.338736
 11
398.827676
 21
302.970899
  0
LINE
  8
CSLAYER1
  6
CONTINUOUS
 62
     7
 10
408.627676
 20
311.470899
 11
408.627676
 21
314.470899
  0
LINE
  8
CSLAYER1
  6
CONTINUOUS
 62
     7
 10
413.181094
 20
308.697397
 11
408.627676
 21
308.697397
  0
LINE
  8
CSLAYER1
  6
CONTINUOUS
 62
     7
 10
413.181094
 20
311.584148
 11
408.627676
 21
311.584148
  0
LINE
  8
CSLAYER1
  6
CONTINUOUS
 62
     7
 10
413.627676
 20
309.470899
 11
413.181094
 21
308.697397
  0
ARC
  8
CSLAYER1
  6
CONTINUOUS
 62
     7
 10
410.348843
 20
310.140772
 40
3.178833
 50
-27.004365
 51
27.004365
  0
ARC
  8
CSLAYER1
  6
CONTINUOUS
 62
     7
 10
401.332218
 20
314.470899
 40
12.195458
 50
346.307729
 51
360.000000
  0
LINE
  8
CSLAYER1
  6
CONTINUOUS
 62
     7
 10
413.627676
 20
309.470899
 11
413.627676
 21
314.470899
  0
LINE
  8
CSLAYER1
  6
CONTINUOUS
 62
     7
 10
408.627676
 20
308.697397
 11
408.627676
 21
314.470899
  0
LINE
  8
CSLAYER1
  6
CONTINUOUS
 62
     7
 10
398.827676
 20
302.970899
 11
398.827676
 21
314.470899
  0
LINE
  8
CSLAYER1
  6
CONTINUOUS
 62
     7
 10
400.511965
 20
290.338736
 11
400.511965
 21
314.470899
  0
LINE
  8
CSLAYER1
  6
CONTINUOUS
 62
     7
 10
407.627676
 20
311.584625
 11
401.511965
 21
311.584625
  0
LINE
  8
CSLAYER1
  6
CONTINUOUS
 62
     7
 10
407.627676
 20
300.376912
 11
401.511965
 21
300.376912
  0
LINE
  8
CSLAYER1
  6
CONTINUOUS
 62
     7
 10
407.627676
 20
291.652718
 11
401.511965
 21
291.652718
  0
LINE
  8
CSLAYER1
  6
CONTINUOUS
 62
     7
 10
407.627676
 20
295.914550
 11
401.511965
 21
295.914550
  0
ARC
  8
CSLAYER1
  6
CONTINUOUS
 62
     7
 10
397.627676
 20
303.970899
 40
1.000000
 50
180.000000
 51
270.000000
  0
LINE
  8
CSLAYER1
  6
CONTINUOUS
 62
     7
 10
396.627676
 20
303.970899
 11
396.627676
 21
314.470899
  0
LINE
  8
CSLAYER1
  6
CONTINUOUS
 62
     7
 10
343.730143
 20
337.502704
 11
370.631000
 21
335.949783
  0
LINE
  8
CSLAYER4
  6
CENTER
 62
     7
 10
277.627676
 20
314.470899
 11
420.664125
 21
314.470899
  0
LINE
  8
CSLAYER1
  6
CONTINUOUS
 62
     7
 10
347.627676
 20
71.735966
 11
207.627676
 21
71.735966
  0
LINE
  8
CSLAYER1
  6
CONTINUOUS
 62
     7
 10
347.627676
 20
54.735966
 11
207.627676
 21
54.735966
  0
LINE
  8
CSLAYER1
  6
CENTER
 62
     7
 10
427.165464
 20
134.235966
 11
339.647133
 21
134.235966
  0
LINE
  8
CSLAYER1
  6
CONTINUOUS
 62
     7
 10
440.918373
 20
134.235966
 11
425.425947
 21
134.235966
  0
LINE
  8
CSLAYER1
  6
CONTINUOUS
 62
     7
 10
440.918373
 20
215.235966
 11
440.918373
 21
134.100418
  0
LINE
  8
CSLAYER1
  6
CONTINUOUS
 62
     7
 10
440.918373
 20
215.235966
 11
440.141916
 21
212.338188
  0
LINE
  8
CSLAYER1
  6
CONTINUOUS
 62
     7
 10
440.918373
 20
215.235966
 11
441.694830
 21
212.338188
  0
LINE
  8
CSLAYER1
  6
CONTINUOUS
 62
     7
 10
440.918373
 20
134.100418
 11
440.141916
 21
136.998196
  0
LINE
  8
CSLAYER1
  6
CONTINUOUS
 62
     7
 10
440.918373
 20
134.100418
 11
441.694830
 21
136.998196
  0
LINE
  8
CSLAYER1
  6
CONTINUOUS
 62
     7
 10
442.718750
 20
215.235966
 11
339.647133
 21
215.235966
  0
INSERT
  8
CSLAYER1
  2
BLKF0008
 10
0.0
 20
0.0
 30
0.0
  0
INSERT
  8
CSLAYER1
  2
BLKF0009
 10
0.0
 20
0.0
 30
0.0
  0
INSERT
  8
CSLAYER1
  2
BLKF0010
 10
0.0
 20
0.0
 30
0.0
  0
LINE
  8
CSLAYER1
  6
CONTINUOUS
 62
     7
 10
347.627676
 20
213.735966
 11
207.627676
 21
213.735966
  0
LINE
  8
CSLAYER1
  6
CONTINUOUS
 62
     7
 10
347.627676
 20
196.735966
 11
207.627676
 21
196.735966
  0
ENDSEC
  0
EOF
