  0
SECTION
  2
HEADER
  9
$ACADVER
  1
AC1006
  9
$INSBASE
 10
0.000000
 20
0.000000
 30
0.0
  9
$EXTMIN
 10
0.000000
 20
0.000000
  9
$EXTMAX
 10
1467.749999
 20
1365.500000
  9
$LIMMIN
 10
0.000000
 20
0.000000
  9
$LIMMAX
 10
1467.749999
 20
1365.500000
  9
$VIEWCTR
 10
733.874999
 20
682.750000
  9
$VIEWSIZE
 40
1365.500000
  9
$SNAPMODE
 70
     0
  9
$SNAPUNIT
 10
1.0
 20
1.0
  9
$SNAPBASE
 10
0.0
 20
0.0
  9
$SNAPANG
 50
0.0
  9
$SNAPSTYLE
 70
     0
  9
$SNAPISOPAIR
 70
     0
  9
$GRIDMODE
 70
     0
  9
$GRIDUNIT
 10
0.0
 20
0.0
  9
$ORTHOMODE
 70
     0
  9
$REGENMODE
 70
     1
  9
$FILLMODE
 70
     1
  9
$QTEXTMODE
 70
     0
  9
$DRAGMODE
 70
     2
  9
$LTSCALE
 40
15.000000
  9
$OSMODE
 70
     0
  9
$ATTMODE
 70
     1
  9
$TEXTSIZE
 40
0.2
  9
$TRACEWID
 40
0.05
  9
$TEXTSTYLE
  7
STANDARD
  9
$CLAYER
  8
CSLAYER1
  9
$CELTYPE
  6
BYLAYER
  9
$CECOLOR
 62
   256
  9
$DIMSCALE
 40
1.0
  9
$DIMASZ
 40
0.18
  9
$DIMEXO
 40
0.0625
  9
$DIMDLI
 40
0.38
  9
$DIMRND
 40
0.0
  9
$DIMDLE
 40
0.0
  9
$DIMEXE
 40
0.18
  9
$DIMTP
 40
0.0
  9
$DIMTM
 40
0.0
  9
$DIMTXT
 40
0.18
  9
$DIMCEN
 40
0.09
  9
$DIMTSZ
 40
0.0
  9
$DIMTOL
 70
     0
  9
$DIMLIM
 70
     0
  9
$DIMTIH
 70
     1
  9
$DIMTOH
 70
     1
  9
$DIMSE1
 70
     0
  9
$DIMSE2
 70
     0
  9
$DIMTAD
 70
     0
  9
$DIMZIN
 70
     0
  9
$DIMBLK
  1

  9
$LUNITS
 70
     2
  9
$LUPREC
 70
     4
  9
$AXISMODE
 70
     0
  9
$AXISUNIT
 10
0.0
 20
0.0
  9
$SKETCHINC
 40
0.1
  9
$FILLETRAD
 40
0.0
  9
$AUNITS
 70
     0
  9
$AUPREC
 70
     0
  9
$MENU
  1
ACAD
  9
$ELEVATION
 40
0.0
  9
$THICKNESS
 40
0.0
  9
$VIEWDIR
 10
0.0
 20
0.0
 30
1.0
  9
$LIMCHECK
 70
     0
  9
$BLIPMODE
 70
     1
  9
$CHAMFERA
 40
0.0
  9
$CHAMFERB
 40
0.0
  9
$FASTZOOM
 70
     1
  9
$SKPOLY
 70
     0
  9
$TDCREATE
 40
2456637.000000
  9
$TDUPDATE
 40
2456637.000000
  9
$TDINDWG
 40
0.0
  9
$TDUSRTIMER
 40
0.0
  9
$USRTIMER
 70
     1
  9
$ANGBASE
 50
0.0
  9
$ANGDIR
 70
     0
  9
$PDMODE
 70
     0
  9
$PDSIZE
 40
0.0
  9
$PLINEWID
 40
0.0
  9
$COORDS
 70
     0
  9
$USERI1
 70
     0
  9
$USERI2
 70
     0
  9
$USERI3
 70
     0
  9
$USERI4
 70
     0
  9
$USERI5
 70
     0
  9
$USERR1
 40
0.0
  9
$USERR2
 40
0.0
  9
$USERR3
 40
0.0
  9
$USERR4
 40
0.0
  9
$USERR5
 40
0.0
  0
ENDSEC
  0
SECTION
  2
TABLES
  0
TABLE
  2
LTYPE
 70
     9
  0
LTYPE
  2
CONTINUOUS
 70
    64
  3
Solid line
 72
    65
 73
     0
 40
0.0
  0
LTYPE
  2
DASHED
 70
    64
  3
__ __ __ __ __ __ __ __ __ __ __ __ __ __ __
 72
    65
 73
     2
 40
0.75
 49
0.5
 49
-0.25
  0
LTYPE
  2
HIDDEN
 70
    64
  3
_ _ _ _ _ _ _ _ _ _ _ _ _ _ _ _ _ _ _ _ _ _ _
 72
    65
 73
     2
 40
0.375
 49
0.25
 49
-0.125
  0
LTYPE
  2
DOT
 70
    64
  3
...............................................
 72
    65
 73
     2
 40
0.25
 49
0.0
 49
-0.25
  0
LTYPE
  2
DASHDOT
 70
    64
  3
__ . __ . __ . __ . __ . __ . __ . __ . __ . __
 72
    65
 73
     4
 40
1.0
 49
0.5
 49
-0.25
 49
0.0
 49
-0.25
  0
LTYPE
  2
DIVIDE
 70
    64
  3
__ . . __ . . __ . . __ . . __ . . __ . . __
 72
    65
 73
     6
 40
1.25
 49
0.5
 49
-0.25
 49
0.0
 49
-0.25
 49
0.0
 49
-0.25
  0
LTYPE
  2
CENTER
 70
    64
  3
____ _ ____ _ ____ _ ____ _ ____ _ ____ _ ____ 
 72
    65
 73
     4
 40
2.0
 49
1.25
 49
-0.25
 49
0.25
 49
-0.25
  0
LTYPE
  2
PHANTOM
 70
    64
  3
______  __  __  ______  __  __  ______  __  __ 
 72
    65
 73
     6
 40
2.5
 49
1.25
 49
-0.25
 49
0.25
 49
-0.25
 49
0.25
 49
-0.25
  0
LTYPE
  2
BORDER
 70
    64
  3
__ __ . __ __ . __ __ . __ __ . __ __ . __ __ .
 72
    65
 73
     6
 40
1.75
 49
0.5
 49
-0.25
 49
0.5
 49
-0.25
 49
0.0
 49
-0.25
  0
ENDTAB
  0
TABLE
  2
LAYER
 70
    16
  0
LAYER
  2
CSLAYER1
 70
    64
 62
     7
  6
CONTINUOUS
  0
LAYER
  2
CSLAYER2
 70
    64
 62
     7
  6
CONTINUOUS
  0
LAYER
  2
CSLAYER3
 70
    64
 62
     7
  6
CONTINUOUS
  0
LAYER
  2
CSLAYER4
 70
    64
 62
     7
  6
CONTINUOUS
  0
LAYER
  2
CSLAYER5
 70
    64
 62
     7
  6
CONTINUOUS
  0
LAYER
  2
CSLAYER6
 70
    64
 62
     7
  6
CONTINUOUS
  0
LAYER
  2
CSLAYER7
 70
    64
 62
     7
  6
CONTINUOUS
  0
LAYER
  2
CSLAYER8
 70
    64
 62
     7
  6
CONTINUOUS
  0
LAYER
  2
CSLAYER9
 70
    64
 62
     7
  6
CONTINUOUS
  0
LAYER
  2
CSLAYER10
 70
    64
 62
     7
  6
CONTINUOUS
  0
LAYER
  2
CSLAYER11
 70
    64
 62
     7
  6
CONTINUOUS
  0
LAYER
  2
CSLAYER12
 70
    64
 62
     7
  6
CONTINUOUS
  0
LAYER
  2
CSLAYER13
 70
    64
 62
     7
  6
CONTINUOUS
  0
LAYER
  2
CSLAYER14
 70
    64
 62
     7
  6
CONTINUOUS
  0
LAYER
  2
CSLAYER15
 70
    64
 62
     7
  6
CONTINUOUS
  0
LAYER
  2
CSLAYER16
 70
    64
 62
     7
  6
CONTINUOUS
  0
ENDTAB
  0
TABLE
  2
STYLE
 70
     1
  0
STYLE
  2
EASYDRAW_FONT
 70
     0
 40
1.0
 41
1.0
 50
0.0
 71
     0
 42
1.0
  3
monotxt
  4
bigfont
  0
ENDTAB
  0
TABLE
  2
VIEW
 70
     0
  0
ENDTAB
  0
ENDSEC
  0
SECTION
  2
BLOCKS
  0
BLOCK
  8
CSLAYER1
  2
BLKF0000
 70
   64
 10
0.0
 20
0.0
 30
0.0
  0
LINE
  8
CSLAYER1
  6
CONTINUOUS
 62
     7
 10
704.736107
 20
312.915152
 11
704.735147
 21
312.916281
  0
LINE
  8
CSLAYER1
  6
CONTINUOUS
 62
     7
 10
704.735147
 20
312.916281
 11
704.734029
 21
312.917304
  0
LINE
  8
CSLAYER1
  6
CONTINUOUS
 62
     7
 10
704.734029
 20
312.917304
 11
704.732769
 21
312.918199
  0
LINE
  8
CSLAYER1
  6
CONTINUOUS
 62
     7
 10
704.732769
 20
312.918199
 11
704.731404
 21
312.918949
  0
LINE
  8
CSLAYER1
  6
CONTINUOUS
 62
     7
 10
704.731404
 20
312.918949
 11
704.729949
 21
312.919544
  0
LINE
  8
CSLAYER1
  6
CONTINUOUS
 62
     7
 10
704.729949
 20
312.919544
 11
704.728442
 21
312.919976
  0
LINE
  8
CSLAYER1
  6
CONTINUOUS
 62
     7
 10
704.728442
 20
312.919976
 11
704.726904
 21
312.920246
  0
LINE
  8
CSLAYER1
  6
CONTINUOUS
 62
     7
 10
704.726904
 20
312.920246
 11
704.725037
 21
312.920361
  0
ENDBLK
  8
0
  0
BLOCK
  8
CSLAYER1
  2
BLKF0001
 70
   64
 10
0.0
 20
0.0
 30
0.0
  0
LINE
  8
CSLAYER1
  6
CONTINUOUS
 62
     7
 10
120.749999
 20
51.000000
 11
23.999999
 21
51.000000
  0
LINE
  8
CSLAYER1
  6
CONTINUOUS
 62
     7
 10
120.749999
 20
748.500000
 11
23.999999
 21
748.500000
  0
LINE
  8
CSLAYER1
  6
CONTINUOUS
 62
     7
 10
24.999999
 20
51.000000
 11
24.999999
 21
748.500000
  0
LINE
  8
CSLAYER1
  6
CONTINUOUS
 62
     7
 10
24.999999
 20
51.000000
 11
24.223542
 21
53.897778
  0
LINE
  8
CSLAYER1
  6
CONTINUOUS
 62
     7
 10
24.999999
 20
51.000000
 11
25.776457
 21
53.897778
  0
LINE
  8
CSLAYER1
  6
CONTINUOUS
 62
     7
 10
24.999999
 20
748.500000
 11
24.223542
 21
745.602223
  0
LINE
  8
CSLAYER1
  6
CONTINUOUS
 62
     7
 10
24.999999
 20
748.500000
 11
25.776457
 21
745.602223
  0
TEXT
  8
CSLAYER1
 62
     7
 10
24.000000
 20
395.250000
 40
4.000000
 41
0.843750
  1
930
 50
90.000000
 51
0.000000
  7
EASYDRAW_FONT
 72
     5
 11
24.000000
 21
404.250000
  0
ENDBLK
  8
0
  0
BLOCK
  8
CSLAYER1
  2
BLKF0002
 70
   64
 10
0.0
 20
0.0
 30
0.0
  0
LINE
  8
CSLAYER1
  6
CONTINUOUS
 62
     7
 10
330.999999
 20
35.000000
 11
330.999999
 21
20.000000
  0
LINE
  8
CSLAYER1
  6
CONTINUOUS
 62
     7
 10
694.749999
 20
132.625000
 11
694.749999
 21
20.000000
  0
LINE
  8
CSLAYER1
  6
CONTINUOUS
 62
     7
 10
330.999999
 20
21.000000
 11
694.749999
 21
21.000000
  0
LINE
  8
CSLAYER1
  6
CONTINUOUS
 62
     7
 10
330.999999
 20
21.000000
 11
333.897777
 21
21.776457
  0
LINE
  8
CSLAYER1
  6
CONTINUOUS
 62
     7
 10
330.999999
 20
21.000000
 11
333.897777
 21
20.223543
  0
LINE
  8
CSLAYER1
  6
CONTINUOUS
 62
     7
 10
694.749999
 20
21.000000
 11
691.852222
 21
21.776457
  0
LINE
  8
CSLAYER1
  6
CONTINUOUS
 62
     7
 10
694.749999
 20
21.000000
 11
691.852222
 21
20.223543
  0
TEXT
  8
CSLAYER1
 62
     7
 10
508.375000
 20
22.000000
 40
4.000000
 41
0.843750
  1
485
 50
0.000000
 51
0.000000
  7
EASYDRAW_FONT
 72
     5
 11
517.375000
 21
22.000000
  0
ENDBLK
  8
0
  0
BLOCK
  8
CSLAYER1
  2
BLKF0003
 70
   64
 10
0.0
 20
0.0
 30
0.0
  0
LINE
  8
CSLAYER1
  6
CONTINUOUS
 62
     7
 10
1330.999999
 20
51.000000
 11
1447.749999
 21
51.000000
  0
LINE
  8
CSLAYER1
  6
CONTINUOUS
 62
     7
 10
1168.999999
 20
308.625000
 11
1447.749999
 21
308.625000
  0
LINE
  8
CSLAYER1
  6
CONTINUOUS
 62
     7
 10
1446.749999
 20
51.000000
 11
1446.749999
 21
308.625000
  0
LINE
  8
CSLAYER1
  6
CONTINUOUS
 62
     7
 10
1446.749999
 20
51.000000
 11
1445.973542
 21
53.897778
  0
LINE
  8
CSLAYER1
  6
CONTINUOUS
 62
     7
 10
1446.749999
 20
51.000000
 11
1447.526457
 21
53.897778
  0
LINE
  8
CSLAYER1
  6
CONTINUOUS
 62
     7
 10
1446.749999
 20
308.625000
 11
1445.973542
 21
305.727223
  0
LINE
  8
CSLAYER1
  6
CONTINUOUS
 62
     7
 10
1446.749999
 20
308.625000
 11
1447.526457
 21
305.727223
  0
TEXT
  8
CSLAYER1
 62
     7
 10
1445.750000
 20
175.312515
 40
4.000000
 41
0.843750
  1
343
 50
90.000000
 51
0.000000
  7
EASYDRAW_FONT
 72
     5
 11
1445.750000
 21
184.312515
  0
ENDBLK
  8
0
  0
BLOCK
  8
CSLAYER1
  2
BLKF0004
 70
   64
 10
0.0
 20
0.0
 30
0.0
  0
LINE
  8
CSLAYER1
  6
CONTINUOUS
 62
     7
 10
1330.999999
 20
748.500000
 11
1447.749999
 21
748.500000
  0
LINE
  8
CSLAYER1
  6
CONTINUOUS
 62
     7
 10
1446.749999
 20
308.625000
 11
1446.749999
 21
748.500000
  0
LINE
  8
CSLAYER1
  6
CONTINUOUS
 62
     7
 10
1446.749999
 20
308.625000
 11
1445.973542
 21
311.522778
  0
LINE
  8
CSLAYER1
  6
CONTINUOUS
 62
     7
 10
1446.749999
 20
308.625000
 11
1447.526457
 21
311.522778
  0
LINE
  8
CSLAYER1
  6
CONTINUOUS
 62
     7
 10
1446.749999
 20
748.500000
 11
1445.973542
 21
745.602223
  0
LINE
  8
CSLAYER1
  6
CONTINUOUS
 62
     7
 10
1446.749999
 20
748.500000
 11
1447.526457
 21
745.602223
  0
TEXT
  8
CSLAYER1
 62
     7
 10
1445.750000
 20
524.062500
 40
4.000000
 41
0.843750
  1
587
 50
90.000000
 51
0.000000
  7
EASYDRAW_FONT
 72
     5
 11
1445.750000
 21
533.062500
  0
ENDBLK
  8
0
  0
ENDSEC
  0
SECTION
  2
ENTITIES
  0
LINE
  8
CSLAYER1
  6
CONTINUOUS
 62
     7
 10
330.999999
 20
301.500000
 11
55.749999
 21
301.500000
  0
LINE
  8
CSLAYER1
  6
CONTINUOUS
 62
     7
 10
54.999999
 20
300.750000
 11
54.999999
 21
276.750000
  0
LINE
  8
CSLAYER1
  6
CONTINUOUS
 62
     7
 10
56.499999
 20
275.250000
 11
330.999999
 21
275.250000
  0
LINE
  8
CSLAYER1
  6
CONTINUOUS
 62
     7
 10
123.999999
 20
228.000000
 11
330.999999
 21
228.000000
  0
LINE
  8
CSLAYER1
  6
CONTINUOUS
 62
     7
 10
164.499999
 20
216.000000
 11
164.499999
 21
82.125000
  0
LINE
  8
CSLAYER1
  6
CONTINUOUS
 62
     7
 10
330.999999
 20
78.750000
 11
122.499999
 21
78.750000
  0
ARC
  8
CSLAYER1
  6
CONTINUOUS
 62
     7
 10
152.499999
 20
216.000000
 40
12.000000
 50
0.000000
 51
90.000000
  0
ARC
  8
CSLAYER1
  6
CONTINUOUS
 62
     7
 10
161.124999
 20
82.125000
 40
3.375000
 50
270.000000
 51
360.000000
  0
ARC
  8
CSLAYER1
  6
CONTINUOUS
 62
     7
 10
123.999999
 20
254.250000
 40
26.250000
 50
180.000000
 51
270.000000
  0
LINE
  8
CSLAYER1
  6
CONTINUOUS
 62
     7
 10
55.749999
 20
301.500000
 11
54.999999
 21
300.750000
  0
LINE
  8
CSLAYER1
  6
CONTINUOUS
 62
     7
 10
54.999999
 20
276.750000
 11
56.499999
 21
275.250000
  0
LINE
  8
CSLAYER1
  6
CONTINUOUS
 62
     7
 10
120.999999
 20
77.250000
 11
120.999999
 21
51.750000
  0
LINE
  8
CSLAYER1
  6
CONTINUOUS
 62
     7
 10
121.749999
 20
51.000000
 11
330.999999
 21
51.000000
  0
LINE
  8
CSLAYER1
  6
CONTINUOUS
 62
     7
 10
122.499999
 20
78.750000
 11
120.999999
 21
77.250000
  0
LINE
  8
CSLAYER1
  6
CONTINUOUS
 62
     7
 10
120.999999
 20
51.750000
 11
121.749999
 21
51.000000
  0
LINE
  8
CSLAYER1
  6
CENTER
 62
     2
 10
139.749999
 20
90.000000
 11
139.749999
 21
42.000000
  0
LINE
  8
CSLAYER1
  6
CONTINUOUS
 62
     7
 10
54.999999
 20
561.000000
 11
54.999999
 21
585.000000
  0
LINE
  8
CSLAYER1
  6
CONTINUOUS
 62
     7
 10
55.749999
 20
585.750000
 11
330.999999
 21
585.750000
  0
LINE
  8
CSLAYER1
  6
CONTINUOUS
 62
     7
 10
54.999999
 20
327.750000
 11
54.999999
 21
303.750000
  0
LINE
  8
CSLAYER1
  6
CONTINUOUS
 62
     7
 10
55.749999
 20
303.000000
 11
330.999999
 21
303.000000
  0
LINE
  8
CSLAYER1
  6
CONTINUOUS
 62
     7
 10
98.499999
 20
303.000000
 11
98.499999
 21
301.500000
  0
LINE
  8
CSLAYER1
  6
CONTINUOUS
 62
     7
 10
56.499999
 20
559.500000
 11
330.999999
 21
559.500000
  0
LINE
  8
CSLAYER1
  6
CONTINUOUS
 62
     7
 10
98.124999
 20
538.500000
 11
98.124999
 21
340.500000
  0
LINE
  8
CSLAYER1
  6
CONTINUOUS
 62
     7
 10
56.499999
 20
329.250000
 11
330.999999
 21
329.250000
  0
LINE
  8
CSLAYER1
  6
CONTINUOUS
 62
     7
 10
56.499999
 20
559.500000
 11
54.999999
 21
561.000000
  0
LINE
  8
CSLAYER1
  6
CONTINUOUS
 62
     7
 10
56.499999
 20
329.250000
 11
54.999999
 21
327.750000
  0
LINE
  8
CSLAYER1
  6
CONTINUOUS
 62
     7
 10
55.749999
 20
585.750000
 11
54.999999
 21
585.000000
  0
LINE
  8
CSLAYER1
  6
CONTINUOUS
 62
     7
 10
54.999999
 20
303.750000
 11
55.749999
 21
303.000000
  0
LINE
  8
CSLAYER1
  6
CONTINUOUS
 62
     7
 10
330.999999
 20
748.500000
 11
121.749999
 21
748.500000
  0
LINE
  8
CSLAYER1
  6
CONTINUOUS
 62
     7
 10
120.999999
 20
747.750000
 11
120.999999
 21
722.250000
  0
LINE
  8
CSLAYER1
  6
CONTINUOUS
 62
     7
 10
122.499999
 20
720.750000
 11
330.999999
 21
720.750000
  0
LINE
  8
CSLAYER1
  6
CENTER
 62
     2
 10
143.499999
 20
757.500000
 11
143.499999
 21
709.500000
  0
LINE
  8
CSLAYER1
  6
CONTINUOUS
 62
     7
 10
54.999999
 20
612.000000
 11
54.999999
 21
588.000000
  0
LINE
  8
CSLAYER1
  6
CONTINUOUS
 62
     7
 10
55.749999
 20
587.250000
 11
330.999999
 21
587.250000
  0
LINE
  8
CSLAYER1
  6
CONTINUOUS
 62
     7
 10
98.499999
 20
587.250000
 11
98.499999
 21
585.750000
  0
LINE
  8
CSLAYER1
  6
CONTINUOUS
 62
     7
 10
164.499999
 20
717.375000
 11
164.499999
 21
672.000000
  0
LINE
  8
CSLAYER1
  6
CONTINUOUS
 62
     7
 10
56.499999
 20
613.500000
 11
330.999999
 21
613.500000
  0
LINE
  8
CSLAYER1
  6
CONTINUOUS
 62
     7
 10
96.999999
 20
624.750000
 11
96.999999
 21
633.750000
  0
LINE
  8
CSLAYER1
  6
CONTINUOUS
 62
     7
 10
123.249999
 20
660.000000
 11
330.999999
 21
660.000000
  0
LINE
  8
CSLAYER1
  6
CONTINUOUS
 62
     7
 10
54.999999
 20
588.000000
 11
55.749999
 21
587.250000
  0
LINE
  8
CSLAYER1
  6
CONTINUOUS
 62
     7
 10
120.999999
 20
722.250000
 11
122.499999
 21
720.750000
  0
LINE
  8
CSLAYER1
  6
CONTINUOUS
 62
     7
 10
56.499999
 20
613.500000
 11
54.999999
 21
612.000000
  0
ARC
  8
CSLAYER1
  6
CONTINUOUS
 62
     7
 10
161.124999
 20
717.375000
 40
3.375000
 50
0.000000
 51
90.000000
  0
ARC
  8
CSLAYER1
  6
CONTINUOUS
 62
     7
 10
152.499999
 20
672.000000
 40
12.000000
 50
270.000000
 51
360.000000
  0
ARC
  8
CSLAYER1
  6
CONTINUOUS
 62
     7
 10
123.249999
 20
633.750000
 40
26.250000
 50
90.000000
 51
180.000000
  0
LINE
  8
CSLAYER1
  6
CONTINUOUS
 62
     7
 10
563.874999
 20
538.500000
 11
563.874999
 21
444.375000
  0
LINE
  8
CSLAYER1
  6
CONTINUOUS
 62
     7
 10
563.874999
 20
444.375000
 11
563.874999
 21
340.500000
  0
LINE
  8
CSLAYER1
  6
CONTINUOUS
 62
     7
 10
569.874999
 20
415.125000
 11
580.000002
 21
415.125000
  0
LINE
  8
CSLAYER1
  6
CONTINUOUS
 62
     7
 10
595.749999
 20
444.375000
 11
595.749999
 21
387.000000
  0
LINE
  8
CSLAYER1
  6
CONTINUOUS
 62
     7
 10
596.499999
 20
386.250000
 11
610.749999
 21
386.250000
  0
LINE
  8
CSLAYER1
  6
CONTINUOUS
 62
     7
 10
610.749999
 20
386.250000
 11
612.249999
 21
387.750000
  0
ARC
  8
CSLAYER1
  6
CONTINUOUS
 62
     7
 10
569.874999
 20
409.125000
 40
6.000000
 50
90.000000
 51
180.000000
  0
LINE
  8
CSLAYER1
  6
CONTINUOUS
 62
     7
 10
569.874999
 20
473.625000
 11
580.000002
 21
473.625000
  0
LINE
  8
CSLAYER1
  6
CONTINUOUS
 62
     7
 10
595.749999
 20
444.375000
 11
595.749999
 21
501.750000
  0
LINE
  8
CSLAYER1
  6
CONTINUOUS
 62
     7
 10
596.499999
 20
502.500000
 11
610.749999
 21
502.500000
  0
LINE
  8
CSLAYER1
  6
CONTINUOUS
 62
     7
 10
610.749999
 20
502.500000
 11
612.249999
 21
501.000000
  0
ARC
  8
CSLAYER1
  6
CONTINUOUS
 62
     7
 10
569.874999
 20
479.625000
 40
6.000000
 50
180.000000
 51
270.000000
  0
ARC
  8
CSLAYER1
  6
CONTINUOUS
 62
     7
 10
596.499999
 20
387.000000
 40
0.750000
 50
180.000000
 51
270.000000
  0
ARC
  8
CSLAYER1
  6
CONTINUOUS
 62
     7
 10
596.499999
 20
501.750000
 40
0.750000
 50
90.000000
 51
180.000000
  0
LINE
  8
CSLAYER1
  6
CENTER
 62
     2
 10
548.874999
 20
444.375000
 11
719.749999
 21
444.375000
  0
LINE
  8
CSLAYER1
  6
CONTINUOUS
 62
     7
 10
497.499999
 20
216.000000
 11
497.499999
 21
174.000000
  0
ARC
  8
CSLAYER1
  6
CONTINUOUS
 62
     7
 10
509.499999
 20
216.000000
 40
12.000000
 50
90.000000
 51
180.000000
  0
LINE
  8
CSLAYER1
  6
CONTINUOUS
 62
     7
 10
504.999999
 20
144.750000
 11
551.500002
 21
144.750000
  0
LINE
  8
CSLAYER1
  6
CONTINUOUS
 62
     7
 10
567.249999
 20
174.000000
 11
567.249999
 21
116.250000
  0
LINE
  8
CSLAYER1
  6
CONTINUOUS
 62
     7
 10
567.624999
 20
115.875000
 11
582.249999
 21
115.875000
  0
LINE
  8
CSLAYER1
  6
CONTINUOUS
 62
     7
 10
497.499999
 20
174.000000
 11
497.499999
 21
82.125000
  0
LINE
  8
CSLAYER1
  6
CONTINUOUS
 62
     7
 10
583.749999
 20
117.375000
 11
582.249999
 21
115.875000
  0
ARC
  8
CSLAYER1
  6
CONTINUOUS
 62
     7
 10
567.624999
 20
116.250000
 40
0.375000
 50
180.000000
 51
270.000000
  0
ARC
  8
CSLAYER1
  6
CONTINUOUS
 62
     7
 10
504.999999
 20
137.250000
 40
7.500000
 50
90.000000
 51
180.000000
  0
LINE
  8
CSLAYER1
  6
CONTINUOUS
 62
     7
 10
504.999999
 20
203.250000
 11
551.500002
 21
203.250000
  0
LINE
  8
CSLAYER1
  6
CONTINUOUS
 62
     7
 10
567.249999
 20
174.000000
 11
567.249999
 21
231.750000
  0
LINE
  8
CSLAYER1
  6
CONTINUOUS
 62
     7
 10
567.624999
 20
232.125000
 11
582.249999
 21
232.125000
  0
LINE
  8
CSLAYER1
  6
CONTINUOUS
 62
     7
 10
583.749999
 20
230.625000
 11
582.249999
 21
232.125000
  0
ARC
  8
CSLAYER1
  6
CONTINUOUS
 62
     7
 10
567.624999
 20
231.750000
 40
0.375000
 50
90.000000
 51
180.000000
  0
ARC
  8
CSLAYER1
  6
CONTINUOUS
 62
     7
 10
504.999999
 20
210.750000
 40
7.500000
 50
180.000000
 51
270.000000
  0
LINE
  8
CSLAYER1
  6
CENTER
 62
     2
 10
480.999999
 20
174.000000
 11
719.749999
 21
174.000000
  0
LINE
  8
CSLAYER1
  6
CENTER
 62
     2
 10
330.999999
 20
763.500000
 11
330.999999
 21
36.000000
  0
LINE
  8
CSLAYER1
  6
CENTER
 62
     2
 10
642.999999
 20
476.194805
 11
577.000002
 21
476.194805
  0
LINE
  8
CSLAYER1
  6
CONTINUOUS
 62
     7
 10
612.249999
 20
502.500000
 11
612.249999
 21
386.250000
  0
LINE
  8
CSLAYER1
  6
CONTINUOUS
 62
     7
 10
613.749999
 20
502.500000
 11
612.249999
 21
502.500000
  0
LINE
  8
CSLAYER1
  6
CONTINUOUS
 62
     7
 10
613.749999
 20
386.250000
 11
612.249999
 21
386.250000
  0
LINE
  8
CSLAYER1
  6
CONTINUOUS
 62
     7
 10
613.749999
 20
386.250000
 11
613.749999
 21
502.500000
  0
LINE
  8
CSLAYER1
  6
CONTINUOUS
 62
     7
 10
583.749999
 20
232.125000
 11
583.749999
 21
115.875000
  0
LINE
  8
CSLAYER1
  6
CONTINUOUS
 62
     7
 10
585.249999
 20
232.125000
 11
583.749999
 21
232.125000
  0
LINE
  8
CSLAYER1
  6
CONTINUOUS
 62
     7
 10
585.249999
 20
115.875000
 11
585.249999
 21
232.125000
  0
LINE
  8
CSLAYER1
  6
CONTINUOUS
 62
     7
 10
585.249999
 20
115.875000
 11
583.749999
 21
115.875000
  0
LINE
  8
CSLAYER1
  6
CONTINUOUS
 62
     7
 10
615.249999
 20
502.125000
 11
615.249999
 21
386.625000
  0
LINE
  8
CSLAYER1
  6
CONTINUOUS
 62
     7
 10
615.624999
 20
386.250000
 11
627.249999
 21
386.250000
  0
LINE
  8
CSLAYER1
  6
CONTINUOUS
 62
     7
 10
628.749999
 20
387.750000
 11
628.749999
 21
501.000000
  0
LINE
  8
CSLAYER1
  6
CONTINUOUS
 62
     7
 10
627.249999
 20
502.500000
 11
615.624999
 21
502.500000
  0
LINE
  8
CSLAYER1
  6
CONTINUOUS
 62
     7
 10
615.249999
 20
480.375000
 11
613.749999
 21
480.375000
  0
LINE
  8
CSLAYER1
  6
CONTINUOUS
 62
     7
 10
613.749999
 20
480.375000
 11
613.749999
 21
408.375000
  0
LINE
  8
CSLAYER1
  6
CONTINUOUS
 62
     7
 10
613.749999
 20
408.375000
 11
615.249999
 21
408.375000
  0
LINE
  8
CSLAYER1
  6
CONTINUOUS
 62
     7
 10
635.499999
 20
465.895767
 11
635.499999
 21
422.854233
  0
ARC
  8
CSLAYER1
  6
CONTINUOUS
 62
     7
 10
627.249999
 20
501.000000
 40
1.500000
 50
0.000000
 51
90.000000
  0
ARC
  8
CSLAYER1
  6
CONTINUOUS
 62
     7
 10
627.249999
 20
387.750000
 40
1.500000
 50
270.000000
 51
360.000000
  0
LINE
  8
CSLAYER1
  6
CONTINUOUS
 62
     7
 10
615.624999
 20
502.500000
 11
615.249999
 21
502.125000
  0
LINE
  8
CSLAYER1
  6
CONTINUOUS
 62
     7
 10
615.249999
 20
386.625000
 11
615.624999
 21
386.250000
  0
LINE
  8
CSLAYER1
  6
CONTINUOUS
 62
     7
 10
668.874999
 20
401.625000
 11
720.624999
 21
401.625000
  0
LINE
  8
CSLAYER1
  6
CONTINUOUS
 62
     7
 10
651.999999
 20
470.250000
 11
651.999999
 21
418.500000
  0
LINE
  8
CSLAYER1
  6
CONTINUOUS
 62
     7
 10
651.999999
 20
418.500000
 11
661.374999
 21
418.500000
  0
LINE
  8
CSLAYER1
  6
CONTINUOUS
 62
     7
 10
668.874999
 20
411.000000
 11
668.874999
 21
401.625000
  0
LINE
  8
CSLAYER1
  6
CONTINUOUS
 62
     7
 10
651.999999
 20
470.250000
 11
671.874999
 21
470.250000
  0
LINE
  8
CSLAYER1
  6
CONTINUOUS
 62
     7
 10
720.624999
 20
421.500000
 11
720.624999
 21
401.625000
  0
ARC
  8
CSLAYER1
  6
CONTINUOUS
 62
     7
 10
661.374999
 20
411.000000
 40
7.500000
 50
0.000000
 51
90.000000
  0
ARC
  8
CSLAYER1
  6
CONTINUOUS
 62
     7
 10
671.874999
 20
421.500000
 40
48.750000
 50
0.000000
 51
90.000000
  0
LINE
  8
CSLAYER1
  6
CENTER
 62
     2
 10
694.749999
 20
483.625000
 11
694.749999
 21
133.625000
  0
LINE
  8
CSLAYER1
  6
CONTINUOUS
 62
     7
 10
668.874999
 20
216.750000
 11
720.624999
 21
216.750000
  0
LINE
  8
CSLAYER1
  6
CONTINUOUS
 62
     7
 10
651.999999
 20
148.125000
 11
651.999999
 21
199.875000
  0
LINE
  8
CSLAYER1
  6
CONTINUOUS
 62
     7
 10
651.999999
 20
199.875000
 11
661.374999
 21
199.875000
  0
LINE
  8
CSLAYER1
  6
CONTINUOUS
 62
     7
 10
668.874999
 20
207.375000
 11
668.874999
 21
216.750000
  0
LINE
  8
CSLAYER1
  6
CONTINUOUS
 62
     7
 10
651.999999
 20
148.125000
 11
671.874999
 21
148.125000
  0
LINE
  8
CSLAYER1
  6
CONTINUOUS
 62
     7
 10
720.624999
 20
196.875000
 11
720.624999
 21
216.750000
  0
ARC
  8
CSLAYER1
  6
CONTINUOUS
 62
     7
 10
661.374999
 20
207.375000
 40
7.500000
 50
270.000000
 51
360.000000
  0
ARC
  8
CSLAYER1
  6
CONTINUOUS
 62
     7
 10
671.874999
 20
196.875000
 40
48.750000
 50
270.000000
 51
360.000000
  0
LINE
  8
CSLAYER1
  6
CONTINUOUS
 62
     7
 10
586.749999
 20
231.750000
 11
586.749999
 21
116.250000
  0
LINE
  8
CSLAYER1
  6
CONTINUOUS
 62
     7
 10
587.124999
 20
115.875000
 11
598.749999
 21
115.875000
  0
LINE
  8
CSLAYER1
  6
CONTINUOUS
 62
     7
 10
600.249999
 20
117.375000
 11
600.249999
 21
230.625000
  0
LINE
  8
CSLAYER1
  6
CONTINUOUS
 62
     7
 10
598.749999
 20
232.125000
 11
587.124999
 21
232.125000
  0
LINE
  8
CSLAYER1
  6
CONTINUOUS
 62
     7
 10
586.749999
 20
210.000000
 11
585.249999
 21
210.000000
  0
LINE
  8
CSLAYER1
  6
CONTINUOUS
 62
     7
 10
585.249999
 20
210.000000
 11
585.249999
 21
138.000000
  0
LINE
  8
CSLAYER1
  6
CONTINUOUS
 62
     7
 10
585.249999
 20
138.000000
 11
586.749999
 21
138.000000
  0
LINE
  8
CSLAYER1
  6
CONTINUOUS
 62
     7
 10
606.999999
 20
195.520767
 11
606.999999
 21
152.479233
  0
ARC
  8
CSLAYER1
  6
CONTINUOUS
 62
     7
 10
598.749999
 20
230.625000
 40
1.500000
 50
0.000000
 51
90.000000
  0
ARC
  8
CSLAYER1
  6
CONTINUOUS
 62
     7
 10
598.749999
 20
117.375000
 40
1.500000
 50
270.000000
 51
360.000000
  0
LINE
  8
CSLAYER1
  6
CONTINUOUS
 62
     7
 10
587.124999
 20
232.125000
 11
586.749999
 21
231.750000
  0
LINE
  8
CSLAYER1
  6
CONTINUOUS
 62
     7
 10
586.749999
 20
116.250000
 11
587.124999
 21
115.875000
  0
LINE
  8
CSLAYER1
  6
CONTINUOUS
 62
     7
 10
672.394749
 20
366.660000
 11
673.486251
 21
361.125000
  0
LINE
  8
CSLAYER1
  6
CONTINUOUS
 62
     7
 10
672.394749
 20
401.625000
 11
672.394749
 21
361.125000
  0
LINE
  8
CSLAYER1
  6
CONTINUOUS
 62
     7
 10
672.394749
 20
396.090000
 11
673.486251
 21
401.625000
  0
LINE
  8
CSLAYER1
  6
CONTINUOUS
 62
     7
 10
717.105249
 20
366.660000
 11
716.013747
 21
361.125000
  0
LINE
  8
CSLAYER1
  6
CONTINUOUS
 62
     7
 10
717.105249
 20
401.625000
 11
717.105249
 21
361.125000
  0
LINE
  8
CSLAYER1
  6
CONTINUOUS
 62
     7
 10
717.105249
 20
396.090000
 11
716.013747
 21
401.625000
  0
LINE
  8
CSLAYER1
  6
CONTINUOUS
 62
     7
 10
672.394749
 20
222.285000
 11
673.486251
 21
216.750000
  0
LINE
  8
CSLAYER1
  6
CONTINUOUS
 62
     7
 10
672.394749
 20
256.125000
 11
672.394749
 21
216.750000
  0
LINE
  8
CSLAYER1
  6
CONTINUOUS
 62
     7
 10
672.394749
 20
250.590000
 11
673.486251
 21
256.125000
  0
LINE
  8
CSLAYER1
  6
CONTINUOUS
 62
     7
 10
717.105249
 20
222.285000
 11
716.013747
 21
216.750000
  0
LINE
  8
CSLAYER1
  6
CONTINUOUS
 62
     7
 10
717.105249
 20
256.125000
 11
717.105249
 21
216.750000
  0
LINE
  8
CSLAYER1
  6
CONTINUOUS
 62
     7
 10
717.105249
 20
250.590000
 11
716.013747
 21
256.125000
  0
LINE
  8
CSLAYER1
  6
CONTINUOUS
 62
     7
 10
646.464999
 20
422.019750
 11
651.999999
 21
423.111252
  0
LINE
  8
CSLAYER1
  6
CONTINUOUS
 62
     7
 10
635.981788
 20
422.019750
 11
651.999999
 21
422.019750
  0
LINE
  8
CSLAYER1
  6
CONTINUOUS
 62
     7
 10
641.034999
 20
422.019750
 11
635.499999
 21
423.111252
  0
LINE
  8
CSLAYER1
  6
CONTINUOUS
 62
     7
 10
646.464999
 20
466.730250
 11
651.999999
 21
465.638748
  0
LINE
  8
CSLAYER1
  6
CONTINUOUS
 62
     7
 10
635.981788
 20
466.730250
 11
651.999999
 21
466.730250
  0
LINE
  8
CSLAYER1
  6
CONTINUOUS
 62
     7
 10
641.034999
 20
466.730250
 11
635.499999
 21
465.638748
  0
LINE
  8
CSLAYER1
  6
CONTINUOUS
 62
     7
 10
646.464999
 20
151.644750
 11
651.999999
 21
152.736252
  0
LINE
  8
CSLAYER1
  6
CONTINUOUS
 62
     7
 10
607.481788
 20
151.644750
 11
651.999999
 21
151.644750
  0
LINE
  8
CSLAYER1
  6
CONTINUOUS
 62
     7
 10
612.534999
 20
151.644750
 11
606.999999
 21
152.736252
  0
LINE
  8
CSLAYER1
  6
CONTINUOUS
 62
     7
 10
646.464999
 20
196.355250
 11
651.999999
 21
195.263748
  0
LINE
  8
CSLAYER1
  6
CONTINUOUS
 62
     7
 10
607.481788
 20
196.355250
 11
651.999999
 21
196.355250
  0
LINE
  8
CSLAYER1
  6
CONTINUOUS
 62
     7
 10
612.534999
 20
196.355250
 11
606.999999
 21
195.263748
  0
LINE
  8
CSLAYER1
  6
CONTINUOUS
 62
     7
 10
636.249999
 20
467.194805
 11
635.448926
 21
465.807305
  0
LINE
  8
CSLAYER1
  6
CONTINUOUS
 62
     7
 10
636.249999
 20
485.194805
 11
635.448926
 21
486.582305
  0
LINE
  8
CSLAYER1
  6
CONTINUOUS
 62
     7
 10
635.448926
 20
486.582305
 11
628.749999
 21
486.582305
  0
LINE
  8
CSLAYER1
  6
CONTINUOUS
 62
     7
 10
628.749999
 20
486.582305
 11
628.749999
 21
465.694805
  0
LINE
  8
CSLAYER1
  6
CONTINUOUS
 62
     7
 10
628.749999
 20
465.807305
 11
635.448926
 21
465.807305
  0
LINE
  8
CSLAYER1
  6
CONTINUOUS
 62
     7
 10
636.249999
 20
467.194805
 11
636.249999
 21
485.194805
  0
ARC
  8
CSLAYER1
  6
CONTINUOUS
 62
     7
 10
631.640261
 20
468.404180
 40
4.609738
 50
-34.287473
 51
34.287473
  0
ARC
  8
CSLAYER1
  6
CONTINUOUS
 62
     7
 10
619.012656
 20
476.194805
 40
17.237343
 50
-17.536184
 51
17.536184
  0
ARC
  8
CSLAYER1
  6
CONTINUOUS
 62
     7
 10
631.640261
 20
483.985430
 40
4.609738
 50
-34.287473
 51
34.287473
  0
LINE
  8
CSLAYER1
  6
CONTINUOUS
 62
     7
 10
635.448926
 20
471.001055
 11
628.749999
 21
471.001055
  0
LINE
  8
CSLAYER1
  6
CONTINUOUS
 62
     7
 10
635.448926
 20
481.388555
 11
628.749999
 21
481.388555
  0
LINE
  8
CSLAYER1
  6
CONTINUOUS
 62
     7
 10
580.900002
 20
482.194808
 11
586.000002
 21
482.194808
  0
LINE
  8
CSLAYER1
  6
CONTINUOUS
 62
     7
 10
580.000002
 20
471.094808
 11
580.000002
 21
481.294808
  0
LINE
  8
CSLAYER1
  6
CONTINUOUS
 62
     7
 10
580.900002
 20
482.194808
 11
580.000002
 21
481.294808
  0
LINE
  8
CSLAYER1
  6
CONTINUOUS
 62
     7
 10
580.900002
 20
470.194808
 11
580.000002
 21
471.094808
  0
LINE
  8
CSLAYER1
  6
CONTINUOUS
 62
     7
 10
580.900002
 20
482.194808
 11
580.900002
 21
470.194808
  0
LINE
  8
CSLAYER1
  6
CONTINUOUS
 62
     7
 10
595.750002
 20
465.802497
 11
595.749997
 21
486.582308
  0
LINE
  8
CSLAYER1
  6
CONTINUOUS
 62
     7
 10
595.750002
 20
465.802497
 11
586.803853
 21
465.802497
  0
LINE
  8
CSLAYER1
  6
CONTINUOUS
 62
     7
 10
586.000002
 20
467.194808
 11
586.000002
 21
485.194808
  0
LINE
  8
CSLAYER1
  6
CONTINUOUS
 62
     7
 10
595.749997
 20
486.582308
 11
586.801076
 21
486.582308
  0
LINE
  8
CSLAYER1
  6
CONTINUOUS
 62
     7
 10
586.000002
 20
485.194808
 11
586.801076
 21
486.582308
  0
LINE
  8
CSLAYER1
  6
CONTINUOUS
 62
     7
 10
586.000002
 20
467.194808
 11
586.801076
 21
465.807308
  0
ARC
  8
CSLAYER1
  6
CONTINUOUS
 62
     7
 10
589.404345
 20
484.388558
 40
3.404343
 50
139.879485
 51
220.120515
  0
ARC
  8
CSLAYER1
  6
CONTINUOUS
 62
     7
 10
608.870387
 20
476.194808
 40
22.870385
 50
164.790570
 51
195.209430
  0
ARC
  8
CSLAYER1
  6
CONTINUOUS
 62
     7
 10
589.404345
 20
468.001058
 40
3.404343
 50
139.879485
 51
220.120515
  0
LINE
  8
CSLAYER1
  6
CONTINUOUS
 62
     7
 10
586.801076
 20
482.194808
 11
595.749998
 21
482.194808
  0
LINE
  8
CSLAYER1
  6
CONTINUOUS
 62
     7
 10
586.801076
 20
470.194808
 11
595.750001
 21
470.194808
  0
LINE
  8
CSLAYER1
  6
CONTINUOUS
 62
     7
 10
586.000002
 20
481.381058
 11
580.086252
 21
481.381058
  0
LINE
  8
CSLAYER1
  6
CONTINUOUS
 62
     7
 10
586.000002
 20
471.008558
 11
580.086252
 21
471.008558
  0
LINE
  8
CSLAYER1
  6
CONTINUOUS
 62
     7
 10
586.000002
 20
470.194808
 11
580.900002
 21
470.194808
  0
LINE
  8
CSLAYER1
  6
CONTINUOUS
 62
     7
 10
121.749999
 20
748.500000
 11
120.999999
 21
747.750000
  0
LINE
  8
CSLAYER1
  6
CONTINUOUS
 62
     7
 10
330.999999
 20
78.750000
 11
539.499999
 21
78.750000
  0
ARC
  8
CSLAYER1
  6
CONTINUOUS
 62
     7
 10
500.874999
 20
82.125000
 40
3.375000
 50
180.000000
 51
270.000000
  0
LINE
  8
CSLAYER1
  6
CONTINUOUS
 62
     7
 10
540.999999
 20
77.250000
 11
540.999999
 21
51.750000
  0
LINE
  8
CSLAYER1
  6
CONTINUOUS
 62
     7
 10
540.249999
 20
51.000000
 11
330.999999
 21
51.000000
  0
LINE
  8
CSLAYER1
  6
CONTINUOUS
 62
     7
 10
539.499999
 20
78.750000
 11
540.999999
 21
77.250000
  0
LINE
  8
CSLAYER1
  6
CONTINUOUS
 62
     7
 10
540.999999
 20
51.750000
 11
540.249999
 21
51.000000
  0
LINE
  8
CSLAYER1
  6
CENTER
 62
     2
 10
522.249999
 20
90.000000
 11
522.249999
 21
42.000000
  0
LINE
  8
CSLAYER1
  6
CONTINUOUS
 62
     7
 10
606.999999
 20
561.000000
 11
606.999999
 21
585.000000
  0
LINE
  8
CSLAYER1
  6
CONTINUOUS
 62
     7
 10
606.249999
 20
585.750000
 11
330.999999
 21
585.750000
  0
LINE
  8
CSLAYER1
  6
CONTINUOUS
 62
     7
 10
605.499999
 20
559.500000
 11
330.999999
 21
559.500000
  0
LINE
  8
CSLAYER1
  6
CONTINUOUS
 62
     7
 10
605.499999
 20
559.500000
 11
606.999999
 21
561.000000
  0
LINE
  8
CSLAYER1
  6
CONTINUOUS
 62
     7
 10
606.249999
 20
585.750000
 11
606.999999
 21
585.000000
  0
LINE
  8
CSLAYER1
  6
CONTINUOUS
 62
     7
 10
330.999999
 20
748.500000
 11
540.249999
 21
748.500000
  0
LINE
  8
CSLAYER1
  6
CONTINUOUS
 62
     7
 10
540.999999
 20
747.750000
 11
540.999999
 21
722.250000
  0
LINE
  8
CSLAYER1
  6
CONTINUOUS
 62
     7
 10
539.499999
 20
720.750000
 11
330.999999
 21
720.750000
  0
LINE
  8
CSLAYER1
  6
CENTER
 62
     2
 10
518.499999
 20
757.500000
 11
518.499999
 21
709.500000
  0
LINE
  8
CSLAYER1
  6
CONTINUOUS
 62
     7
 10
606.999999
 20
612.000000
 11
606.999999
 21
588.000000
  0
LINE
  8
CSLAYER1
  6
CONTINUOUS
 62
     7
 10
606.249999
 20
587.250000
 11
330.999999
 21
587.250000
  0
LINE
  8
CSLAYER1
  6
CONTINUOUS
 62
     7
 10
563.499999
 20
587.250000
 11
563.499999
 21
585.750000
  0
LINE
  8
CSLAYER1
  6
CONTINUOUS
 62
     7
 10
497.499999
 20
717.375000
 11
497.499999
 21
672.000000
  0
LINE
  8
CSLAYER1
  6
CONTINUOUS
 62
     7
 10
605.499999
 20
613.500000
 11
330.999999
 21
613.500000
  0
LINE
  8
CSLAYER1
  6
CONTINUOUS
 62
     7
 10
538.749999
 20
660.000000
 11
330.999999
 21
660.000000
  0
LINE
  8
CSLAYER1
  6
CONTINUOUS
 62
     7
 10
606.999999
 20
588.000000
 11
606.249999
 21
587.250000
  0
LINE
  8
CSLAYER1
  6
CONTINUOUS
 62
     7
 10
540.999999
 20
722.250000
 11
539.499999
 21
720.750000
  0
LINE
  8
CSLAYER1
  6
CONTINUOUS
 62
     7
 10
605.499999
 20
613.500000
 11
606.999999
 21
612.000000
  0
ARC
  8
CSLAYER1
  6
CONTINUOUS
 62
     7
 10
500.874999
 20
717.375000
 40
3.375000
 50
90.000000
 51
180.000000
  0
ARC
  8
CSLAYER1
  6
CONTINUOUS
 62
     7
 10
509.499999
 20
672.000000
 40
12.000000
 50
180.000000
 51
270.000000
  0
ARC
  8
CSLAYER1
  6
CONTINUOUS
 62
     7
 10
538.749999
 20
633.750000
 40
26.250000
 50
0.000000
 51
90.000000
  0
LINE
  8
CSLAYER1
  6
CONTINUOUS
 62
     7
 10
540.249999
 20
748.500000
 11
540.999999
 21
747.750000
  0
LINE
  8
CSLAYER1
  6
CONTINUOUS
 62
     7
 10
330.999999
 20
301.500000
 11
606.249999
 21
301.500000
  0
LINE
  8
CSLAYER1
  6
CONTINUOUS
 62
     7
 10
606.999999
 20
300.750000
 11
606.999999
 21
276.750000
  0
LINE
  8
CSLAYER1
  6
CONTINUOUS
 62
     7
 10
605.499999
 20
275.250000
 11
330.999999
 21
275.250000
  0
LINE
  8
CSLAYER1
  6
CONTINUOUS
 62
     7
 10
606.249999
 20
301.500000
 11
606.999999
 21
300.750000
  0
LINE
  8
CSLAYER1
  6
CONTINUOUS
 62
     7
 10
606.999999
 20
276.750000
 11
605.499999
 21
275.250000
  0
LINE
  8
CSLAYER1
  6
CONTINUOUS
 62
     7
 10
606.999999
 20
327.750000
 11
606.999999
 21
303.750000
  0
LINE
  8
CSLAYER1
  6
CONTINUOUS
 62
     7
 10
606.249999
 20
303.000000
 11
330.999999
 21
303.000000
  0
LINE
  8
CSLAYER1
  6
CONTINUOUS
 62
     7
 10
563.499999
 20
303.000000
 11
563.499999
 21
301.500000
  0
LINE
  8
CSLAYER1
  6
CONTINUOUS
 62
     7
 10
605.499999
 20
329.250000
 11
330.999999
 21
329.250000
  0
LINE
  8
CSLAYER1
  6
CONTINUOUS
 62
     7
 10
605.499999
 20
329.250000
 11
606.999999
 21
327.750000
  0
LINE
  8
CSLAYER1
  6
CONTINUOUS
 62
     7
 10
606.999999
 20
303.750000
 11
606.249999
 21
303.000000
  0
ARC
  8
CSLAYER1
  6
CONTINUOUS
 62
     7
 10
567.249999
 20
332.625000
 40
3.375000
 50
180.000000
 51
270.000000
  0
ARC
  8
CSLAYER1
  6
CONTINUOUS
 62
     7
 10
537.999999
 20
254.250000
 40
26.250000
 50
270.000000
 51
360.000000
  0
LINE
  8
CSLAYER1
  6
CONTINUOUS
 62
     7
 10
537.999999
 20
228.000000
 11
330.999999
 21
228.000000
  0
LINE
  8
CSLAYER1
  6
CENTER
 62
     7
 10
749.124999
 20
308.625000
 11
640.374917
 21
308.625000
  0
LINE
  8
CSLAYER1
  6
CONTINUOUS
 62
     7
 10
701.124999
 20
268.974472
 11
701.124999
 21
266.428860
  0
LINE
  8
CSLAYER1
  6
CONTINUOUS
 62
     7
 10
712.898334
 20
272.799852
 11
714.394629
 21
270.740388
  0
LINE
  8
CSLAYER1
  6
CONTINUOUS
 62
     7
 10
723.213354
 20
280.294104
 11
724.709619
 21
278.234662
  0
LINE
  8
CSLAYER1
  6
CONTINUOUS
 62
     7
 10
730.489442
 20
290.309338
 11
732.910389
 21
289.522725
  0
LINE
  8
CSLAYER1
  6
CONTINUOUS
 62
     7
 10
734.429477
 20
302.435471
 11
736.850409
 21
301.648859
  0
LINE
  8
CSLAYER1
  6
CONTINUOUS
 62
     7
 10
734.429477
 20
314.814519
 11
736.850409
 21
315.601131
  0
LINE
  8
CSLAYER1
  6
CONTINUOUS
 62
     7
 10
730.489464
 20
326.940653
 11
732.910389
 21
327.727266
  0
LINE
  8
CSLAYER1
  6
CONTINUOUS
 62
     7
 10
723.213354
 20
336.955885
 11
724.709574
 21
339.015267
  0
LINE
  8
CSLAYER1
  6
CONTINUOUS
 62
     7
 10
712.898357
 20
344.450163
 11
714.394584
 21
346.509542
  0
LINE
  8
CSLAYER1
  6
CONTINUOUS
 62
     7
 10
701.124999
 20
348.275508
 11
701.124999
 21
350.821041
  0
LINE
  8
CSLAYER1
  6
CONTINUOUS
 62
     7
 10
688.374999
 20
348.275508
 11
688.374999
 21
350.821041
  0
LINE
  8
CSLAYER1
  6
CONTINUOUS
 62
     7
 10
676.601387
 20
344.449989
 11
675.105137
 21
346.509367
  0
LINE
  8
CSLAYER1
  6
CONTINUOUS
 62
     7
 10
666.286449
 20
336.955754
 11
664.790214
 21
339.015132
  0
LINE
  8
CSLAYER1
  6
CONTINUOUS
 62
     7
 10
659.010062
 20
326.940721
 11
656.589114
 21
327.727334
  0
LINE
  8
CSLAYER1
  6
CONTINUOUS
 62
     7
 10
655.070072
 20
314.814664
 11
652.649117
 21
315.601276
  0
LINE
  8
CSLAYER1
  6
CONTINUOUS
 62
     7
 10
655.070049
 20
302.435402
 11
652.649109
 21
301.648789
  0
LINE
  8
CSLAYER1
  6
CONTINUOUS
 62
     7
 10
659.010039
 20
290.309345
 11
656.589099
 21
289.522731
  0
LINE
  8
CSLAYER1
  6
CONTINUOUS
 62
     7
 10
666.286389
 20
280.294287
 11
664.790169
 21
278.234908
  0
LINE
  8
CSLAYER1
  6
CONTINUOUS
 62
     7
 10
676.601387
 20
272.800012
 11
675.105137
 21
270.740634
  0
LINE
  8
CSLAYER1
  6
CONTINUOUS
 62
     7
 10
688.374999
 20
268.974486
 11
688.374999
 21
266.428954
  0
LINE
  8
CSLAYER1
  6
CONTINUOUS
 62
     7
 10
701.206179
 20
297.197620
 11
699.871232
 21
275.816967
  0
LINE
  8
CSLAYER1
  6
CONTINUOUS
 62
     7
 10
688.293977
 20
297.197664
 11
689.628924
 21
275.816921
  0
LINE
  8
CSLAYER1
  6
CONTINUOUS
 62
     7
 10
706.177494
 20
315.081037
 11
727.557917
 21
313.746097
  0
LINE
  8
CSLAYER1
  6
CONTINUOUS
 62
     7
 10
706.177517
 20
302.168895
 11
727.557917
 21
303.503835
  0
LINE
  8
CSLAYER1
  6
CONTINUOUS
 62
     7
 10
688.293977
 20
320.052360
 11
689.628924
 21
341.433080
  0
LINE
  8
CSLAYER1
  6
CONTINUOUS
 62
     7
 10
701.206179
 20
320.052404
 11
699.871232
 21
341.433034
  0
LINE
  8
CSLAYER1
  6
CONTINUOUS
 62
     7
 10
683.322639
 20
302.168850
 11
661.941789
 21
303.503816
  0
LINE
  8
CSLAYER1
  6
CONTINUOUS
 62
     7
 10
683.322662
 20
315.081081
 11
661.941804
 21
313.746114
  0
LINE
  8
CSLAYER1
  6
CONTINUOUS
 62
     7
 10
688.749999
 20
312.089102
 11
688.749999
 21
305.160899
  0
LINE
  8
CSLAYER1
  6
CONTINUOUS
 62
     7
 10
700.749999
 20
312.089102
 11
700.749999
 21
305.160899
  0
LINE
  8
CSLAYER1
  6
CONTINUOUS
 62
     7
 10
688.750224
 20
305.160726
 11
694.750247
 21
301.696611
  0
LINE
  8
CSLAYER1
  6
CONTINUOUS
 62
     7
 10
694.750224
 20
315.553030
 11
700.750247
 21
312.088916
  0
LINE
  8
CSLAYER1
  6
CONTINUOUS
 62
     7
 10
694.750224
 20
301.696970
 11
700.750247
 21
305.161085
  0
LINE
  8
CSLAYER1
  6
CONTINUOUS
 62
     7
 10
688.750224
 20
312.089275
 11
694.750247
 21
315.553390
  0
LINE
  8
CSLAYER1
  6
CONTINUOUS
 62
     7
 10
708.999999
 20
302.345113
 11
708.999999
 21
300.397759
  0
LINE
  8
CSLAYER1
  6
CONTINUOUS
 62
     7
 10
709.000247
 20
300.397907
 11
701.121954
 21
295.849367
  0
LINE
  8
CSLAYER1
  6
CONTINUOUS
 62
     7
 10
680.499999
 20
302.345113
 11
680.499999
 21
300.397759
  0
LINE
  8
CSLAYER1
  6
CONTINUOUS
 62
     7
 10
680.500044
 20
300.397734
 11
688.378404
 21
295.849158
  0
LINE
  8
CSLAYER1
  6
CONTINUOUS
 62
     7
 10
708.999999
 20
314.904888
 11
708.999999
 21
316.852242
  0
LINE
  8
CSLAYER1
  6
CONTINUOUS
 62
     7
 10
709.000247
 20
316.852094
 11
701.121954
 21
321.400634
  0
LINE
  8
CSLAYER1
  6
CONTINUOUS
 62
     7
 10
680.499999
 20
314.904888
 11
680.499999
 21
316.852242
  0
LINE
  8
CSLAYER1
  6
CONTINUOUS
 62
     7
 10
680.500044
 20
316.852267
 11
688.378404
 21
321.400842
  0
LINE
  8
CSLAYER1
  6
CONTINUOUS
 62
     7
 10
722.499999
 20
256.125000
 11
666.999999
 21
256.125000
  0
LINE
  8
CSLAYER1
  6
CONTINUOUS
 62
     7
 10
666.999999
 20
266.629303
 11
666.999999
 21
256.125000
  0
LINE
  8
CSLAYER1
  6
CONTINUOUS
 62
     7
 10
666.999999
 20
350.620698
 11
666.999999
 21
361.125000
  0
LINE
  8
CSLAYER1
  6
CONTINUOUS
 62
     7
 10
722.499999
 20
266.629303
 11
722.499999
 21
256.125000
  0
LINE
  8
CSLAYER1
  6
CONTINUOUS
 62
     7
 10
722.499999
 20
350.620698
 11
722.499999
 21
361.125000
  0
LINE
  8
CSLAYER1
  6
CONTINUOUS
 62
     7
 10
677.499999
 20
302.532402
 11
677.499999
 21
298.665708
  0
LINE
  8
CSLAYER1
  6
CONTINUOUS
 62
     7
 10
677.499932
 20
298.665746
 11
688.602437
 21
292.255704
  0
LINE
  8
CSLAYER1
  6
CONTINUOUS
 62
     7
 10
677.499999
 20
314.717599
 11
677.499999
 21
318.584293
  0
LINE
  8
CSLAYER1
  6
CONTINUOUS
 62
     7
 10
677.499932
 20
318.584255
 11
688.602437
 21
324.994297
  0
LINE
  8
CSLAYER1
  6
CONTINUOUS
 62
     7
 10
711.999999
 20
302.532402
 11
711.999999
 21
298.665708
  0
LINE
  8
CSLAYER1
  6
CONTINUOUS
 62
     7
 10
712.000202
 20
298.665828
 11
700.897742
 21
292.255821
  0
LINE
  8
CSLAYER1
  6
CONTINUOUS
 62
     7
 10
711.999999
 20
314.717599
 11
711.999999
 21
318.584293
  0
LINE
  8
CSLAYER1
  6
CONTINUOUS
 62
     7
 10
712.000202
 20
318.584172
 11
700.897742
 21
324.994180
  0
LINE
  8
CSLAYER1
  6
CONTINUOUS
 62
     7
 10
722.499999
 20
361.125000
 11
666.999999
 21
361.125000
  0
LINE
  8
CSLAYER1
  6
CONTINUOUS
 62
     7
 10
694.749999
 20
361.125000
 11
694.749999
 21
359.250024
  0
LINE
  8
CSLAYER1
  6
CONTINUOUS
 62
     7
 10
694.749999
 20
258.000000
 11
694.749999
 21
256.125000
  0
LINE
  8
CSLAYER1
  6
CONTINUOUS
 62
     7
 10
688.339839
 20
269.296406
 11
678.184449
 21
269.296406
  0
LINE
  8
CSLAYER1
  6
CONTINUOUS
 62
     7
 10
701.160152
 20
269.296406
 11
711.315549
 21
269.296406
  0
LINE
  8
CSLAYER1
  6
CONTINUOUS
 62
     7
 10
688.339839
 20
347.953595
 11
678.184449
 21
347.953595
  0
LINE
  8
CSLAYER1
  6
CONTINUOUS
 62
     7
 10
701.160152
 20
347.953595
 11
711.315549
 21
347.953595
  0
LINE
  8
CSLAYER1
  6
CONTINUOUS
 62
     7
 10
705.728454
 20
313.546875
 11
703.721432
 21
313.546875
  0
LINE
  8
CSLAYER1
  6
CONTINUOUS
 62
     7
 10
705.728454
 20
312.928876
 11
703.721432
 21
312.928876
  0
LINE
  8
CSLAYER1
  6
CONTINUOUS
 62
     7
 10
704.714207
 20
312.915550
 11
703.511934
 21
311.436377
  0
LINE
  8
CSLAYER1
  6
CONTINUOUS
 62
     7
 10
704.735724
 20
312.915558
 11
705.973172
 21
311.393082
  0
LINE
  8
CSLAYER1
  6
CONTINUOUS
 62
     7
 10
704.944787
 20
312.117323
 11
704.041502
 21
311.005969
  0
LINE
  8
CSLAYER1
  6
CONTINUOUS
 62
     7
 10
704.944809
 20
312.117294
 11
705.462077
 21
311.480879
  0
LINE
  8
CSLAYER1
  6
CONTINUOUS
 62
     7
 10
706.037537
 20
305.936554
 11
706.037537
 21
304.075690
  0
LINE
  8
CSLAYER1
  6
CONTINUOUS
 62
     7
 10
705.719822
 20
304.465579
 11
704.057432
 21
306.279480
  0
LINE
  8
CSLAYER1
  6
CONTINUOUS
 62
     7
 10
705.390257
 20
303.823958
 11
704.157159
 21
305.169427
  0
LINE
  8
CSLAYER1
  6
CONTINUOUS
 62
     7
 10
704.134337
 20
304.064054
 11
704.134337
 21
305.160567
  0
LINE
  8
CSLAYER1
  6
CONTINUOUS
 62
     7
 10
703.412537
 20
306.025114
 11
703.412537
 21
304.064054
  0
LINE
  8
CSLAYER1
  6
CONTINUOUS
 62
     7
 10
705.742554
 20
305.668552
 11
705.742554
 21
304.474436
  0
LINE
  8
CSLAYER1
  6
CONTINUOUS
 62
     7
 10
706.037349
 20
309.057625
 11
706.037349
 21
307.085463
  0
LINE
  8
CSLAYER1
  6
CONTINUOUS
 62
     7
 10
705.742554
 20
308.324536
 11
703.721432
 21
308.324536
  0
LINE
  8
CSLAYER1
  6
CONTINUOUS
 62
     7
 10
705.315549
 20
307.706498
 11
703.721432
 21
307.706498
  0
LINE
  8
CSLAYER1
  6
CONTINUOUS
 62
     7
 10
705.315549
 20
307.706498
 11
705.315549
 21
307.085463
  0
LINE
  8
CSLAYER1
  6
CONTINUOUS
 62
     7
 10
705.742554
 20
308.789624
 11
705.742554
 21
308.324536
  0
LINE
  8
CSLAYER1
  6
CONTINUOUS
 62
     7
 10
682.883987
 20
311.668142
 11
683.519657
 21
311.505116
  0
LINE
  8
CSLAYER1
  6
CONTINUOUS
 62
     7
 10
684.442967
 20
312.894310
 11
682.884009
 21
311.668157
  0
LINE
  8
CSLAYER1
  6
CONTINUOUS
 62
     7
 10
685.002924
 20
311.124726
 11
684.442944
 21
312.894301
  0
LINE
  8
CSLAYER1
  6
CONTINUOUS
 62
     7
 10
684.367299
 20
311.287732
 11
685.002977
 21
311.124706
  0
LINE
  8
CSLAYER1
  6
CONTINUOUS
 62
     7
 10
682.883987
 20
305.581837
 11
683.519657
 21
305.744863
  0
LINE
  8
CSLAYER1
  6
CONTINUOUS
 62
     7
 10
684.442967
 20
304.355691
 11
682.884009
 21
305.581844
  0
LINE
  8
CSLAYER1
  6
CONTINUOUS
 62
     7
 10
685.002924
 20
306.125264
 11
684.442944
 21
304.355689
  0
LINE
  8
CSLAYER1
  6
CONTINUOUS
 62
     7
 10
684.367299
 20
305.962246
 11
685.002977
 21
306.125272
  0
LINE
  8
CSLAYER1
  6
CONTINUOUS
 62
     7
 10
690.543129
 20
318.720519
 11
689.257269
 21
318.360896
  0
LINE
  8
CSLAYER1
  6
CONTINUOUS
 62
     7
 10
690.472449
 20
318.973302
 11
689.186567
 21
318.613677
  0
LINE
  8
CSLAYER1
  6
CONTINUOUS
 62
     7
 10
688.195689
 20
318.830235
 11
689.367707
 21
317.295930
  0
LINE
  8
CSLAYER1
  6
CONTINUOUS
 62
     7
 10
686.628099
 20
317.632805
 11
687.800094
 21
316.098500
  0
LINE
  8
CSLAYER1
  6
CONTINUOUS
 62
     7
 10
688.632669
 20
317.825703
 11
687.482312
 21
316.946982
  0
LINE
  8
CSLAYER1
  6
CONTINUOUS
 62
     7
 10
688.473324
 20
318.034300
 11
687.322989
 21
317.155580
  0
LINE
  8
CSLAYER1
  6
CONTINUOUS
 62
     7
 10
687.987069
 20
318.670880
 11
688.473324
 21
318.034300
  0
LINE
  8
CSLAYER1
  6
CONTINUOUS
 62
     7
 10
686.836704
 20
317.792160
 11
687.322989
 21
317.155580
  0
LINE
  8
CSLAYER1
  6
CONTINUOUS
 62
     7
 10
687.482312
 20
316.946982
 11
688.008722
 21
316.257855
  0
LINE
  8
CSLAYER1
  6
CONTINUOUS
 62
     7
 10
688.632669
 20
317.825703
 11
689.159079
 21
317.136575
  0
LINE
  8
CSLAYER1
  6
CONTINUOUS
 62
     7
 10
686.384274
 20
314.284425
 11
685.535327
 21
312.760727
  0
LINE
  8
CSLAYER1
  6
CONTINUOUS
 62
     7
 10
686.154984
 20
314.412190
 11
685.794377
 21
313.764988
  0
LINE
  8
CSLAYER1
  6
CONTINUOUS
 62
     7
 10
684.099692
 20
314.408735
 11
685.666614
 21
313.535694
  0
LINE
  8
CSLAYER1
  6
CONTINUOUS
 62
     7
 10
684.227454
 20
314.638028
 11
685.794377
 21
313.764987
  0
LINE
  8
CSLAYER1
  6
CONTINUOUS
 62
     7
 10
685.666614
 20
313.535694
 11
685.306014
 21
312.888492
  0
LINE
  8
CSLAYER1
  6
CONTINUOUS
 62
     7
 10
686.878524
 20
316.741857
 11
687.714699
 21
316.018174
  0
LINE
  8
CSLAYER1
  6
CONTINUOUS
 62
     7
 10
685.587632
 20
315.250292
 11
686.423799
 21
314.526609
  0
LINE
  8
CSLAYER1
  6
CONTINUOUS
 62
     7
 10
685.759427
 20
315.448790
 11
686.595602
 21
314.725108
  0
LINE
  8
CSLAYER1
  6
CONTINUOUS
 62
     7
 10
686.706722
 20
316.543359
 11
687.542919
 21
315.819676
  0
LINE
  8
CSLAYER1
  6
CONTINUOUS
 62
     7
 10
684.963947
 20
301.459897
 11
686.495904
 21
302.785752
  0
LINE
  8
CSLAYER1
  6
CONTINUOUS
 62
     7
 10
685.840659
 20
301.871502
 11
686.560674
 21
301.039572
  0
LINE
  8
CSLAYER1
  6
CONTINUOUS
 62
     7
 10
686.495904
 20
302.785752
 11
687.387692
 21
301.755331
  0
LINE
  8
CSLAYER1
  6
CONTINUOUS
 62
     7
 10
685.135727
 20
301.261407
 11
685.642172
 21
301.699716
  0
LINE
  8
CSLAYER1
  6
CONTINUOUS
 62
     7
 10
686.469189
 20
302.415475
 11
687.189204
 21
301.583545
  0
LINE
  8
CSLAYER1
  6
CONTINUOUS
 62
     7
 10
685.642172
 20
301.699716
 11
686.362164
 21
300.867786
  0
LINE
  8
CSLAYER1
  6
CONTINUOUS
 62
     7
 10
685.840659
 20
301.871502
 11
686.469189
 21
302.415475
  0
LINE
  8
CSLAYER1
  6
CONTINUOUS
 62
     7
 10
687.857979
 20
301.227234
 11
689.321244
 21
300.109491
  0
LINE
  8
CSLAYER1
  6
CONTINUOUS
 62
     7
 10
686.565917
 20
299.535741
 11
688.029182
 21
298.418000
  0
LINE
  8
CSLAYER1
  6
CONTINUOUS
 62
     7
 10
686.565917
 20
299.535741
 11
687.857979
 21
301.227234
  0
LINE
  8
CSLAYER1
  6
CONTINUOUS
 62
     7
 10
687.907254
 20
300.859288
 11
689.161914
 21
299.900894
  0
LINE
  8
CSLAYER1
  6
CONTINUOUS
 62
     7
 10
686.933867
 20
299.585019
 11
687.340884
 21
300.117859
  0
LINE
  8
CSLAYER1
  6
CONTINUOUS
 62
     7
 10
686.933867
 20
299.585019
 11
688.188527
 21
298.626625
  0
LINE
  8
CSLAYER1
  6
CONTINUOUS
 62
     7
 10
687.500237
 20
300.326448
 11
688.546292
 21
299.527395
  0
LINE
  8
CSLAYER1
  6
CONTINUOUS
 62
     7
 10
687.340884
 20
300.117859
 11
688.386969
 21
299.318806
  0
LINE
  8
CSLAYER1
  6
CONTINUOUS
 62
     7
 10
687.500237
 20
300.326448
 11
687.907254
 21
300.859288
  0
LINE
  8
CSLAYER1
  6
CONTINUOUS
 62
     7
 10
690.411317
 20
297.298854
 11
691.246299
 21
299.039676
  0
LINE
  8
CSLAYER1
  6
CONTINUOUS
 62
     7
 10
688.632722
 20
298.151960
 11
689.467727
 21
299.892783
  0
LINE
  8
CSLAYER1
  6
CONTINUOUS
 62
     7
 10
688.869317
 20
298.038482
 11
689.554607
 21
299.467221
  0
LINE
  8
CSLAYER1
  6
CONTINUOUS
 62
     7
 10
690.324249
 20
297.724504
 11
691.009562
 21
299.153234
  0
LINE
  8
CSLAYER1
  6
CONTINUOUS
 62
     7
 10
689.712309
 20
299.872053
 11
690.324339
 21
297.724512
  0
LINE
  8
CSLAYER1
  6
CONTINUOUS
 62
     7
 10
689.554652
 20
299.467192
 11
690.166682
 21
297.319674
  0
LINE
  8
CSLAYER1
  6
CONTINUOUS
 62
     7
 10
705.687437
 20
310.908097
 11
705.665829
 21
310.908097
  0
LINE
  8
CSLAYER1
  6
CONTINUOUS
 62
     7
 10
705.728454
 20
310.467975
 11
703.721432
 21
310.467975
  0
LINE
  8
CSLAYER1
  6
CONTINUOUS
 62
     7
 10
705.728454
 20
309.849976
 11
703.721432
 21
309.849976
  0
LINE
  8
CSLAYER1
  6
CONTINUOUS
 62
     7
 10
705.687437
 20
309.407624
 11
705.639279
 21
309.407624
  0
LINE
  8
CSLAYER1
  6
CONTINUOUS
 62
     7
 10
705.742554
 20
308.789624
 11
705.665462
 21
308.789624
  0
LINE
  8
CSLAYER1
  6
CONTINUOUS
 62
     7
 10
705.742554
 20
305.668552
 11
705.665649
 21
305.668552
  0
LINE
  8
CSLAYER1
  6
CONTINUOUS
 62
     7
 10
705.687437
 20
306.286553
 11
705.639279
 21
306.286553
  0
ARC
  8
CSLAYER1
  6
CONTINUOUS
 62
     7
 10
694.749999
 20
265.537503
 40
7.537500
 50
234.685580
 51
305.195726
  0
ARC
  8
CSLAYER1
  6
CONTINUOUS
 62
     7
 10
720.708309
 20
228.733418
 40
37.500000
 50
90.804200
 51
125.195780
  0
ARC
  8
CSLAYER1
  6
CONTINUOUS
 62
     7
 10
694.749999
 20
308.625000
 40
42.674996
 50
278.591282
 51
297.408596
  0
ARC
  8
CSLAYER1
  6
CONTINUOUS
 62
     7
 10
694.749999
 20
308.625000
 40
38.924996
 50
281.233346
 51
294.766488
  0
ARC
  8
CSLAYER1
  6
CONTINUOUS
 62
     7
 10
711.684872
 20
271.918202
 40
1.500000
 50
36.000760
 51
114.767490
  0
ARC
  8
CSLAYER1
  6
CONTINUOUS
 62
     7
 10
702.624999
 20
268.974472
 40
1.500000
 50
101.233350
 51
179.999850
  0
ARC
  8
CSLAYER1
  6
CONTINUOUS
 62
     7
 10
720.076232
 20
273.766480
 40
7.537500
 50
270.685583
 51
341.195706
  0
ARC
  8
CSLAYER1
  6
CONTINUOUS
 62
     7
 10
762.709772
 20
259.249260
 40
37.500000
 50
126.804210
 51
161.195800
  0
ARC
  8
CSLAYER1
  6
CONTINUOUS
 62
     7
 10
694.749999
 20
308.625000
 40
42.674996
 50
314.591283
 51
333.408580
  0
ARC
  8
CSLAYER1
  6
CONTINUOUS
 62
     7
 10
694.749999
 20
308.625000
 40
38.924996
 50
317.233347
 51
330.766499
  0
ARC
  8
CSLAYER1
  6
CONTINUOUS
 62
     7
 10
730.026362
 20
288.882649
 40
1.500000
 50
72.000780
 51
150.767500
  0
ARC
  8
CSLAYER1
  6
CONTINUOUS
 62
     7
 10
724.426997
 20
281.175854
 40
1.500000
 50
137.233360
 51
215.999860
  0
ARC
  8
CSLAYER1
  6
CONTINUOUS
 62
     7
 10
735.728634
 20
295.310246
 40
7.537500
 50
-53.314419
 51
17.195720
  0
ARC
  8
CSLAYER1
  6
CONTINUOUS
 62
     7
 10
778.752744
 20
308.624943
 40
37.500000
 50
162.804220
 51
197.195810
  0
ARC
  8
CSLAYER1
  6
CONTINUOUS
 62
     7
 10
694.749999
 20
308.625000
 40
42.674996
 50
-9.408740
 51
9.408595
  0
ARC
  8
CSLAYER1
  6
CONTINUOUS
 62
     7
 10
694.749999
 20
308.625000
 40
38.924996
 50
-6.766659
 51
6.766514
  0
ARC
  8
CSLAYER1
  6
CONTINUOUS
 62
     7
 10
734.893494
 20
313.388031
 40
1.500000
 50
108.000750
 51
186.767480
  0
ARC
  8
CSLAYER1
  6
CONTINUOUS
 62
     7
 10
734.893494
 20
303.861879
 40
1.500000
 50
173.233380
 51
251.999860
  0
ARC
  8
CSLAYER1
  6
CONTINUOUS
 62
     7
 10
735.728634
 20
321.939777
 40
7.537500
 50
-17.314438
 51
53.195740
  0
ARC
  8
CSLAYER1
  6
CONTINUOUS
 62
     7
 10
762.709772
 20
358.000638
 40
37.500000
 50
198.804240
 51
233.195810
  0
ARC
  8
CSLAYER1
  6
CONTINUOUS
 62
     7
 10
694.749999
 20
308.625000
 40
42.674996
 50
26.591270
 51
45.408610
  0
ARC
  8
CSLAYER1
  6
CONTINUOUS
 62
     7
 10
694.749999
 20
308.625000
 40
38.924996
 50
29.233360
 51
42.766530
  0
ARC
  8
CSLAYER1
  6
CONTINUOUS
 62
     7
 10
724.427184
 20
336.074124
 40
1.500000
 50
144.000770
 51
222.767480
  0
ARC
  8
CSLAYER1
  6
CONTINUOUS
 62
     7
 10
730.026549
 20
328.367306
 40
1.500000
 50
209.233390
 51
287.999857
  0
ARC
  8
CSLAYER1
  6
CONTINUOUS
 62
     7
 10
720.076232
 20
343.483521
 40
7.537500
 50
18.685580
 51
89.195750
  0
ARC
  8
CSLAYER1
  6
CONTINUOUS
 62
     7
 10
720.708309
 20
388.516478
 40
37.500000
 50
234.804240
 51
269.195810
  0
ARC
  8
CSLAYER1
  6
CONTINUOUS
 62
     7
 10
694.749999
 20
308.625000
 40
42.674996
 50
62.591290
 51
81.408620
  0
ARC
  8
CSLAYER1
  6
CONTINUOUS
 62
     7
 10
694.749999
 20
308.625000
 40
38.924996
 50
65.233370
 51
78.766540
  0
ARC
  8
CSLAYER1
  6
CONTINUOUS
 62
     7
 10
702.625179
 20
348.275620
 40
1.500000
 50
180.000780
 51
258.767480
  0
ARC
  8
CSLAYER1
  6
CONTINUOUS
 62
     7
 10
711.685059
 20
345.331902
 40
1.500000
 50
245.233390
 51
323.999858
  0
ARC
  8
CSLAYER1
  6
CONTINUOUS
 62
     7
 10
694.749999
 20
351.712521
 40
7.537500
 50
54.685590
 51
125.195760
  0
ARC
  8
CSLAYER1
  6
CONTINUOUS
 62
     7
 10
668.791682
 20
388.516478
 40
37.500000
 50
270.804240
 51
305.195811
  0
ARC
  8
CSLAYER1
  6
CONTINUOUS
 62
     7
 10
694.749999
 20
308.625000
 40
42.674996
 50
98.591270
 51
117.408600
  0
ARC
  8
CSLAYER1
  6
CONTINUOUS
 62
     7
 10
694.749999
 20
308.625000
 40
38.924996
 50
101.233350
 51
114.766520
  0
ARC
  8
CSLAYER1
  6
CONTINUOUS
 62
     7
 10
677.815119
 20
345.331936
 40
1.500000
 50
216.000780
 51
294.767482
  0
ARC
  8
CSLAYER1
  6
CONTINUOUS
 62
     7
 10
686.874999
 20
348.275688
 40
1.500000
 50
281.233394
 51
359.999873
  0
ARC
  8
CSLAYER1
  6
CONTINUOUS
 62
     7
 10
669.423767
 20
343.483533
 40
7.537500
 50
90.685570
 51
161.195740
  0
ARC
  8
CSLAYER1
  6
CONTINUOUS
 62
     7
 10
626.790159
 20
358.000649
 40
37.500000
 50
306.804239
 51
341.195816
  0
ARC
  8
CSLAYER1
  6
CONTINUOUS
 62
     7
 10
694.749999
 20
308.625000
 40
42.674996
 50
134.591280
 51
153.408620
  0
ARC
  8
CSLAYER1
  6
CONTINUOUS
 62
     7
 10
694.749999
 20
308.625000
 40
38.924996
 50
137.233360
 51
150.766540
  0
ARC
  8
CSLAYER1
  6
CONTINUOUS
 62
     7
 10
659.473629
 20
328.367466
 40
1.500000
 50
252.000780
 51
330.767483
  0
ARC
  8
CSLAYER1
  6
CONTINUOUS
 62
     7
 10
665.072814
 20
336.074273
 40
1.500000
 50
-42.766605
 51
35.999890
  0
ARC
  8
CSLAYER1
  6
CONTINUOUS
 62
     7
 10
653.771357
 20
321.939755
 40
7.537500
 50
126.685580
 51
197.195760
  0
ARC
  8
CSLAYER1
  6
CONTINUOUS
 62
     7
 10
610.747044
 20
308.624997
 40
37.500000
 50
-17.195757
 51
17.195830
  0
ARC
  8
CSLAYER1
  6
CONTINUOUS
 62
     7
 10
694.749999
 20
308.625000
 40
42.674996
 50
170.591300
 51
189.408630
  0
ARC
  8
CSLAYER1
  6
CONTINUOUS
 62
     7
 10
694.749999
 20
308.625000
 40
38.924996
 50
173.233380
 51
186.766550
  0
ARC
  8
CSLAYER1
  6
CONTINUOUS
 62
     7
 10
654.606504
 20
303.862062
 40
1.500000
 50
-71.999214
 51
6.767497
  0
ARC
  8
CSLAYER1
  6
CONTINUOUS
 62
     7
 10
654.606324
 20
313.388116
 40
1.500000
 50
-6.766604
 51
71.999900
  0
ARC
  8
CSLAYER1
  6
CONTINUOUS
 62
     7
 10
653.771357
 20
295.310223
 40
7.537500
 50
162.685600
 51
233.195760
  0
ARC
  8
CSLAYER1
  6
CONTINUOUS
 62
     7
 10
626.790159
 20
259.249352
 40
37.500000
 50
18.804260
 51
53.195840
  0
ARC
  8
CSLAYER1
  6
CONTINUOUS
 62
     7
 10
694.749999
 20
308.625000
 40
42.674996
 50
206.591310
 51
225.408630
  0
ARC
  8
CSLAYER1
  6
CONTINUOUS
 62
     7
 10
694.749999
 20
308.625000
 40
38.924996
 50
209.233390
 51
222.766550
  0
ARC
  8
CSLAYER1
  6
CONTINUOUS
 62
     7
 10
665.072814
 20
281.175945
 40
1.500000
 50
-35.999213
 51
42.767510
  0
ARC
  8
CSLAYER1
  6
CONTINUOUS
 62
     7
 10
659.473449
 20
288.882580
 40
1.500000
 50
29.233410
 51
107.999920
  0
ARC
  8
CSLAYER1
  6
CONTINUOUS
 62
     7
 10
669.423767
 20
273.766480
 40
7.537500
 50
198.685610
 51
269.195760
  0
ARC
  8
CSLAYER1
  6
CONTINUOUS
 62
     7
 10
668.791682
 20
228.733523
 40
37.500000
 50
54.804270
 51
89.195860
  0
ARC
  8
CSLAYER1
  6
CONTINUOUS
 62
     7
 10
694.749999
 20
308.625000
 40
42.674996
 50
242.591310
 51
261.408630
  0
ARC
  8
CSLAYER1
  6
CONTINUOUS
 62
     7
 10
694.749999
 20
308.625000
 40
38.924996
 50
245.233390
 51
258.766550
  0
ARC
  8
CSLAYER1
  6
CONTINUOUS
 62
     7
 10
686.874812
 20
268.974438
 40
1.500000
 50
0.000802
 51
78.767530
  0
ARC
  8
CSLAYER1
  6
CONTINUOUS
 62
     7
 10
677.814939
 20
271.918008
 40
1.500000
 50
65.233420
 51
143.999930
  0
ARC
  8
CSLAYER1
  6
CONTINUOUS
 62
     7
 10
694.749999
 20
308.625000
 40
34.125000
 50
280.129556
 51
349.870648
  0
CIRCLE
  8
CSLAYER1
  6
CONTINUOUS
 62
     7
 10
694.749999
 20
308.625000
 40
3.750000
  0
CIRCLE
  8
CSLAYER1
  6
CONTINUOUS
 62
     7
 10
694.749999
 20
308.625000
 40
3.000000
  0
ARC
  8
CSLAYER1
  6
CONTINUOUS
 62
     7
 10
694.749999
 20
308.625000
 40
34.125000
 50
10.129260
 51
79.870470
  0
ARC
  8
CSLAYER1
  6
CONTINUOUS
 62
     7
 10
694.749999
 20
308.625000
 40
34.125000
 50
100.128930
 51
169.870740
  0
ARC
  8
CSLAYER1
  6
CONTINUOUS
 62
     7
 10
694.749999
 20
308.625000
 40
34.125000
 50
190.129410
 51
259.871080
  0
ARC
  8
CSLAYER1
  6
CONTINUOUS
 62
     7
 10
700.619807
 20
275.770237
 40
0.750000
 50
176.427880
 51
280.124523
  0
ARC
  8
CSLAYER1
  6
CONTINUOUS
 62
     7
 10
727.604792
 20
302.755291
 40
0.750000
 50
-10.129298
 51
93.572150
  0
ARC
  8
CSLAYER1
  6
CONTINUOUS
 62
     7
 10
727.604792
 20
314.494640
 40
0.750000
 50
-93.573070
 51
10.129320
  0
ARC
  8
CSLAYER1
  6
CONTINUOUS
 62
     7
 10
700.619807
 20
341.479764
 40
0.750000
 50
79.875490
 51
183.572130
  0
ARC
  8
CSLAYER1
  6
CONTINUOUS
 62
     7
 10
688.880552
 20
341.479821
 40
0.750000
 50
-3.572753
 51
100.124000
  0
ARC
  8
CSLAYER1
  6
CONTINUOUS
 62
     7
 10
661.895199
 20
314.494660
 40
0.750000
 50
169.870740
 51
273.572800
  0
ARC
  8
CSLAYER1
  6
CONTINUOUS
 62
     7
 10
661.895199
 20
302.755270
 40
0.750000
 50
86.427280
 51
190.129390
  0
ARC
  8
CSLAYER1
  6
CONTINUOUS
 62
     7
 10
688.880552
 20
275.770180
 40
0.750000
 50
-100.123990
 51
3.572772
  0
ARC
  8
CSLAYER1
  6
CONTINUOUS
 62
     7
 10
694.749999
 20
308.625000
 40
25.875000
 50
282.481351
 51
347.518440
  0
ARC
  8
CSLAYER1
  6
CONTINUOUS
 62
     7
 10
694.749999
 20
308.625000
 40
25.875000
 50
192.481560
 51
257.518650
  0
ARC
  8
CSLAYER1
  6
CONTINUOUS
 62
     7
 10
694.749999
 20
308.625000
 40
25.875000
 50
12.481580
 51
77.518640
  0
ARC
  8
CSLAYER1
  6
CONTINUOUS
 62
     7
 10
694.749999
 20
308.625000
 40
25.875000
 50
102.481360
 51
167.518420
  0
ARC
  8
CSLAYER1
  6
CONTINUOUS
 62
     7
 10
771.624999
 20
308.625000
 40
109.125000
 50
182.712200
 51
186.982980
  0
ARC
  8
CSLAYER1
  6
CONTINUOUS
 62
     7
 10
771.624999
 20
308.625000
 40
109.125000
 50
193.667450
 51
195.071730
  0
ARC
  8
CSLAYER1
  6
CONTINUOUS
 62
     7
 10
617.874999
 20
308.625000
 40
109.125000
 50
353.017015
 51
357.287796
  0
ARC
  8
CSLAYER1
  6
CONTINUOUS
 62
     7
 10
617.874999
 20
308.625000
 40
109.125000
 50
344.928268
 51
346.332555
  0
ARC
  8
CSLAYER1
  6
CONTINUOUS
 62
     7
 10
771.624999
 20
308.625000
 40
109.125000
 50
173.017000
 51
177.287780
  0
ARC
  8
CSLAYER1
  6
CONTINUOUS
 62
     7
 10
771.624999
 20
308.625000
 40
109.125000
 50
164.928250
 51
166.332540
  0
ARC
  8
CSLAYER1
  6
CONTINUOUS
 62
     7
 10
617.874999
 20
308.625000
 40
109.125000
 50
2.712223
 51
6.983003
  0
ARC
  8
CSLAYER1
  6
CONTINUOUS
 62
     7
 10
617.874999
 20
308.625000
 40
109.125000
 50
13.667460
 51
15.071750
  0
CIRCLE
  8
CSLAYER1
  6
CONTINUOUS
 62
     7
 10
694.749999
 20
308.625000
 40
13.125000
  0
CIRCLE
  8
CSLAYER1
  6
CONTINUOUS
 62
     7
 10
694.749999
 20
308.625000
 40
7.875001
  0
ARC
  8
CSLAYER1
  6
CONTINUOUS
 62
     7
 10
694.749999
 20
308.625000
 40
10.718747
 50
165.615910
 51
194.384070
  0
ARC
  8
CSLAYER1
  6
CONTINUOUS
 62
     7
 10
694.749999
 20
308.625000
 40
11.593744
 50
165.615910
 51
194.384070
  0
ARC
  8
CSLAYER1
  6
CONTINUOUS
 62
     7
 10
689.452209
 20
319.670130
 40
2.187502
 50
269.910900
 51
314.093478
  0
ARC
  8
CSLAYER1
  6
CONTINUOUS
 62
     7
 10
690.398132
 20
317.697780
 40
2.187502
 50
85.428440
 51
138.357320
  0
ARC
  8
CSLAYER1
  6
CONTINUOUS
 62
     7
 10
690.398132
 20
317.697780
 40
1.925000
 50
85.428440
 51
138.357320
  0
ARC
  8
CSLAYER1
  6
CONTINUOUS
 62
     7
 10
689.452209
 20
319.670130
 40
1.925000
 50
269.910900
 51
314.093478
  0
ARC
  8
CSLAYER1
  6
CONTINUOUS
 62
     7
 10
690.612362
 20
318.472506
 40
0.519990
 50
-45.906556
 51
105.624980
  0
ARC
  8
CSLAYER1
  6
CONTINUOUS
 62
     7
 10
689.126462
 20
318.828610
 40
0.485689
 50
138.357340
 51
285.624976
  0
ARC
  8
CSLAYER1
  6
CONTINUOUS
 62
     7
 10
689.126462
 20
318.828610
 40
0.223189
 50
138.357340
 51
285.624976
  0
ARC
  8
CSLAYER1
  6
CONTINUOUS
 62
     7
 10
690.612362
 20
318.472506
 40
0.257490
 50
-45.906556
 51
105.624980
  0
ARC
  8
CSLAYER1
  6
CONTINUOUS
 62
     7
 10
689.448909
 20
317.613876
 40
0.131250
 50
89.910900
 51
270.000010
  0
ARC
  8
CSLAYER1
  6
CONTINUOUS
 62
     7
 10
690.562007
 20
319.747494
 40
0.131250
 50
-94.571570
 51
85.428440
  0
ARC
  8
CSLAYER1
  6
CONTINUOUS
 62
     7
 10
688.091364
 20
318.750561
 40
0.131250
 50
37.375050
 51
217.375010
  0
ARC
  8
CSLAYER1
  6
CONTINUOUS
 62
     7
 10
687.904419
 20
316.178179
 40
0.131250
 50
-142.625010
 51
37.375050
  0
ARC
  8
CSLAYER1
  6
CONTINUOUS
 62
     7
 10
686.732357
 20
317.712486
 40
0.131250
 50
37.375050
 51
217.375010
  0
ARC
  8
CSLAYER1
  6
CONTINUOUS
 62
     7
 10
689.263427
 20
317.216252
 40
0.131250
 50
-142.625010
 51
37.375050
  0
ARC
  8
CSLAYER1
  6
CONTINUOUS
 62
     7
 10
686.269652
 20
314.348303
 40
0.131250
 50
-29.124928
 51
150.875040
  0
ARC
  8
CSLAYER1
  6
CONTINUOUS
 62
     7
 10
685.420592
 20
312.824620
 40
0.131250
 50
150.875050
 51
330.875072
  0
ARC
  8
CSLAYER1
  6
CONTINUOUS
 62
     7
 10
684.163569
 20
314.523400
 40
0.131250
 50
60.875050
 51
240.875070
  0
ARC
  8
CSLAYER1
  6
CONTINUOUS
 62
     7
 10
686.233029
 20
315.996083
 40
0.986297
 50
49.125050
 51
229.125070
  0
ARC
  8
CSLAYER1
  6
CONTINUOUS
 62
     7
 10
686.233029
 20
315.996083
 40
0.723797
 50
49.125050
 51
229.125070
  0
ARC
  8
CSLAYER1
  6
CONTINUOUS
 62
     7
 10
687.628839
 20
315.918913
 40
0.131250
 50
-130.875000
 51
49.125050
  0
ARC
  8
CSLAYER1
  6
CONTINUOUS
 62
     7
 10
686.509704
 20
314.625843
 40
0.131250
 50
-130.875000
 51
49.125050
  0
ARC
  8
CSLAYER1
  6
CONTINUOUS
 62
     7
 10
686.874999
 20
301.311558
 40
0.678125
 50
-139.125000
 51
40.874950
  0
ARC
  8
CSLAYER1
  6
CONTINUOUS
 62
     7
 10
686.874999
 20
301.311558
 40
0.415625
 50
-139.125000
 51
40.874950
  0
ARC
  8
CSLAYER1
  6
CONTINUOUS
 62
     7
 10
685.049799
 20
301.360653
 40
0.131250
 50
130.874950
 51
310.874984
  0
ARC
  8
CSLAYER1
  6
CONTINUOUS
 62
     7
 10
689.241639
 20
300.005196
 40
0.131250
 50
-127.375000
 51
52.624950
  0
ARC
  8
CSLAYER1
  6
CONTINUOUS
 62
     7
 10
688.466552
 20
299.423092
 40
0.131250
 50
-127.375000
 51
52.624950
  0
ARC
  8
CSLAYER1
  6
CONTINUOUS
 62
     7
 10
688.108944
 20
298.522309
 40
0.131250
 50
-127.375000
 51
52.624950
  0
ARC
  8
CSLAYER1
  6
CONTINUOUS
 62
     7
 10
689.586054
 20
299.836032
 40
0.131250
 50
15.907270
 51
154.374990
  0
ARC
  8
CSLAYER1
  6
CONTINUOUS
 62
     7
 10
690.292847
 20
297.355638
 40
0.131250
 50
195.907260
 51
334.375025
  0
ARC
  8
CSLAYER1
  6
CONTINUOUS
 62
     7
 10
691.127987
 20
299.096457
 40
0.131250
 50
-25.624975
 51
154.374990
  0
ARC
  8
CSLAYER1
  6
CONTINUOUS
 62
     7
 10
688.750914
 20
298.095220
 40
0.131250
 50
154.375010
 51
334.375025
  0
ARC
  8
CSLAYER1
  6
CONTINUOUS
 62
     7
 10
703.721432
 20
313.237866
 40
0.309000
 50
89.999960
 51
270.000010
  0
ARC
  8
CSLAYER1
  6
CONTINUOUS
 62
     7
 10
705.728454
 20
313.237866
 40
0.309000
 50
-90.000000
 51
90.000020
  0
ARC
  8
CSLAYER1
  6
CONTINUOUS
 62
     7
 10
703.776729
 20
311.221170
 40
0.341203
 50
140.896200
 51
320.896220
  0
ARC
  8
CSLAYER1
  6
CONTINUOUS
 62
     7
 10
705.687437
 20
311.258096
 40
0.350000
 50
270.000000
 51
339.540724
  0
ARC
  8
CSLAYER1
  6
CONTINUOUS
 62
     7
 10
705.665829
 20
311.258096
 40
0.350000
 50
183.248890
 51
270.000000
  0
ARC
  8
CSLAYER1
  6
CONTINUOUS
 62
     7
 10
705.622067
 20
311.219719
 40
0.306250
 50
121.487860
 51
176.528700
  0
ARC
  8
CSLAYER1
  6
CONTINUOUS
 62
     7
 10
705.769464
 20
311.227520
 40
0.262500
 50
-20.459331
 51
39.103800
  0
ARC
  8
CSLAYER1
  6
CONTINUOUS
 62
     7
 10
703.721432
 20
310.158966
 40
0.309000
 50
89.999960
 51
270.000010
  0
ARC
  8
CSLAYER1
  6
CONTINUOUS
 62
     7
 10
705.728454
 20
310.158966
 40
0.309000
 50
-90.000000
 51
90.000020
  0
ARC
  8
CSLAYER1
  6
CONTINUOUS
 62
     7
 10
705.676449
 20
307.085463
 40
0.360916
 50
180.000020
 51
359.999982
  0
ARC
  8
CSLAYER1
  6
CONTINUOUS
 62
     7
 10
703.721432
 20
308.015507
 40
0.309022
 50
90.000040
 51
269.999980
  0
ARC
  8
CSLAYER1
  6
CONTINUOUS
 62
     7
 10
705.639279
 20
309.083870
 40
0.323750
 50
90.000040
 51
175.157140
  0
ARC
  8
CSLAYER1
  6
CONTINUOUS
 62
     7
 10
705.665462
 20
309.139622
 40
0.350000
 50
184.658040
 51
270.000000
  0
ARC
  8
CSLAYER1
  6
CONTINUOUS
 62
     7
 10
705.687437
 20
309.057625
 40
0.350000
 50
-0.000018
 51
90.000020
  0
ARC
  8
CSLAYER1
  6
CONTINUOUS
 62
     7
 10
703.773437
 20
304.064054
 40
0.360939
 50
180.000020
 51
359.999982
  0
ARC
  8
CSLAYER1
  6
CONTINUOUS
 62
     7
 10
703.785152
 20
306.025114
 40
0.372619
 50
42.504470
 51
180.000000
  0
ARC
  8
CSLAYER1
  6
CONTINUOUS
 62
     7
 10
704.147522
 20
305.160567
 40
0.013125
 50
42.505510
 51
179.998630
  0
ARC
  8
CSLAYER1
  6
CONTINUOUS
 62
     7
 10
705.664914
 20
304.075690
 40
0.372566
 50
222.504460
 51
359.999982
  0
ARC
  8
CSLAYER1
  6
CONTINUOUS
 62
     7
 10
705.729549
 20
304.474436
 40
0.013125
 50
222.505720
 51
359.998288
  0
ARC
  8
CSLAYER1
  6
CONTINUOUS
 62
     7
 10
705.639279
 20
305.962800
 40
0.323750
 50
90.000040
 51
175.157140
  0
ARC
  8
CSLAYER1
  6
CONTINUOUS
 62
     7
 10
705.665649
 20
306.018551
 40
0.350000
 50
184.658040
 51
270.000000
  0
ARC
  8
CSLAYER1
  6
CONTINUOUS
 62
     7
 10
705.687437
 20
305.936554
 40
0.350000
 50
-0.000018
 51
90.000020
  0
CIRCLE
  8
CSLAYER1
  6
CONTINUOUS
 62
     7
 10
685.004394
 20
303.195065
 40
0.831250
  0
CIRCLE
  8
CSLAYER1
  6
CONTINUOUS
 62
     7
 10
685.004394
 20
303.195065
 40
1.093749
  0
INSERT
  8
CSLAYER1
  2
BLKF0000
 10
0.0
 20
0.0
 30
0.0
  0
LINE
  8
CSLAYER1
  6
CONTINUOUS
 62
     7
 10
992.287734
 20
301.500000
 11
845.499999
 21
301.500000
  0
LINE
  8
CSLAYER1
  6
CONTINUOUS
 62
     7
 10
844.749999
 20
300.750000
 11
844.749999
 21
276.750000
  0
LINE
  8
CSLAYER1
  6
CONTINUOUS
 62
     7
 10
846.249999
 20
275.250000
 11
989.823209
 21
275.250000
  0
LINE
  8
CSLAYER1
  6
CONTINUOUS
 62
     7
 10
913.749999
 20
228.000000
 11
1098.394749
 21
228.000000
  0
LINE
  8
CSLAYER1
  6
CONTINUOUS
 62
     7
 10
954.249999
 20
216.000000
 11
954.249999
 21
82.125000
  0
LINE
  8
CSLAYER1
  6
CONTINUOUS
 62
     7
 10
1120.749999
 20
78.750000
 11
912.249999
 21
78.750000
  0
ARC
  8
CSLAYER1
  6
CONTINUOUS
 62
     7
 10
942.249999
 20
216.000000
 40
12.000000
 50
0.000000
 51
90.000000
  0
ARC
  8
CSLAYER1
  6
CONTINUOUS
 62
     7
 10
950.874999
 20
82.125000
 40
3.375000
 50
270.000000
 51
360.000000
  0
ARC
  8
CSLAYER1
  6
CONTINUOUS
 62
     7
 10
913.749999
 20
254.250000
 40
26.250000
 50
180.000000
 51
270.000000
  0
LINE
  8
CSLAYER1
  6
CONTINUOUS
 62
     7
 10
845.499999
 20
301.500000
 11
844.749999
 21
300.750000
  0
LINE
  8
CSLAYER1
  6
CONTINUOUS
 62
     7
 10
844.749999
 20
276.750000
 11
846.249999
 21
275.250000
  0
LINE
  8
CSLAYER1
  6
CONTINUOUS
 62
     7
 10
910.749999
 20
77.250000
 11
910.749999
 21
51.750000
  0
LINE
  8
CSLAYER1
  6
CONTINUOUS
 62
     7
 10
911.499999
 20
51.000000
 11
1120.749999
 21
51.000000
  0
LINE
  8
CSLAYER1
  6
CONTINUOUS
 62
     7
 10
912.249999
 20
78.750000
 11
910.749999
 21
77.250000
  0
LINE
  8
CSLAYER1
  6
CONTINUOUS
 62
     7
 10
910.749999
 20
51.750000
 11
911.499999
 21
51.000000
  0
LINE
  8
CSLAYER1
  6
CENTER
 62
     2
 10
929.499999
 20
90.000000
 11
929.499999
 21
42.000000
  0
LINE
  8
CSLAYER1
  6
CONTINUOUS
 62
     7
 10
844.749999
 20
561.000000
 11
844.749999
 21
585.000000
  0
LINE
  8
CSLAYER1
  6
CONTINUOUS
 62
     7
 10
845.499999
 20
585.750000
 11
1120.749999
 21
585.750000
  0
LINE
  8
CSLAYER1
  6
CONTINUOUS
 62
     7
 10
844.749999
 20
327.750000
 11
844.749999
 21
303.750000
  0
LINE
  8
CSLAYER1
  6
CONTINUOUS
 62
     7
 10
845.499999
 20
303.000000
 11
992.287734
 21
303.000000
  0
LINE
  8
CSLAYER1
  6
CONTINUOUS
 62
     7
 10
888.249999
 20
303.000000
 11
888.249999
 21
301.500000
  0
LINE
  8
CSLAYER1
  6
CONTINUOUS
 62
     7
 10
846.249999
 20
559.500000
 11
1120.749999
 21
559.500000
  0
LINE
  8
CSLAYER1
  6
CONTINUOUS
 62
     7
 10
887.874999
 20
538.500000
 11
887.874999
 21
340.500000
  0
LINE
  8
CSLAYER1
  6
CONTINUOUS
 62
     7
 10
846.249999
 20
329.250000
 11
992.287734
 21
329.250000
  0
LINE
  8
CSLAYER1
  6
CONTINUOUS
 62
     7
 10
846.249999
 20
559.500000
 11
844.749999
 21
561.000000
  0
LINE
  8
CSLAYER1
  6
CONTINUOUS
 62
     7
 10
846.249999
 20
329.250000
 11
844.749999
 21
327.750000
  0
LINE
  8
CSLAYER1
  6
CONTINUOUS
 62
     7
 10
845.499999
 20
585.750000
 11
844.749999
 21
585.000000
  0
LINE
  8
CSLAYER1
  6
CONTINUOUS
 62
     7
 10
844.749999
 20
303.750000
 11
845.499999
 21
303.000000
  0
LINE
  8
CSLAYER1
  6
CONTINUOUS
 62
     7
 10
1120.749999
 20
748.500000
 11
911.499999
 21
748.500000
  0
LINE
  8
CSLAYER1
  6
CONTINUOUS
 62
     7
 10
910.749999
 20
747.750000
 11
910.749999
 21
722.250000
  0
LINE
  8
CSLAYER1
  6
CONTINUOUS
 62
     7
 10
912.249999
 20
720.750000
 11
1120.749999
 21
720.750000
  0
LINE
  8
CSLAYER1
  6
CENTER
 62
     2
 10
933.249999
 20
757.500000
 11
933.249999
 21
709.500000
  0
LINE
  8
CSLAYER1
  6
CONTINUOUS
 62
     7
 10
844.749999
 20
612.000000
 11
844.749999
 21
588.000000
  0
LINE
  8
CSLAYER1
  6
CONTINUOUS
 62
     7
 10
845.499999
 20
587.250000
 11
1120.749999
 21
587.250000
  0
LINE
  8
CSLAYER1
  6
CONTINUOUS
 62
     7
 10
888.249999
 20
587.250000
 11
888.249999
 21
585.750000
  0
LINE
  8
CSLAYER1
  6
CONTINUOUS
 62
     7
 10
954.249999
 20
717.375000
 11
954.249999
 21
672.000000
  0
LINE
  8
CSLAYER1
  6
CONTINUOUS
 62
     7
 10
846.249999
 20
613.500000
 11
1120.749999
 21
613.500000
  0
LINE
  8
CSLAYER1
  6
CONTINUOUS
 62
     7
 10
886.749999
 20
624.750000
 11
886.749999
 21
633.750000
  0
LINE
  8
CSLAYER1
  6
CONTINUOUS
 62
     7
 10
912.999999
 20
660.000000
 11
1120.749999
 21
660.000000
  0
LINE
  8
CSLAYER1
  6
CONTINUOUS
 62
     7
 10
844.749999
 20
588.000000
 11
845.499999
 21
587.250000
  0
LINE
  8
CSLAYER1
  6
CONTINUOUS
 62
     7
 10
910.749999
 20
722.250000
 11
912.249999
 21
720.750000
  0
LINE
  8
CSLAYER1
  6
CONTINUOUS
 62
     7
 10
846.249999
 20
613.500000
 11
844.749999
 21
612.000000
  0
ARC
  8
CSLAYER1
  6
CONTINUOUS
 62
     7
 10
950.874999
 20
717.375000
 40
3.375000
 50
0.000000
 51
90.000000
  0
ARC
  8
CSLAYER1
  6
CONTINUOUS
 62
     7
 10
942.249999
 20
672.000000
 40
12.000000
 50
270.000000
 51
360.000000
  0
ARC
  8
CSLAYER1
  6
CONTINUOUS
 62
     7
 10
912.999999
 20
633.750000
 40
26.250000
 50
90.000000
 51
180.000000
  0
LINE
  8
CSLAYER1
  6
CENTER
 62
     2
 10
1047.624999
 20
444.375000
 11
1193.874999
 21
444.375000
  0
LINE
  8
CSLAYER1
  6
CENTER
 62
     2
 10
1047.624999
 20
174.000000
 11
1193.874999
 21
174.000000
  0
LINE
  8
CSLAYER1
  6
CENTER
 62
     2
 10
1120.749999
 20
763.500000
 11
1120.749999
 21
36.000000
  0
LINE
  8
CSLAYER1
  6
CONTINUOUS
 62
     7
 10
911.499999
 20
748.500000
 11
910.749999
 21
747.750000
  0
LINE
  8
CSLAYER1
  6
CONTINUOUS
 62
     7
 10
1120.749999
 20
78.750000
 11
1329.249999
 21
78.750000
  0
LINE
  8
CSLAYER1
  6
CONTINUOUS
 62
     7
 10
1329.999999
 20
51.000000
 11
1120.749999
 21
51.000000
  0
LINE
  8
CSLAYER1
  6
CONTINUOUS
 62
     7
 10
1395.999999
 20
585.750000
 11
1120.749999
 21
585.750000
  0
LINE
  8
CSLAYER1
  6
CONTINUOUS
 62
     7
 10
1395.249999
 20
559.500000
 11
1120.749999
 21
559.500000
  0
LINE
  8
CSLAYER1
  6
CONTINUOUS
 62
     7
 10
1120.749999
 20
748.500000
 11
1329.999999
 21
748.500000
  0
LINE
  8
CSLAYER1
  6
CONTINUOUS
 62
     7
 10
1329.249999
 20
720.750000
 11
1120.749999
 21
720.750000
  0
LINE
  8
CSLAYER1
  6
CONTINUOUS
 62
     7
 10
1395.999999
 20
587.250000
 11
1120.749999
 21
587.250000
  0
LINE
  8
CSLAYER1
  6
CONTINUOUS
 62
     7
 10
1395.249999
 20
613.500000
 11
1120.749999
 21
613.500000
  0
LINE
  8
CSLAYER1
  6
CONTINUOUS
 62
     7
 10
1152.767148
 20
301.500000
 11
1395.999999
 21
301.500000
  0
LINE
  8
CSLAYER1
  6
CONTINUOUS
 62
     7
 10
1395.249999
 20
275.250000
 11
1147.770981
 21
275.250000
  0
LINE
  8
CSLAYER1
  6
CONTINUOUS
 62
     7
 10
1395.999999
 20
303.000000
 11
1152.854929
 21
303.000000
  0
LINE
  8
CSLAYER1
  6
CONTINUOUS
 62
     7
 10
1395.249999
 20
329.250000
 11
1151.033177
 21
329.250000
  0
LINE
  8
CSLAYER1
  6
CONTINUOUS
 62
     7
 10
1327.749999
 20
228.000000
 11
1143.105249
 21
228.000000
  0
LINE
  8
CSLAYER1
  6
CENTER
 62
     2
 10
1167.999999
 20
308.625000
 11
973.749999
 21
308.625000
  0
LINE
  8
CSLAYER1
  6
CONTINUOUS
 62
     7
 10
1146.624999
 20
401.625000
 11
1094.874999
 21
401.625000
  0
LINE
  8
CSLAYER1
  6
CONTINUOUS
 62
     7
 10
1146.624999
 20
444.375000
 11
1146.624999
 21
401.625000
  0
LINE
  8
CSLAYER1
  6
CONTINUOUS
 62
     7
 10
1094.874999
 20
444.375000
 11
1094.874999
 21
401.625000
  0
LINE
  8
CSLAYER1
  6
CONTINUOUS
 62
     7
 10
1146.624999
 20
216.750000
 11
1094.874999
 21
216.750000
  0
LINE
  8
CSLAYER1
  6
CONTINUOUS
 62
     7
 10
1143.105249
 20
366.660000
 11
1142.013747
 21
361.125000
  0
LINE
  8
CSLAYER1
  6
CONTINUOUS
 62
     7
 10
1143.105249
 20
401.625000
 11
1143.105249
 21
361.125000
  0
LINE
  8
CSLAYER1
  6
CONTINUOUS
 62
     7
 10
1143.105249
 20
396.090000
 11
1142.013747
 21
401.625000
  0
LINE
  8
CSLAYER1
  6
CONTINUOUS
 62
     7
 10
1098.394749
 20
366.660000
 11
1099.486251
 21
361.125000
  0
LINE
  8
CSLAYER1
  6
CONTINUOUS
 62
     7
 10
1098.394749
 20
401.625000
 11
1098.394749
 21
361.125000
  0
LINE
  8
CSLAYER1
  6
CONTINUOUS
 62
     7
 10
1098.394749
 20
396.090000
 11
1099.486251
 21
401.625000
  0
LINE
  8
CSLAYER1
  6
CONTINUOUS
 62
     7
 10
1143.105249
 20
222.285000
 11
1142.013747
 21
216.750000
  0
LINE
  8
CSLAYER1
  6
CONTINUOUS
 62
     7
 10
1143.105249
 20
256.125000
 11
1143.105249
 21
216.750000
  0
LINE
  8
CSLAYER1
  6
CONTINUOUS
 62
     7
 10
1143.105249
 20
250.590000
 11
1142.013747
 21
256.125000
  0
LINE
  8
CSLAYER1
  6
CONTINUOUS
 62
     7
 10
1098.394749
 20
222.285000
 11
1099.486251
 21
216.750000
  0
LINE
  8
CSLAYER1
  6
CONTINUOUS
 62
     7
 10
1098.394749
 20
256.125000
 11
1098.394749
 21
216.750000
  0
LINE
  8
CSLAYER1
  6
CONTINUOUS
 62
     7
 10
1098.394749
 20
250.590000
 11
1099.486251
 21
256.125000
  0
ARC
  8
CSLAYER1
  6
CONTINUOUS
 62
     7
 10
1120.749999
 20
444.375000
 40
58.125000
 50
-67.380690
 51
247.380690
  0
ARC
  8
CSLAYER1
  6
CONTINUOUS
 62
     7
 10
1120.749999
 20
444.375000
 40
34.500000
 50
-41.409622
 51
221.409622
  0
ARC
  8
CSLAYER1
  6
CONTINUOUS
 62
     7
 10
1120.749999
 20
444.375000
 40
25.875000
 50
0.000000
 51
180.000000
  0
ARC
  8
CSLAYER1
  6
CONTINUOUS
 62
     7
 10
1120.749999
 20
444.375000
 40
30.000000
 50
-30.401548
 51
210.401548
  0
ARC
  8
CSLAYER1
  6
CONTINUOUS
 62
     7
 10
1120.749999
 20
444.375000
 40
30.750000
 50
-32.705023
 51
212.705023
  0
ARC
  8
CSLAYER1
  6
CONTINUOUS
 62
     7
 10
1120.749999
 20
444.375000
 40
56.625000
 50
-66.746829
 51
246.746829
  0
LINE
  8
CSLAYER1
  6
CONTINUOUS
 62
     7
 10
1146.624999
 20
174.000000
 11
1146.624999
 21
216.750000
  0
LINE
  8
CSLAYER1
  6
CONTINUOUS
 62
     7
 10
1094.874999
 20
174.000000
 11
1094.874999
 21
216.750000
  0
ARC
  8
CSLAYER1
  6
CONTINUOUS
 62
     7
 10
1120.749999
 20
174.000000
 40
58.125000
 50
-247.380690
 51
67.380690
  0
ARC
  8
CSLAYER1
  6
CONTINUOUS
 62
     7
 10
1120.749999
 20
174.000000
 40
34.500000
 50
-221.409622
 51
41.409622
  0
ARC
  8
CSLAYER1
  6
CONTINUOUS
 62
     7
 10
1120.749999
 20
174.000000
 40
25.875000
 50
180.000000
 51
360.000000
  0
ARC
  8
CSLAYER1
  6
CONTINUOUS
 62
     7
 10
1120.749999
 20
174.000000
 40
30.000000
 50
-210.401548
 51
30.401548
  0
ARC
  8
CSLAYER1
  6
CONTINUOUS
 62
     7
 10
1120.749999
 20
174.000000
 40
30.750000
 50
-212.705023
 51
32.705023
  0
ARC
  8
CSLAYER1
  6
CONTINUOUS
 62
     7
 10
1120.749999
 20
174.000000
 40
56.625000
 50
-246.746829
 51
66.746829
  0
LINE
  8
CSLAYER1
  6
CONTINUOUS
 62
     7
 10
1089.662502
 20
256.125000
 11
1151.837497
 21
256.125000
  0
LINE
  8
CSLAYER1
  6
CONTINUOUS
 62
     7
 10
1089.662502
 20
268.125000
 11
1151.837497
 21
268.125000
  0
LINE
  8
CSLAYER1
  6
CONTINUOUS
 62
     7
 10
1151.837497
 20
268.125000
 11
1151.837497
 21
256.125000
  0
LINE
  8
CSLAYER1
  6
CONTINUOUS
 62
     7
 10
1149.774696
 20
268.677727
 11
1151.837500
 21
268.125000
  0
LINE
  8
CSLAYER1
  6
CONTINUOUS
 62
     7
 10
1089.662502
 20
268.125000
 11
1089.662502
 21
256.125000
  0
LINE
  8
CSLAYER1
  6
CONTINUOUS
 62
     7
 10
1091.725302
 20
268.677727
 11
1089.662499
 21
268.125000
  0
LINE
  8
CSLAYER1
  6
CONTINUOUS
 62
     7
 10
1089.662502
 20
361.125000
 11
1151.837497
 21
361.125000
  0
LINE
  8
CSLAYER1
  6
CONTINUOUS
 62
     7
 10
1089.662502
 20
349.125000
 11
1151.837497
 21
349.125000
  0
LINE
  8
CSLAYER1
  6
CONTINUOUS
 62
     7
 10
1151.837497
 20
349.125000
 11
1151.837497
 21
361.125000
  0
LINE
  8
CSLAYER1
  6
CONTINUOUS
 62
     7
 10
1149.774696
 20
348.572274
 11
1151.837500
 21
349.125000
  0
LINE
  8
CSLAYER1
  6
CONTINUOUS
 62
     7
 10
1089.662502
 20
349.125000
 11
1089.662502
 21
361.125000
  0
LINE
  8
CSLAYER1
  6
CONTINUOUS
 62
     7
 10
1091.725302
 20
348.572274
 11
1089.662499
 21
349.125000
  0
LINE
  8
CSLAYER1
  6
CONTINUOUS
 62
     7
 10
1082.499999
 20
334.500000
 11
1082.499999
 21
282.750000
  0
LINE
  8
CSLAYER1
  6
CONTINUOUS
 62
     7
 10
1085.874999
 20
334.500000
 11
1085.874999
 21
282.750000
  0
LINE
  8
CSLAYER1
  6
CONTINUOUS
 62
     7
 10
1079.649333
 20
282.750000
 11
1085.874999
 21
282.750000
  0
LINE
  8
CSLAYER1
  6
CONTINUOUS
 62
     7
 10
1085.874999
 20
283.500000
 11
1089.084690
 21
283.500000
  0
LINE
  8
CSLAYER1
  6
CONTINUOUS
 62
     7
 10
1085.874999
 20
333.750000
 11
1089.084690
 21
333.750000
  0
LINE
  8
CSLAYER1
  6
CONTINUOUS
 62
     7
 10
1078.374999
 20
327.712498
 11
1078.374999
 21
289.537503
  0
LINE
  8
CSLAYER1
  6
CONTINUOUS
 62
     7
 10
1069.749999
 20
327.712498
 11
1069.749999
 21
289.537503
  0
LINE
  8
CSLAYER1
  6
CONTINUOUS
 62
     7
 10
1044.624999
 20
297.000000
 11
1062.140903
 21
297.000000
  0
LINE
  8
CSLAYER1
  6
CONTINUOUS
 62
     7
 10
1069.749999
 20
289.537503
 11
1078.374999
 21
289.537503
  0
LINE
  8
CSLAYER1
  6
CONTINUOUS
 62
     7
 10
1069.526965
 20
290.802364
 11
1069.749999
 21
289.537503
  0
LINE
  8
CSLAYER1
  6
CONTINUOUS
 62
     7
 10
1078.374999
 20
289.537503
 11
1079.649333
 21
282.750003
  0
LINE
  8
CSLAYER1
  6
CONTINUOUS
 62
     7
 10
1069.749999
 20
298.665708
 11
1078.374999
 21
298.665708
  0
LINE
  8
CSLAYER1
  6
CONTINUOUS
 62
     7
 10
1079.649333
 20
334.500000
 11
1085.874999
 21
334.500000
  0
LINE
  8
CSLAYER1
  6
CONTINUOUS
 62
     7
 10
1044.624999
 20
320.250000
 11
1062.140903
 21
320.250000
  0
LINE
  8
CSLAYER1
  6
CONTINUOUS
 62
     7
 10
1069.749999
 20
327.712498
 11
1078.374999
 21
327.712498
  0
LINE
  8
CSLAYER1
  6
CONTINUOUS
 62
     7
 10
1069.526965
 20
326.447637
 11
1069.749999
 21
327.712497
  0
LINE
  8
CSLAYER1
  6
CONTINUOUS
 62
     7
 10
1078.374999
 20
327.712497
 11
1079.649333
 21
334.499997
  0
LINE
  8
CSLAYER1
  6
CONTINUOUS
 62
     7
 10
1069.749999
 20
318.584293
 11
1078.374999
 21
318.584293
  0
LINE
  8
CSLAYER1
  6
CONTINUOUS
 62
     7
 10
1023.999999
 20
293.024998
 11
1040.874999
 21
293.024998
  0
LINE
  8
CSLAYER1
  6
CONTINUOUS
 62
     7
 10
1023.999999
 20
324.225003
 11
1023.999999
 21
293.024998
  0
LINE
  8
CSLAYER1
  6
CONTINUOUS
 62
     7
 10
1040.874999
 20
324.225003
 11
1040.874999
 21
293.024998
  0
LINE
  8
CSLAYER1
  6
CONTINUOUS
 62
     7
 10
1023.999999
 20
324.225003
 11
1040.874999
 21
324.225003
  0
LINE
  8
CSLAYER1
  6
CONTINUOUS
 62
     7
 10
1023.999999
 20
300.397759
 11
1040.874999
 21
300.397759
  0
LINE
  8
CSLAYER1
  6
CONTINUOUS
 62
     7
 10
1023.999999
 20
316.852242
 11
1040.874999
 21
316.852242
  0
LINE
  8
CSLAYER1
  6
CONTINUOUS
 62
     7
 10
1013.550242
 20
303.000000
 11
1023.999999
 21
303.000000
  0
LINE
  8
CSLAYER1
  6
CONTINUOUS
 62
     7
 10
1013.550242
 20
317.625000
 11
1013.550242
 21
299.625000
  0
LINE
  8
CSLAYER1
  6
CONTINUOUS
 62
     7
 10
1005.300242
 20
359.020341
 11
1005.300242
 21
258.229660
  0
LINE
  8
CSLAYER1
  6
CONTINUOUS
 62
     7
 10
1005.300242
 20
299.192636
 11
1013.550242
 21
299.625000
  0
LINE
  8
CSLAYER1
  6
CONTINUOUS
 62
     7
 10
1005.300242
 20
282.487499
 11
1011.300242
 21
299.507079
  0
LINE
  8
CSLAYER1
  6
CONTINUOUS
 62
     7
 10
1002.675242
 20
359.250000
 11
1002.675242
 21
258.000000
  0
LINE
  8
CSLAYER1
  6
CONTINUOUS
 62
     7
 10
1005.300242
 20
258.229672
 11
1002.675242
 21
258.000018
  0
LINE
  8
CSLAYER1
  6
CONTINUOUS
 62
     7
 10
1005.300242
 20
286.904235
 11
1002.675242
 21
286.674577
  0
LINE
  8
CSLAYER1
  6
CONTINUOUS
 62
     7
 10
1005.300242
 20
265.360500
 11
1002.675242
 21
265.130843
  0
LINE
  8
CSLAYER1
  6
CONTINUOUS
 62
     7
 10
999.675242
 20
314.851152
 11
999.675242
 21
302.398849
  0
LINE
  8
CSLAYER1
  6
CONTINUOUS
 62
     7
 10
998.362742
 20
315.601152
 11
998.362742
 21
301.648849
  0
LINE
  8
CSLAYER1
  6
CONTINUOUS
 62
     7
 10
992.287734
 20
316.505511
 11
992.287734
 21
300.744489
  0
LINE
  8
CSLAYER1
  6
CONTINUOUS
 62
     7
 10
994.875242
 20
314.101152
 11
994.875242
 21
303.148849
  0
LINE
  8
CSLAYER1
  6
CONTINUOUS
 62
     7
 10
996.375242
 20
301.648849
 11
998.925242
 21
301.648849
  0
LINE
  8
CSLAYER1
  6
CONTINUOUS
 62
     7
 10
999.675242
 20
287.080147
 11
999.675242
 21
278.984894
  0
LINE
  8
CSLAYER1
  6
CONTINUOUS
 62
     7
 10
998.362742
 20
287.318722
 11
998.362742
 21
278.234894
  0
LINE
  8
CSLAYER1
  6
CONTINUOUS
 62
     7
 10
994.875242
 20
288.268845
 11
994.875242
 21
279.734894
  0
LINE
  8
CSLAYER1
  6
CONTINUOUS
 62
     7
 10
996.375242
 20
278.234894
 11
998.925242
 21
278.234894
  0
LINE
  8
CSLAYER1
  6
CONTINUOUS
 62
     7
 10
1005.300242
 20
318.057365
 11
1013.550242
 21
317.625001
  0
LINE
  8
CSLAYER1
  6
CONTINUOUS
 62
     7
 10
1005.300242
 20
334.762502
 11
1011.300242
 21
317.742921
  0
LINE
  8
CSLAYER1
  6
CONTINUOUS
 62
     7
 10
1005.300242
 20
359.020329
 11
1002.675227
 21
359.249983
  0
LINE
  8
CSLAYER1
  6
CONTINUOUS
 62
     7
 10
1005.300242
 20
330.345766
 11
1002.675242
 21
330.575424
  0
LINE
  8
CSLAYER1
  6
CONTINUOUS
 62
     7
 10
1005.300242
 20
351.889501
 11
1002.675242
 21
352.119158
  0
LINE
  8
CSLAYER1
  6
CONTINUOUS
 62
     7
 10
992.287734
 20
327.385323
 11
992.287734
 21
338.049260
  0
LINE
  8
CSLAYER1
  6
CONTINUOUS
 62
     7
 10
996.375242
 20
315.601152
 11
998.925242
 21
315.601152
  0
LINE
  8
CSLAYER1
  6
CONTINUOUS
 62
     7
 10
999.675242
 20
330.169854
 11
999.675242
 21
338.265107
  0
LINE
  8
CSLAYER1
  6
CONTINUOUS
 62
     7
 10
998.362742
 20
329.931279
 11
998.362742
 21
339.015107
  0
LINE
  8
CSLAYER1
  6
CONTINUOUS
 62
     7
 10
994.875242
 20
328.981156
 11
994.875242
 21
337.515107
  0
LINE
  8
CSLAYER1
  6
CONTINUOUS
 62
     7
 10
996.375242
 20
339.015107
 11
998.925242
 21
339.015107
  0
LINE
  8
CSLAYER1
  6
CONTINUOUS
 62
     7
 10
992.287734
 20
289.864678
 11
992.287734
 21
279.200741
  0
LINE
  8
CSLAYER1
  6
CONTINUOUS
 62
     7
 10
1013.550242
 20
314.250000
 11
1023.999999
 21
314.250000
  0
LINE
  8
CSLAYER1
  6
CONTINUOUS
 62
     7
 10
1136.771465
 20
268.125000
 11
1136.771465
 21
256.125000
  0
LINE
  8
CSLAYER1
  6
CONTINUOUS
 62
     7
 10
1136.771465
 20
349.125000
 11
1136.771465
 21
361.125000
  0
LINE
  8
CSLAYER1
  6
CONTINUOUS
 62
     7
 10
1104.728534
 20
268.125000
 11
1104.728534
 21
256.125000
  0
LINE
  8
CSLAYER1
  6
CONTINUOUS
 62
     7
 10
1104.728534
 20
349.125000
 11
1104.728534
 21
361.125000
  0
LINE
  8
CSLAYER1
  6
CONTINUOUS
 62
     7
 10
1079.649333
 20
334.500000
 11
1079.649333
 21
282.750000
  0
LINE
  8
CSLAYER1
  6
CONTINUOUS
 62
     7
 10
1044.624999
 20
320.625000
 11
1044.624999
 21
296.625000
  0
LINE
  8
CSLAYER1
  6
CONTINUOUS
 62
     7
 10
1040.874999
 20
296.625000
 11
1044.624999
 21
296.625000
  0
LINE
  8
CSLAYER1
  6
CONTINUOUS
 62
     7
 10
1040.874999
 20
320.625000
 11
1044.624999
 21
320.625000
  0
LINE
  8
CSLAYER1
  6
CONTINUOUS
 62
     7
 10
1040.874999
 20
297.000000
 11
1044.624999
 21
297.000000
  0
LINE
  8
CSLAYER1
  6
CONTINUOUS
 62
     7
 10
1040.874999
 20
320.250000
 11
1044.624999
 21
320.250000
  0
ARC
  8
CSLAYER1
  6
CONTINUOUS
 62
     7
 10
1043.874999
 20
308.625000
 40
109.125000
 50
-18.772820
 51
18.774750
  0
ARC
  8
CSLAYER1
  6
CONTINUOUS
 62
     7
 10
1150.745273
 20
272.299942
 40
3.750000
 50
161.227220
 51
254.999993
  0
ARC
  8
CSLAYER1
  6
CONTINUOUS
 62
     7
 10
1197.624999
 20
308.625000
 40
109.125000
 50
194.527011
 51
198.772820
  0
ARC
  8
CSLAYER1
  6
CONTINUOUS
 62
     7
 10
1090.754726
 20
272.299942
 40
3.750000
 50
-74.999990
 51
18.772780
  0
ARC
  8
CSLAYER1
  6
CONTINUOUS
 62
     7
 10
1150.745273
 20
344.950059
 40
3.750000
 50
105.000010
 51
198.772766
  0
ARC
  8
CSLAYER1
  6
CONTINUOUS
 62
     7
 10
1090.754726
 20
344.950059
 40
3.750000
 50
-18.772770
 51
74.999990
  0
ARC
  8
CSLAYER1
  6
CONTINUOUS
 62
     7
 10
1089.084690
 20
280.500000
 40
3.000000
 50
14.526970
 51
89.999910
  0
ARC
  8
CSLAYER1
  6
CONTINUOUS
 62
     7
 10
1197.624999
 20
308.625000
 40
109.125000
 50
161.227160
 51
165.472970
  0
ARC
  8
CSLAYER1
  6
CONTINUOUS
 62
     7
 10
1089.084690
 20
336.750000
 40
3.000000
 50
270.000090
 51
345.473040
  0
ARC
  8
CSLAYER1
  6
CONTINUOUS
 62
     7
 10
1062.140903
 20
289.500000
 40
7.500000
 50
10.000000
 51
90.000040
  0
ARC
  8
CSLAYER1
  6
CONTINUOUS
 62
     7
 10
1062.140903
 20
327.750000
 40
7.500000
 50
269.999964
 51
349.999980
  0
ARC
  8
CSLAYER1
  6
CONTINUOUS
 62
     7
 10
1007.602757
 20
305.746409
 40
48.000000
 50
256.741927
 51
264.107831
  0
ARC
  8
CSLAYER1
  6
CONTINUOUS
 62
     7
 10
998.995457
 20
269.170521
 40
10.425000
 50
226.103283
 51
256.685099
  0
ARC
  8
CSLAYER1
  6
CONTINUOUS
 62
     7
 10
996.600234
 20
266.635655
 40
6.937500
 50
149.073800
 51
225.849702
  0
ARC
  8
CSLAYER1
  6
CONTINUOUS
 62
     7
 10
1007.602757
 20
334.420979
 40
48.000000
 50
256.741927
 51
264.107831
  0
ARC
  8
CSLAYER1
  6
CONTINUOUS
 62
     7
 10
998.995457
 20
297.845089
 40
10.425000
 50
226.103283
 51
256.685099
  0
ARC
  8
CSLAYER1
  6
CONTINUOUS
 62
     7
 10
996.600234
 20
295.310223
 40
6.937500
 50
128.434660
 51
225.849702
  0
ARC
  8
CSLAYER1
  6
CONTINUOUS
 62
     7
 10
1007.602757
 20
312.877236
 40
48.000000
 50
256.741927
 51
264.107831
  0
ARC
  8
CSLAYER1
  6
CONTINUOUS
 62
     7
 10
998.995457
 20
276.301346
 40
10.425000
 50
226.103283
 51
256.685099
  0
ARC
  8
CSLAYER1
  6
CONTINUOUS
 62
     7
 10
996.600234
 20
273.766480
 40
6.937500
 50
128.434660
 51
225.849702
  0
ARC
  8
CSLAYER1
  6
CONTINUOUS
 62
     7
 10
996.375242
 20
303.148849
 40
1.500000
 50
180.000018
 51
270.000000
  0
ARC
  8
CSLAYER1
  6
CONTINUOUS
 62
     7
 10
998.925242
 20
302.398849
 40
0.750000
 50
270.000000
 51
359.999980
  0
ARC
  8
CSLAYER1
  6
CONTINUOUS
 62
     7
 10
996.375242
 20
279.734894
 40
1.500000
 50
180.000018
 51
270.000000
  0
ARC
  8
CSLAYER1
  6
CONTINUOUS
 62
     7
 10
998.925242
 20
278.984894
 40
0.750000
 50
270.000000
 51
359.999980
  0
ARC
  8
CSLAYER1
  6
CONTINUOUS
 62
     7
 10
1007.602757
 20
311.503591
 40
48.000000
 50
95.892190
 51
103.258090
  0
ARC
  8
CSLAYER1
  6
CONTINUOUS
 62
     7
 10
998.995457
 20
348.079479
 40
10.425000
 50
103.314920
 51
133.896730
  0
ARC
  8
CSLAYER1
  6
CONTINUOUS
 62
     7
 10
996.600234
 20
350.614346
 40
6.937500
 50
134.150320
 51
210.926186
  0
ARC
  8
CSLAYER1
  6
CONTINUOUS
 62
     7
 10
1007.602757
 20
282.829022
 40
48.000000
 50
95.892190
 51
103.258090
  0
ARC
  8
CSLAYER1
  6
CONTINUOUS
 62
     7
 10
998.995457
 20
319.404912
 40
10.425000
 50
103.314920
 51
133.896730
  0
ARC
  8
CSLAYER1
  6
CONTINUOUS
 62
     7
 10
996.600234
 20
321.939777
 40
6.937500
 50
134.150320
 51
231.565351
  0
ARC
  8
CSLAYER1
  6
CONTINUOUS
 62
     7
 10
1007.602757
 20
304.372765
 40
48.000000
 50
95.892190
 51
103.258090
  0
ARC
  8
CSLAYER1
  6
CONTINUOUS
 62
     7
 10
998.995457
 20
340.948655
 40
10.425000
 50
103.314920
 51
133.896730
  0
ARC
  8
CSLAYER1
  6
CONTINUOUS
 62
     7
 10
996.600234
 20
343.483521
 40
6.937500
 50
134.150320
 51
231.565341
  0
ARC
  8
CSLAYER1
  6
CONTINUOUS
 62
     7
 10
996.375242
 20
314.101152
 40
1.500000
 50
89.999980
 51
179.999963
  0
ARC
  8
CSLAYER1
  6
CONTINUOUS
 62
     7
 10
998.925242
 20
314.851152
 40
0.750000
 50
0.000000
 51
89.999980
  0
ARC
  8
CSLAYER1
  6
CONTINUOUS
 62
     7
 10
996.375242
 20
337.515107
 40
1.500000
 50
89.999980
 51
179.999963
  0
ARC
  8
CSLAYER1
  6
CONTINUOUS
 62
     7
 10
998.925242
 20
338.265107
 40
0.750000
 50
0.000000
 51
89.999980
  0
ARC
  8
CSLAYER1
  6
CONTINUOUS
 62
     7
 10
1061.294681
 20
308.625000
 40
39.236595
 50
-39.817650
 51
39.817640
  0
LINE
  8
CSLAYER1
  6
CONTINUOUS
 62
     7
 10
1099.322499
 20
476.194805
 11
1094.126347
 21
485.194805
  0
LINE
  8
CSLAYER1
  6
CONTINUOUS
 62
     7
 10
1094.126347
 20
485.194805
 11
1083.734042
 21
485.194805
  0
LINE
  8
CSLAYER1
  6
CONTINUOUS
 62
     7
 10
1083.734042
 20
485.194805
 11
1078.537889
 21
476.194805
  0
LINE
  8
CSLAYER1
  6
CONTINUOUS
 62
     7
 10
1078.537889
 20
476.194805
 11
1083.734042
 21
467.194805
  0
LINE
  8
CSLAYER1
  6
CONTINUOUS
 62
     7
 10
1083.734042
 20
467.194805
 11
1094.126347
 21
467.194805
  0
LINE
  8
CSLAYER1
  6
CONTINUOUS
 62
     7
 10
1094.126347
 20
467.194805
 11
1099.322499
 21
476.194805
  0
CIRCLE
  8
CSLAYER1
  6
CONTINUOUS
 62
     7
 10
1088.930194
 20
476.194805
 40
9.000000
  0
LINE
  8
CSLAYER1
  6
CONTINUOUS
 62
     7
 10
1094.874999
 20
420.258491
 11
1094.126347
 21
421.555195
  0
LINE
  8
CSLAYER1
  6
CONTINUOUS
 62
     7
 10
1094.126347
 20
421.555195
 11
1083.734042
 21
421.555195
  0
LINE
  8
CSLAYER1
  6
CONTINUOUS
 62
     7
 10
1083.734042
 20
421.555195
 11
1078.537889
 21
412.555195
  0
LINE
  8
CSLAYER1
  6
CONTINUOUS
 62
     7
 10
1078.537889
 20
412.555195
 11
1083.734042
 21
403.555195
  0
LINE
  8
CSLAYER1
  6
CONTINUOUS
 62
     7
 10
1083.734042
 20
403.555195
 11
1094.126347
 21
403.555195
  0
LINE
  8
CSLAYER1
  6
CONTINUOUS
 62
     7
 10
1094.126347
 20
403.555195
 11
1094.874999
 21
404.851900
  0
ARC
  8
CSLAYER1
  6
CONTINUOUS
 62
     7
 10
1088.930194
 20
412.555195
 40
9.000000
 50
48.659396
 51
311.340604
  0
LINE
  8
CSLAYER1
  6
CONTINUOUS
 62
     7
 10
1162.962109
 20
412.555195
 11
1157.765957
 21
421.555195
  0
LINE
  8
CSLAYER1
  6
CONTINUOUS
 62
     7
 10
1157.765957
 20
421.555195
 11
1147.373652
 21
421.555195
  0
LINE
  8
CSLAYER1
  6
CONTINUOUS
 62
     7
 10
1147.373652
 20
421.555195
 11
1146.624999
 21
420.258491
  0
LINE
  8
CSLAYER1
  6
CONTINUOUS
 62
     7
 10
1146.624999
 20
404.851900
 11
1147.373652
 21
403.555195
  0
LINE
  8
CSLAYER1
  6
CONTINUOUS
 62
     7
 10
1147.373652
 20
403.555195
 11
1157.765957
 21
403.555195
  0
LINE
  8
CSLAYER1
  6
CONTINUOUS
 62
     7
 10
1157.765957
 20
403.555195
 11
1162.962109
 21
412.555195
  0
ARC
  8
CSLAYER1
  6
CONTINUOUS
 62
     7
 10
1152.569805
 20
412.555195
 40
9.000000
 50
-131.340604
 51
131.340604
  0
LINE
  8
CSLAYER1
  6
CONTINUOUS
 62
     7
 10
1162.962109
 20
476.194805
 11
1157.765957
 21
485.194805
  0
LINE
  8
CSLAYER1
  6
CONTINUOUS
 62
     7
 10
1157.765957
 20
485.194805
 11
1147.373652
 21
485.194805
  0
LINE
  8
CSLAYER1
  6
CONTINUOUS
 62
     7
 10
1147.373652
 20
485.194805
 11
1142.177500
 21
476.194805
  0
LINE
  8
CSLAYER1
  6
CONTINUOUS
 62
     7
 10
1142.177500
 20
476.194805
 11
1147.373652
 21
467.194805
  0
LINE
  8
CSLAYER1
  6
CONTINUOUS
 62
     7
 10
1147.373652
 20
467.194805
 11
1157.765957
 21
467.194805
  0
LINE
  8
CSLAYER1
  6
CONTINUOUS
 62
     7
 10
1157.765957
 20
467.194805
 11
1162.962109
 21
476.194805
  0
CIRCLE
  8
CSLAYER1
  6
CONTINUOUS
 62
     7
 10
1152.569805
 20
476.194805
 40
9.000000
  0
LINE
  8
CSLAYER1
  6
CONTINUOUS
 62
     7
 10
1094.874999
 20
213.523101
 11
1094.126347
 21
214.819805
  0
LINE
  8
CSLAYER1
  6
CONTINUOUS
 62
     7
 10
1094.126347
 20
214.819805
 11
1083.734042
 21
214.819805
  0
LINE
  8
CSLAYER1
  6
CONTINUOUS
 62
     7
 10
1083.734042
 20
214.819805
 11
1078.537889
 21
205.819805
  0
LINE
  8
CSLAYER1
  6
CONTINUOUS
 62
     7
 10
1078.537889
 20
205.819805
 11
1083.734042
 21
196.819805
  0
LINE
  8
CSLAYER1
  6
CONTINUOUS
 62
     7
 10
1083.734042
 20
196.819805
 11
1094.126347
 21
196.819805
  0
LINE
  8
CSLAYER1
  6
CONTINUOUS
 62
     7
 10
1094.126347
 20
196.819805
 11
1094.874999
 21
198.116510
  0
ARC
  8
CSLAYER1
  6
CONTINUOUS
 62
     7
 10
1088.930194
 20
205.819805
 40
9.000000
 50
48.659396
 51
311.340604
  0
LINE
  8
CSLAYER1
  6
CONTINUOUS
 62
     7
 10
1162.962109
 20
205.819805
 11
1157.765957
 21
214.819805
  0
LINE
  8
CSLAYER1
  6
CONTINUOUS
 62
     7
 10
1157.765957
 20
214.819805
 11
1147.373652
 21
214.819805
  0
LINE
  8
CSLAYER1
  6
CONTINUOUS
 62
     7
 10
1147.373652
 20
214.819805
 11
1146.624999
 21
213.523101
  0
LINE
  8
CSLAYER1
  6
CONTINUOUS
 62
     7
 10
1146.624999
 20
198.116510
 11
1147.373652
 21
196.819805
  0
LINE
  8
CSLAYER1
  6
CONTINUOUS
 62
     7
 10
1147.373652
 20
196.819805
 11
1157.765957
 21
196.819805
  0
LINE
  8
CSLAYER1
  6
CONTINUOUS
 62
     7
 10
1157.765957
 20
196.819805
 11
1162.962109
 21
205.819805
  0
ARC
  8
CSLAYER1
  6
CONTINUOUS
 62
     7
 10
1152.569805
 20
205.819805
 40
9.000000
 50
-131.340604
 51
131.340604
  0
LINE
  8
CSLAYER1
  6
CONTINUOUS
 62
     7
 10
1162.962109
 20
142.180195
 11
1157.765957
 21
151.180195
  0
LINE
  8
CSLAYER1
  6
CONTINUOUS
 62
     7
 10
1157.765957
 20
151.180195
 11
1147.373652
 21
151.180195
  0
LINE
  8
CSLAYER1
  6
CONTINUOUS
 62
     7
 10
1147.373652
 20
151.180195
 11
1142.177500
 21
142.180195
  0
LINE
  8
CSLAYER1
  6
CONTINUOUS
 62
     7
 10
1142.177500
 20
142.180195
 11
1147.373652
 21
133.180195
  0
LINE
  8
CSLAYER1
  6
CONTINUOUS
 62
     7
 10
1147.373652
 20
133.180195
 11
1157.765957
 21
133.180195
  0
LINE
  8
CSLAYER1
  6
CONTINUOUS
 62
     7
 10
1157.765957
 20
133.180195
 11
1162.962109
 21
142.180195
  0
CIRCLE
  8
CSLAYER1
  6
CONTINUOUS
 62
     7
 10
1152.569805
 20
142.180195
 40
9.000000
  0
LINE
  8
CSLAYER1
  6
CONTINUOUS
 62
     7
 10
1078.537889
 20
142.180195
 11
1083.734042
 21
151.180195
  0
LINE
  8
CSLAYER1
  6
CONTINUOUS
 62
     7
 10
1083.734042
 20
151.180195
 11
1094.126347
 21
151.180195
  0
LINE
  8
CSLAYER1
  6
CONTINUOUS
 62
     7
 10
1094.126347
 20
151.180195
 11
1099.322499
 21
142.180195
  0
LINE
  8
CSLAYER1
  6
CONTINUOUS
 62
     7
 10
1099.322499
 20
142.180195
 11
1094.126347
 21
133.180195
  0
LINE
  8
CSLAYER1
  6
CONTINUOUS
 62
     7
 10
1094.126347
 20
133.180195
 11
1083.734042
 21
133.180195
  0
LINE
  8
CSLAYER1
  6
CONTINUOUS
 62
     7
 10
1083.734042
 20
133.180195
 11
1078.537889
 21
142.180195
  0
CIRCLE
  8
CSLAYER1
  6
CONTINUOUS
 62
     7
 10
1088.930194
 20
142.180195
 40
9.000000
  0
LINE
  8
CSLAYER1
  6
CONTINUOUS
 62
     7
 10
1005.300242
 20
275.250000
 11
1093.729018
 21
275.250000
  0
LINE
  8
CSLAYER1
  6
CONTINUOUS
 62
     7
 10
1007.243592
 20
329.250000
 11
1078.663661
 21
329.250000
  0
LINE
  8
CSLAYER1
  6
CONTINUOUS
 62
     7
 10
1396.749999
 20
300.750000
 11
1396.749999
 21
276.750000
  0
LINE
  8
CSLAYER1
  6
CONTINUOUS
 62
     7
 10
1287.249999
 20
216.000000
 11
1287.249999
 21
82.125000
  0
ARC
  8
CSLAYER1
  6
CONTINUOUS
 62
     7
 10
1299.249999
 20
216.000000
 40
12.000000
 50
90.000000
 51
180.000000
  0
ARC
  8
CSLAYER1
  6
CONTINUOUS
 62
     7
 10
1290.624999
 20
82.125000
 40
3.375000
 50
180.000000
 51
270.000000
  0
ARC
  8
CSLAYER1
  6
CONTINUOUS
 62
     7
 10
1327.749999
 20
254.250000
 40
26.250000
 50
270.000000
 51
360.000000
  0
LINE
  8
CSLAYER1
  6
CONTINUOUS
 62
     7
 10
1395.999999
 20
301.500000
 11
1396.749999
 21
300.750000
  0
LINE
  8
CSLAYER1
  6
CONTINUOUS
 62
     7
 10
1396.749999
 20
276.750000
 11
1395.249999
 21
275.250000
  0
LINE
  8
CSLAYER1
  6
CONTINUOUS
 62
     7
 10
1330.749999
 20
77.250000
 11
1330.749999
 21
51.750000
  0
LINE
  8
CSLAYER1
  6
CONTINUOUS
 62
     7
 10
1329.249999
 20
78.750000
 11
1330.749999
 21
77.250000
  0
LINE
  8
CSLAYER1
  6
CONTINUOUS
 62
     7
 10
1330.749999
 20
51.750000
 11
1329.999999
 21
51.000000
  0
LINE
  8
CSLAYER1
  6
CENTER
 62
     2
 10
1311.999999
 20
90.000000
 11
1311.999999
 21
42.000000
  0
LINE
  8
CSLAYER1
  6
CONTINUOUS
 62
     7
 10
1396.749999
 20
561.000000
 11
1396.749999
 21
585.000000
  0
LINE
  8
CSLAYER1
  6
CONTINUOUS
 62
     7
 10
1396.749999
 20
327.750000
 11
1396.749999
 21
303.750000
  0
LINE
  8
CSLAYER1
  6
CONTINUOUS
 62
     7
 10
1353.249999
 20
303.000000
 11
1353.249999
 21
301.500000
  0
LINE
  8
CSLAYER1
  6
CONTINUOUS
 62
     7
 10
1353.624999
 20
538.500000
 11
1353.624999
 21
340.500000
  0
LINE
  8
CSLAYER1
  6
CONTINUOUS
 62
     7
 10
1395.249999
 20
559.500000
 11
1396.749999
 21
561.000000
  0
LINE
  8
CSLAYER1
  6
CONTINUOUS
 62
     7
 10
1395.249999
 20
329.250000
 11
1396.749999
 21
327.750000
  0
LINE
  8
CSLAYER1
  6
CONTINUOUS
 62
     7
 10
1395.999999
 20
585.750000
 11
1396.749999
 21
585.000000
  0
LINE
  8
CSLAYER1
  6
CONTINUOUS
 62
     7
 10
1396.749999
 20
303.750000
 11
1395.999999
 21
303.000000
  0
LINE
  8
CSLAYER1
  6
CONTINUOUS
 62
     7
 10
1330.749999
 20
747.750000
 11
1330.749999
 21
722.250000
  0
LINE
  8
CSLAYER1
  6
CENTER
 62
     2
 10
1308.249999
 20
757.500000
 11
1308.249999
 21
709.500000
  0
LINE
  8
CSLAYER1
  6
CONTINUOUS
 62
     7
 10
1396.749999
 20
612.000000
 11
1396.749999
 21
588.000000
  0
LINE
  8
CSLAYER1
  6
CONTINUOUS
 62
     7
 10
1353.249999
 20
587.250000
 11
1353.249999
 21
585.750000
  0
LINE
  8
CSLAYER1
  6
CONTINUOUS
 62
     7
 10
1287.249999
 20
717.375000
 11
1287.249999
 21
672.000000
  0
LINE
  8
CSLAYER1
  6
CONTINUOUS
 62
     7
 10
1354.749999
 20
624.750000
 11
1354.749999
 21
633.750000
  0
LINE
  8
CSLAYER1
  6
CONTINUOUS
 62
     7
 10
1328.499999
 20
660.000000
 11
1120.749999
 21
660.000000
  0
LINE
  8
CSLAYER1
  6
CONTINUOUS
 62
     7
 10
1396.749999
 20
588.000000
 11
1395.999999
 21
587.250000
  0
LINE
  8
CSLAYER1
  6
CONTINUOUS
 62
     7
 10
1330.749999
 20
722.250000
 11
1329.249999
 21
720.750000
  0
LINE
  8
CSLAYER1
  6
CONTINUOUS
 62
     7
 10
1395.249999
 20
613.500000
 11
1396.749999
 21
612.000000
  0
ARC
  8
CSLAYER1
  6
CONTINUOUS
 62
     7
 10
1290.624999
 20
717.375000
 40
3.375000
 50
90.000000
 51
180.000000
  0
ARC
  8
CSLAYER1
  6
CONTINUOUS
 62
     7
 10
1299.249999
 20
672.000000
 40
12.000000
 50
180.000000
 51
270.000000
  0
ARC
  8
CSLAYER1
  6
CONTINUOUS
 62
     7
 10
1328.499999
 20
633.750000
 40
26.250000
 50
0.000000
 51
90.000000
  0
LINE
  8
CSLAYER1
  6
CONTINUOUS
 62
     7
 10
1329.999999
 20
748.500000
 11
1330.749999
 21
747.750000
  0
LINE
  8
CSLAYER1
  6
CENTER
 62
     2
 10
614.499999
 20
205.819805
 11
548.500002
 21
205.819805
  0
LINE
  8
CSLAYER1
  6
CONTINUOUS
 62
     7
 10
607.749999
 20
196.819805
 11
606.948926
 21
195.432305
  0
LINE
  8
CSLAYER1
  6
CONTINUOUS
 62
     7
 10
607.749999
 20
214.819805
 11
606.948926
 21
216.207305
  0
LINE
  8
CSLAYER1
  6
CONTINUOUS
 62
     7
 10
606.948926
 20
216.207305
 11
600.249999
 21
216.207305
  0
LINE
  8
CSLAYER1
  6
CONTINUOUS
 62
     7
 10
600.249999
 20
216.207305
 11
600.249999
 21
195.319805
  0
LINE
  8
CSLAYER1
  6
CONTINUOUS
 62
     7
 10
600.249999
 20
195.432305
 11
606.948926
 21
195.432305
  0
LINE
  8
CSLAYER1
  6
CONTINUOUS
 62
     7
 10
607.749999
 20
196.819805
 11
607.749999
 21
214.819805
  0
ARC
  8
CSLAYER1
  6
CONTINUOUS
 62
     7
 10
603.140261
 20
198.029180
 40
4.609738
 50
-34.287473
 51
34.287473
  0
ARC
  8
CSLAYER1
  6
CONTINUOUS
 62
     7
 10
590.512656
 20
205.819805
 40
17.237343
 50
-17.536184
 51
17.536184
  0
ARC
  8
CSLAYER1
  6
CONTINUOUS
 62
     7
 10
603.140261
 20
213.610430
 40
4.609738
 50
-34.287473
 51
34.287473
  0
LINE
  8
CSLAYER1
  6
CONTINUOUS
 62
     7
 10
606.948926
 20
200.626055
 11
600.249999
 21
200.626055
  0
LINE
  8
CSLAYER1
  6
CONTINUOUS
 62
     7
 10
606.948926
 20
211.013555
 11
600.249999
 21
211.013555
  0
LINE
  8
CSLAYER1
  6
CONTINUOUS
 62
     7
 10
552.400002
 20
211.819808
 11
557.500002
 21
211.819808
  0
LINE
  8
CSLAYER1
  6
CONTINUOUS
 62
     7
 10
551.500002
 20
200.719808
 11
551.500002
 21
210.919808
  0
LINE
  8
CSLAYER1
  6
CONTINUOUS
 62
     7
 10
552.400002
 20
211.819808
 11
551.500002
 21
210.919808
  0
LINE
  8
CSLAYER1
  6
CONTINUOUS
 62
     7
 10
552.400002
 20
199.819808
 11
551.500002
 21
200.719808
  0
LINE
  8
CSLAYER1
  6
CONTINUOUS
 62
     7
 10
552.400002
 20
211.819808
 11
552.400002
 21
199.819808
  0
LINE
  8
CSLAYER1
  6
CONTINUOUS
 62
     7
 10
567.250002
 20
195.427497
 11
567.249997
 21
216.207308
  0
LINE
  8
CSLAYER1
  6
CONTINUOUS
 62
     7
 10
567.250002
 20
195.427497
 11
558.303853
 21
195.427497
  0
LINE
  8
CSLAYER1
  6
CONTINUOUS
 62
     7
 10
557.500002
 20
196.819808
 11
557.500002
 21
214.819808
  0
LINE
  8
CSLAYER1
  6
CONTINUOUS
 62
     7
 10
567.249997
 20
216.207308
 11
558.301076
 21
216.207308
  0
LINE
  8
CSLAYER1
  6
CONTINUOUS
 62
     7
 10
557.500002
 20
214.819808
 11
558.301076
 21
216.207308
  0
LINE
  8
CSLAYER1
  6
CONTINUOUS
 62
     7
 10
557.500002
 20
196.819808
 11
558.301076
 21
195.432308
  0
ARC
  8
CSLAYER1
  6
CONTINUOUS
 62
     7
 10
560.904345
 20
214.013558
 40
3.404343
 50
139.879485
 51
220.120515
  0
ARC
  8
CSLAYER1
  6
CONTINUOUS
 62
     7
 10
580.370387
 20
205.819808
 40
22.870385
 50
164.790570
 51
195.209430
  0
ARC
  8
CSLAYER1
  6
CONTINUOUS
 62
     7
 10
560.904345
 20
197.626058
 40
3.404343
 50
139.879485
 51
220.120515
  0
LINE
  8
CSLAYER1
  6
CONTINUOUS
 62
     7
 10
558.301076
 20
211.819808
 11
567.249998
 21
211.819808
  0
LINE
  8
CSLAYER1
  6
CONTINUOUS
 62
     7
 10
558.301076
 20
199.819808
 11
567.250001
 21
199.819808
  0
LINE
  8
CSLAYER1
  6
CONTINUOUS
 62
     7
 10
557.500002
 20
211.006058
 11
551.586252
 21
211.006058
  0
LINE
  8
CSLAYER1
  6
CONTINUOUS
 62
     7
 10
557.500002
 20
200.633558
 11
551.586252
 21
200.633558
  0
LINE
  8
CSLAYER1
  6
CONTINUOUS
 62
     7
 10
557.500002
 20
199.819808
 11
552.400002
 21
199.819808
  0
LINE
  8
CSLAYER1
  6
CENTER
 62
     2
 10
614.499999
 20
142.180195
 11
548.500002
 21
142.180195
  0
LINE
  8
CSLAYER1
  6
CONTINUOUS
 62
     7
 10
607.749999
 20
151.180195
 11
606.948926
 21
152.567695
  0
LINE
  8
CSLAYER1
  6
CONTINUOUS
 62
     7
 10
607.749999
 20
133.180195
 11
606.948926
 21
131.792695
  0
LINE
  8
CSLAYER1
  6
CONTINUOUS
 62
     7
 10
606.948926
 20
131.792695
 11
600.249999
 21
131.792695
  0
LINE
  8
CSLAYER1
  6
CONTINUOUS
 62
     7
 10
600.249999
 20
131.792695
 11
600.249999
 21
152.680195
  0
LINE
  8
CSLAYER1
  6
CONTINUOUS
 62
     7
 10
600.249999
 20
152.567695
 11
606.948926
 21
152.567695
  0
LINE
  8
CSLAYER1
  6
CONTINUOUS
 62
     7
 10
607.749999
 20
151.180195
 11
607.749999
 21
133.180195
  0
ARC
  8
CSLAYER1
  6
CONTINUOUS
 62
     7
 10
603.140261
 20
149.970820
 40
4.609738
 50
-34.287473
 51
34.287473
  0
ARC
  8
CSLAYER1
  6
CONTINUOUS
 62
     7
 10
590.512656
 20
142.180195
 40
17.237343
 50
-17.536184
 51
17.536184
  0
ARC
  8
CSLAYER1
  6
CONTINUOUS
 62
     7
 10
603.140261
 20
134.389570
 40
4.609738
 50
-34.287473
 51
34.287473
  0
LINE
  8
CSLAYER1
  6
CONTINUOUS
 62
     7
 10
606.948926
 20
147.373945
 11
600.249999
 21
147.373945
  0
LINE
  8
CSLAYER1
  6
CONTINUOUS
 62
     7
 10
606.948926
 20
136.986445
 11
600.249999
 21
136.986445
  0
LINE
  8
CSLAYER1
  6
CONTINUOUS
 62
     7
 10
552.400002
 20
136.180193
 11
557.500002
 21
136.180193
  0
LINE
  8
CSLAYER1
  6
CONTINUOUS
 62
     7
 10
551.500002
 20
147.280193
 11
551.500002
 21
137.080193
  0
LINE
  8
CSLAYER1
  6
CONTINUOUS
 62
     7
 10
552.400002
 20
136.180193
 11
551.500002
 21
137.080193
  0
LINE
  8
CSLAYER1
  6
CONTINUOUS
 62
     7
 10
552.400002
 20
148.180193
 11
551.500002
 21
147.280193
  0
LINE
  8
CSLAYER1
  6
CONTINUOUS
 62
     7
 10
552.400002
 20
136.180193
 11
552.400002
 21
148.180193
  0
LINE
  8
CSLAYER1
  6
CONTINUOUS
 62
     7
 10
567.250002
 20
152.572504
 11
567.249997
 21
131.792693
  0
LINE
  8
CSLAYER1
  6
CONTINUOUS
 62
     7
 10
567.250002
 20
152.572504
 11
558.303853
 21
152.572504
  0
LINE
  8
CSLAYER1
  6
CONTINUOUS
 62
     7
 10
557.500002
 20
151.180193
 11
557.500002
 21
133.180193
  0
LINE
  8
CSLAYER1
  6
CONTINUOUS
 62
     7
 10
567.249997
 20
131.792693
 11
558.301076
 21
131.792693
  0
LINE
  8
CSLAYER1
  6
CONTINUOUS
 62
     7
 10
557.500002
 20
133.180193
 11
558.301076
 21
131.792693
  0
LINE
  8
CSLAYER1
  6
CONTINUOUS
 62
     7
 10
557.500002
 20
151.180193
 11
558.301076
 21
152.567693
  0
ARC
  8
CSLAYER1
  6
CONTINUOUS
 62
     7
 10
560.904345
 20
133.986443
 40
3.404343
 50
139.879485
 51
220.120515
  0
ARC
  8
CSLAYER1
  6
CONTINUOUS
 62
     7
 10
580.370387
 20
142.180193
 40
22.870385
 50
164.790570
 51
195.209430
  0
ARC
  8
CSLAYER1
  6
CONTINUOUS
 62
     7
 10
560.904345
 20
150.373943
 40
3.404343
 50
139.879485
 51
220.120515
  0
LINE
  8
CSLAYER1
  6
CONTINUOUS
 62
     7
 10
558.301076
 20
136.180193
 11
567.249998
 21
136.180193
  0
LINE
  8
CSLAYER1
  6
CONTINUOUS
 62
     7
 10
558.301076
 20
148.180193
 11
567.250001
 21
148.180193
  0
LINE
  8
CSLAYER1
  6
CONTINUOUS
 62
     7
 10
557.500002
 20
136.993943
 11
551.586252
 21
136.993943
  0
LINE
  8
CSLAYER1
  6
CONTINUOUS
 62
     7
 10
557.500002
 20
147.366443
 11
551.586252
 21
147.366443
  0
LINE
  8
CSLAYER1
  6
CONTINUOUS
 62
     7
 10
557.500002
 20
148.180193
 11
552.400002
 21
148.180193
  0
LINE
  8
CSLAYER1
  6
CENTER
 62
     2
 10
642.999999
 20
412.555195
 11
577.000002
 21
412.555195
  0
LINE
  8
CSLAYER1
  6
CONTINUOUS
 62
     7
 10
636.249999
 20
421.555195
 11
635.448926
 21
422.942695
  0
LINE
  8
CSLAYER1
  6
CONTINUOUS
 62
     7
 10
636.249999
 20
403.555195
 11
635.448926
 21
402.167695
  0
LINE
  8
CSLAYER1
  6
CONTINUOUS
 62
     7
 10
635.448926
 20
402.167695
 11
628.749999
 21
402.167695
  0
LINE
  8
CSLAYER1
  6
CONTINUOUS
 62
     7
 10
628.749999
 20
402.167695
 11
628.749999
 21
423.055195
  0
LINE
  8
CSLAYER1
  6
CONTINUOUS
 62
     7
 10
628.749999
 20
422.942695
 11
635.448926
 21
422.942695
  0
LINE
  8
CSLAYER1
  6
CONTINUOUS
 62
     7
 10
636.249999
 20
421.555195
 11
636.249999
 21
403.555195
  0
ARC
  8
CSLAYER1
  6
CONTINUOUS
 62
     7
 10
631.640261
 20
420.345820
 40
4.609738
 50
-34.287473
 51
34.287473
  0
ARC
  8
CSLAYER1
  6
CONTINUOUS
 62
     7
 10
619.012656
 20
412.555195
 40
17.237343
 50
-17.536184
 51
17.536184
  0
ARC
  8
CSLAYER1
  6
CONTINUOUS
 62
     7
 10
631.640261
 20
404.764570
 40
4.609738
 50
-34.287473
 51
34.287473
  0
LINE
  8
CSLAYER1
  6
CONTINUOUS
 62
     7
 10
635.448926
 20
417.748945
 11
628.749999
 21
417.748945
  0
LINE
  8
CSLAYER1
  6
CONTINUOUS
 62
     7
 10
635.448926
 20
407.361445
 11
628.749999
 21
407.361445
  0
LINE
  8
CSLAYER1
  6
CONTINUOUS
 62
     7
 10
580.900002
 20
406.555193
 11
586.000002
 21
406.555193
  0
LINE
  8
CSLAYER1
  6
CONTINUOUS
 62
     7
 10
580.000002
 20
417.655193
 11
580.000002
 21
407.455193
  0
LINE
  8
CSLAYER1
  6
CONTINUOUS
 62
     7
 10
580.900002
 20
406.555193
 11
580.000002
 21
407.455193
  0
LINE
  8
CSLAYER1
  6
CONTINUOUS
 62
     7
 10
580.900002
 20
418.555193
 11
580.000002
 21
417.655193
  0
LINE
  8
CSLAYER1
  6
CONTINUOUS
 62
     7
 10
580.900002
 20
406.555193
 11
580.900002
 21
418.555193
  0
LINE
  8
CSLAYER1
  6
CONTINUOUS
 62
     7
 10
595.750002
 20
422.947504
 11
595.749997
 21
402.167693
  0
LINE
  8
CSLAYER1
  6
CONTINUOUS
 62
     7
 10
595.750002
 20
422.947504
 11
586.803853
 21
422.947504
  0
LINE
  8
CSLAYER1
  6
CONTINUOUS
 62
     7
 10
586.000002
 20
421.555193
 11
586.000002
 21
403.555193
  0
LINE
  8
CSLAYER1
  6
CONTINUOUS
 62
     7
 10
595.749997
 20
402.167693
 11
586.801076
 21
402.167693
  0
LINE
  8
CSLAYER1
  6
CONTINUOUS
 62
     7
 10
586.000002
 20
403.555193
 11
586.801076
 21
402.167693
  0
LINE
  8
CSLAYER1
  6
CONTINUOUS
 62
     7
 10
586.000002
 20
421.555193
 11
586.801076
 21
422.942693
  0
ARC
  8
CSLAYER1
  6
CONTINUOUS
 62
     7
 10
589.404345
 20
404.361443
 40
3.404343
 50
139.879485
 51
220.120515
  0
ARC
  8
CSLAYER1
  6
CONTINUOUS
 62
     7
 10
608.870387
 20
412.555193
 40
22.870385
 50
164.790570
 51
195.209430
  0
ARC
  8
CSLAYER1
  6
CONTINUOUS
 62
     7
 10
589.404345
 20
420.748943
 40
3.404343
 50
139.879485
 51
220.120515
  0
LINE
  8
CSLAYER1
  6
CONTINUOUS
 62
     7
 10
586.801076
 20
406.555193
 11
595.749998
 21
406.555193
  0
LINE
  8
CSLAYER1
  6
CONTINUOUS
 62
     7
 10
586.801076
 20
418.555193
 11
595.750001
 21
418.555193
  0
LINE
  8
CSLAYER1
  6
CONTINUOUS
 62
     7
 10
586.000002
 20
407.368943
 11
580.086252
 21
407.368943
  0
LINE
  8
CSLAYER1
  6
CONTINUOUS
 62
     7
 10
586.000002
 20
417.741443
 11
580.086252
 21
417.741443
  0
LINE
  8
CSLAYER1
  6
CONTINUOUS
 62
     7
 10
586.000002
 20
418.555193
 11
580.900002
 21
418.555193
  0
LINE
  8
CSLAYER1
  6
CENTER
 62
     2
 10
330.999999
 20
763.500000
 11
330.999999
 21
1345.500000
  0
LINE
  8
CSLAYER1
  6
CENTER
 62
     2
 10
39.999999
 20
1054.500000
 11
735.624999
 21
1054.500000
  0
CIRCLE
  8
CSLAYER1
  6
CONTINUOUS
 62
     7
 10
330.999999
 20
1054.500000
 40
150.000000
  0
CIRCLE
  8
CSLAYER1
  6
CONTINUOUS
 62
     7
 10
330.999999
 20
1054.500000
 40
210.000000
  0
CIRCLE
  8
CSLAYER1
  6
CENTER
 62
     2
 10
330.999999
 20
1054.500000
 40
187.500000
  0
ARC
  8
CSLAYER1
  6
CONTINUOUS
 62
     7
 10
330.999999
 20
1054.500000
 40
276.000000
 50
12.157389
 51
347.842611
  0
CIRCLE
  8
CSLAYER1
  6
CONTINUOUS
 62
     7
 10
330.999999
 20
1054.500000
 40
234.000000
  0
CIRCLE
  8
CSLAYER1
  6
CENTER
 62
     2
 10
330.999999
 20
1054.500000
 40
257.250000
  0
LINE
  8
CSLAYER1
  6
CENTER
 62
     2
 10
94.325181
 20
1017.014392
 11
59.509167
 21
1011.500077
  0
LINE
  8
CSLAYER1
  6
CENTER
 62
     2
 10
164.389100
 20
1021.359032
 11
129.816419
 21
1014.482098
  0
CIRCLE
  8
CSLAYER1
  6
CONTINUOUS
 62
     7
 10
147.102759
 20
1017.920565
 40
10.125000
  0
LINE
  8
CSLAYER1
  6
CENTER
 62
     2
 10
189.754099
 20
960.122507
 11
160.444795
 21
940.538656
  0
CIRCLE
  8
CSLAYER1
  6
CONTINUOUS
 62
     7
 10
175.099447
 20
950.330582
 40
10.125000
  0
LINE
  8
CSLAYER1
  6
CENTER
 62
     2
 10
236.622506
 20
913.254100
 11
217.038655
 21
883.944796
  0
CIRCLE
  8
CSLAYER1
  6
CONTINUOUS
 62
     7
 10
226.830581
 20
898.599448
 40
10.125000
  0
LINE
  8
CSLAYER1
  6
CENTER
 62
     2
 10
297.859031
 20
887.889101
 11
290.982097
 21
853.316420
  0
CIRCLE
  8
CSLAYER1
  6
CONTINUOUS
 62
     7
 10
294.420564
 20
870.602760
 40
10.125000
  0
LINE
  8
CSLAYER1
  6
CENTER
 62
     2
 10
497.610899
 20
1021.359032
 11
532.183580
 21
1014.482098
  0
CIRCLE
  8
CSLAYER1
  6
CONTINUOUS
 62
     7
 10
514.897240
 20
1017.920565
 40
10.125000
  0
LINE
  8
CSLAYER1
  6
CENTER
 62
     2
 10
472.245900
 20
960.122507
 11
501.555204
 21
940.538656
  0
CIRCLE
  8
CSLAYER1
  6
CONTINUOUS
 62
     7
 10
486.900552
 20
950.330582
 40
10.125000
  0
LINE
  8
CSLAYER1
  6
CENTER
 62
     2
 10
425.377493
 20
913.254100
 11
444.961343
 21
883.944796
  0
CIRCLE
  8
CSLAYER1
  6
CONTINUOUS
 62
     7
 10
435.169418
 20
898.599448
 40
10.125000
  0
LINE
  8
CSLAYER1
  6
CENTER
 62
     2
 10
364.140968
 20
887.889101
 11
371.017902
 21
853.316420
  0
CIRCLE
  8
CSLAYER1
  6
CONTINUOUS
 62
     7
 10
367.579435
 20
870.602760
 40
10.125000
  0
CIRCLE
  8
CSLAYER1
  6
CONTINUOUS
 62
     7
 10
76.917174
 20
1014.257234
 40
13.500000
  0
LINE
  8
CSLAYER1
  6
CONTINUOUS
 62
     7
 10
82.503577
 20
1028.810313
 11
67.107040
 21
1026.371741
  0
LINE
  8
CSLAYER1
  6
CONTINUOUS
 62
     7
 10
67.107040
 20
1026.371741
 11
61.520636
 21
1011.818662
  0
LINE
  8
CSLAYER1
  6
CONTINUOUS
 62
     7
 10
61.520636
 20
1011.818662
 11
71.330770
 21
999.704156
  0
LINE
  8
CSLAYER1
  6
CONTINUOUS
 62
     7
 10
71.330770
 20
999.704156
 11
86.727308
 21
1002.142728
  0
LINE
  8
CSLAYER1
  6
CONTINUOUS
 62
     7
 10
86.727308
 20
1002.142728
 11
92.313711
 21
1016.695806
  0
LINE
  8
CSLAYER1
  6
CONTINUOUS
 62
     7
 10
92.313711
 20
1016.695806
 11
82.503577
 21
1028.810313
  0
LINE
  8
CSLAYER1
  6
CENTER
 62
     2
 10
117.492561
 20
945.712527
 11
86.084581
 21
929.709362
  0
CIRCLE
  8
CSLAYER1
  6
CONTINUOUS
 62
     7
 10
101.788571
 20
937.710944
 40
13.500000
  0
LINE
  8
CSLAYER1
  6
CONTINUOUS
 62
     7
 10
114.862151
 20
929.220862
 11
100.972734
 21
922.143850
  0
LINE
  8
CSLAYER1
  6
CONTINUOUS
 62
     7
 10
100.972734
 20
922.143850
 11
87.899154
 21
930.633933
  0
LINE
  8
CSLAYER1
  6
CONTINUOUS
 62
     7
 10
87.899154
 20
930.633933
 11
88.714991
 21
946.201027
  0
LINE
  8
CSLAYER1
  6
CONTINUOUS
 62
     7
 10
88.714991
 20
946.201027
 11
102.604408
 21
953.278038
  0
LINE
  8
CSLAYER1
  6
CONTINUOUS
 62
     7
 10
102.604408
 20
953.278038
 11
115.677988
 21
944.787956
  0
LINE
  8
CSLAYER1
  6
CONTINUOUS
 62
     7
 10
115.677988
 20
944.787956
 11
114.862151
 21
929.220862
  0
LINE
  8
CSLAYER1
  6
CENTER
 62
     2
 10
161.559537
 20
885.059538
 11
136.634023
 21
860.134024
  0
CIRCLE
  8
CSLAYER1
  6
CONTINUOUS
 62
     7
 10
149.096780
 20
872.596781
 40
13.500000
  0
LINE
  8
CSLAYER1
  6
CONTINUOUS
 62
     7
 10
164.154073
 20
868.562191
 11
153.131370
 21
857.539487
  0
LINE
  8
CSLAYER1
  6
CONTINUOUS
 62
     7
 10
153.131370
 20
857.539487
 11
138.074076
 21
861.574077
  0
LINE
  8
CSLAYER1
  6
CONTINUOUS
 62
     7
 10
138.074076
 20
861.574077
 11
134.039486
 21
876.631371
  0
LINE
  8
CSLAYER1
  6
CONTINUOUS
 62
     7
 10
134.039486
 20
876.631371
 11
145.062190
 21
887.654074
  0
LINE
  8
CSLAYER1
  6
CONTINUOUS
 62
     7
 10
145.062190
 20
887.654074
 11
160.119484
 21
883.619485
  0
LINE
  8
CSLAYER1
  6
CONTINUOUS
 62
     7
 10
160.119484
 20
883.619485
 11
164.154073
 21
868.562191
  0
LINE
  8
CSLAYER1
  6
CENTER
 62
     2
 10
222.212526
 20
840.992562
 11
206.209361
 21
809.584582
  0
CIRCLE
  8
CSLAYER1
  6
CONTINUOUS
 62
     7
 10
214.210943
 20
825.288572
 40
13.500000
  0
LINE
  8
CSLAYER1
  6
CONTINUOUS
 62
     7
 10
205.720861
 20
838.362152
 11
198.643850
 21
824.472735
  0
LINE
  8
CSLAYER1
  6
CONTINUOUS
 62
     7
 10
198.643850
 20
824.472735
 11
207.133932
 21
811.399155
  0
LINE
  8
CSLAYER1
  6
CONTINUOUS
 62
     7
 10
207.133932
 20
811.399155
 11
222.701026
 21
812.214992
  0
LINE
  8
CSLAYER1
  6
CONTINUOUS
 62
     7
 10
222.701026
 20
812.214992
 11
229.778037
 21
826.104409
  0
LINE
  8
CSLAYER1
  6
CONTINUOUS
 62
     7
 10
229.778037
 20
826.104409
 11
221.287955
 21
839.177989
  0
LINE
  8
CSLAYER1
  6
CONTINUOUS
 62
     7
 10
221.287955
 20
839.177989
 11
205.720861
 21
838.362152
  0
LINE
  8
CSLAYER1
  6
CENTER
 62
     2
 10
293.514391
 20
817.825182
 11
288.000076
 21
783.009168
  0
CIRCLE
  8
CSLAYER1
  6
CONTINUOUS
 62
     7
 10
290.757233
 20
800.417175
 40
13.500000
  0
LINE
  8
CSLAYER1
  6
CONTINUOUS
 62
     7
 10
278.642727
 20
810.227309
 11
276.204155
 21
794.830771
  0
LINE
  8
CSLAYER1
  6
CONTINUOUS
 62
     7
 10
276.204155
 20
794.830771
 11
288.318661
 21
785.020637
  0
LINE
  8
CSLAYER1
  6
CONTINUOUS
 62
     7
 10
288.318661
 20
785.020637
 11
302.871740
 21
790.607041
  0
LINE
  8
CSLAYER1
  6
CONTINUOUS
 62
     7
 10
302.871740
 20
790.607041
 11
305.310312
 21
806.003578
  0
LINE
  8
CSLAYER1
  6
CONTINUOUS
 62
     7
 10
305.310312
 20
806.003578
 11
293.195805
 21
815.813712
  0
LINE
  8
CSLAYER1
  6
CONTINUOUS
 62
     7
 10
293.195805
 20
815.813712
 11
278.642727
 21
810.227309
  0
LINE
  8
CSLAYER1
  6
CENTER
 62
     2
 10
439.787473
 20
840.992562
 11
455.790638
 21
809.584582
  0
CIRCLE
  8
CSLAYER1
  6
CONTINUOUS
 62
     7
 10
447.789055
 20
825.288572
 40
13.500000
  0
LINE
  8
CSLAYER1
  6
CONTINUOUS
 62
     7
 10
456.279138
 20
838.362152
 11
463.356149
 21
824.472735
  0
LINE
  8
CSLAYER1
  6
CONTINUOUS
 62
     7
 10
463.356149
 20
824.472735
 11
454.866067
 21
811.399155
  0
LINE
  8
CSLAYER1
  6
CONTINUOUS
 62
     7
 10
454.866067
 20
811.399155
 11
439.298973
 21
812.214992
  0
LINE
  8
CSLAYER1
  6
CONTINUOUS
 62
     7
 10
439.298973
 20
812.214992
 11
432.221962
 21
826.104409
  0
LINE
  8
CSLAYER1
  6
CONTINUOUS
 62
     7
 10
432.221962
 20
826.104409
 11
440.712044
 21
839.177989
  0
LINE
  8
CSLAYER1
  6
CONTINUOUS
 62
     7
 10
440.712044
 20
839.177989
 11
456.279138
 21
838.362152
  0
LINE
  8
CSLAYER1
  6
CENTER
 62
     2
 10
368.485608
 20
817.825182
 11
373.999923
 21
783.009168
  0
CIRCLE
  8
CSLAYER1
  6
CONTINUOUS
 62
     7
 10
371.242766
 20
800.417175
 40
13.500000
  0
LINE
  8
CSLAYER1
  6
CONTINUOUS
 62
     7
 10
383.357272
 20
810.227309
 11
385.795844
 21
794.830771
  0
LINE
  8
CSLAYER1
  6
CONTINUOUS
 62
     7
 10
385.795844
 20
794.830771
 11
373.681338
 21
785.020637
  0
LINE
  8
CSLAYER1
  6
CONTINUOUS
 62
     7
 10
373.681338
 20
785.020637
 11
359.128259
 21
790.607041
  0
LINE
  8
CSLAYER1
  6
CONTINUOUS
 62
     7
 10
359.128259
 20
790.607041
 11
356.689687
 21
806.003578
  0
LINE
  8
CSLAYER1
  6
CONTINUOUS
 62
     7
 10
356.689687
 20
806.003578
 11
368.804194
 21
815.813712
  0
LINE
  8
CSLAYER1
  6
CONTINUOUS
 62
     7
 10
368.804194
 20
815.813712
 11
383.357272
 21
810.227309
  0
LINE
  8
CSLAYER1
  6
CENTER
 62
     2
 10
544.507438
 20
945.712527
 11
575.915418
 21
929.709362
  0
CIRCLE
  8
CSLAYER1
  6
CONTINUOUS
 62
     7
 10
560.211428
 20
937.710944
 40
13.500000
  0
LINE
  8
CSLAYER1
  6
CONTINUOUS
 62
     7
 10
547.137847
 20
929.220862
 11
561.027265
 21
922.143850
  0
LINE
  8
CSLAYER1
  6
CONTINUOUS
 62
     7
 10
561.027265
 20
922.143850
 11
574.100845
 21
930.633933
  0
LINE
  8
CSLAYER1
  6
CONTINUOUS
 62
     7
 10
574.100845
 20
930.633933
 11
573.285008
 21
946.201027
  0
LINE
  8
CSLAYER1
  6
CONTINUOUS
 62
     7
 10
573.285008
 20
946.201027
 11
559.395591
 21
953.278038
  0
LINE
  8
CSLAYER1
  6
CONTINUOUS
 62
     7
 10
559.395591
 20
953.278038
 11
546.322011
 21
944.787956
  0
LINE
  8
CSLAYER1
  6
CONTINUOUS
 62
     7
 10
546.322011
 20
944.787956
 11
547.137847
 21
929.220862
  0
LINE
  8
CSLAYER1
  6
CENTER
 62
     2
 10
500.440462
 20
885.059538
 11
525.365976
 21
860.134024
  0
CIRCLE
  8
CSLAYER1
  6
CONTINUOUS
 62
     7
 10
512.903219
 20
872.596781
 40
13.500000
  0
LINE
  8
CSLAYER1
  6
CONTINUOUS
 62
     7
 10
497.845925
 20
868.562191
 11
508.868629
 21
857.539487
  0
LINE
  8
CSLAYER1
  6
CONTINUOUS
 62
     7
 10
508.868629
 20
857.539487
 11
523.925923
 21
861.574077
  0
LINE
  8
CSLAYER1
  6
CONTINUOUS
 62
     7
 10
523.925923
 20
861.574077
 11
527.960512
 21
876.631371
  0
LINE
  8
CSLAYER1
  6
CONTINUOUS
 62
     7
 10
527.960512
 20
876.631371
 11
516.937809
 21
887.654074
  0
LINE
  8
CSLAYER1
  6
CONTINUOUS
 62
     7
 10
516.937809
 20
887.654074
 11
501.880515
 21
883.619485
  0
LINE
  8
CSLAYER1
  6
CONTINUOUS
 62
     7
 10
501.880515
 20
883.619485
 11
497.845925
 21
868.562191
  0
LINE
  8
CSLAYER1
  6
CENTER
 62
     2
 10
567.674818
 20
1017.014392
 11
602.490832
 21
1011.500077
  0
ARC
  8
CSLAYER1
  6
CONTINUOUS
 62
     7
 10
585.082825
 20
1014.257234
 40
13.500000
 50
125.483869
 51
322.200566
  0
LINE
  8
CSLAYER1
  6
CONTINUOUS
 62
     7
 10
595.749999
 20
1005.978385
 11
590.669229
 21
999.704156
  0
LINE
  8
CSLAYER1
  6
CONTINUOUS
 62
     7
 10
590.669229
 20
999.704156
 11
575.272691
 21
1002.142728
  0
LINE
  8
CSLAYER1
  6
CONTINUOUS
 62
     7
 10
575.272691
 20
1002.142728
 11
569.686288
 21
1016.695806
  0
LINE
  8
CSLAYER1
  6
CONTINUOUS
 62
     7
 10
569.686288
 20
1016.695806
 11
576.613337
 21
1025.250000
  0
LINE
  8
CSLAYER1
  6
CENTER
 62
     2
 10
94.325181
 20
1091.985609
 11
59.509167
 21
1097.499924
  0
LINE
  8
CSLAYER1
  6
CENTER
 62
     2
 10
164.389100
 20
1087.640969
 11
129.816419
 21
1094.517903
  0
CIRCLE
  8
CSLAYER1
  6
CONTINUOUS
 62
     7
 10
147.102759
 20
1091.079436
 40
10.125000
  0
LINE
  8
CSLAYER1
  6
CENTER
 62
     2
 10
189.754099
 20
1148.877494
 11
160.444795
 21
1168.461344
  0
CIRCLE
  8
CSLAYER1
  6
CONTINUOUS
 62
     7
 10
175.099447
 20
1158.669419
 40
10.125000
  0
LINE
  8
CSLAYER1
  6
CENTER
 62
     2
 10
236.622506
 20
1195.745901
 11
217.038655
 21
1225.055205
  0
CIRCLE
  8
CSLAYER1
  6
CONTINUOUS
 62
     7
 10
226.830581
 20
1210.400553
 40
10.125000
  0
LINE
  8
CSLAYER1
  6
CENTER
 62
     2
 10
297.859031
 20
1221.110900
 11
290.982097
 21
1255.683581
  0
CIRCLE
  8
CSLAYER1
  6
CONTINUOUS
 62
     7
 10
294.420564
 20
1238.397240
 40
10.125000
  0
LINE
  8
CSLAYER1
  6
CENTER
 62
     2
 10
497.610899
 20
1087.640969
 11
532.183580
 21
1094.517903
  0
CIRCLE
  8
CSLAYER1
  6
CONTINUOUS
 62
     7
 10
514.897240
 20
1091.079436
 40
10.125000
  0
LINE
  8
CSLAYER1
  6
CENTER
 62
     2
 10
472.245900
 20
1148.877494
 11
501.555204
 21
1168.461344
  0
CIRCLE
  8
CSLAYER1
  6
CONTINUOUS
 62
     7
 10
486.900552
 20
1158.669419
 40
10.125000
  0
LINE
  8
CSLAYER1
  6
CENTER
 62
     2
 10
425.377493
 20
1195.745901
 11
444.961343
 21
1225.055205
  0
CIRCLE
  8
CSLAYER1
  6
CONTINUOUS
 62
     7
 10
435.169418
 20
1210.400553
 40
10.125000
  0
LINE
  8
CSLAYER1
  6
CENTER
 62
     2
 10
364.140968
 20
1221.110900
 11
371.017902
 21
1255.683581
  0
CIRCLE
  8
CSLAYER1
  6
CONTINUOUS
 62
     7
 10
367.579435
 20
1238.397240
 40
10.125000
  0
CIRCLE
  8
CSLAYER1
  6
CONTINUOUS
 62
     7
 10
76.917174
 20
1094.742766
 40
13.500000
  0
LINE
  8
CSLAYER1
  6
CONTINUOUS
 62
     7
 10
82.503577
 20
1080.189688
 11
67.107040
 21
1082.628260
  0
LINE
  8
CSLAYER1
  6
CONTINUOUS
 62
     7
 10
67.107040
 20
1082.628260
 11
61.520636
 21
1097.181338
  0
LINE
  8
CSLAYER1
  6
CONTINUOUS
 62
     7
 10
61.520636
 20
1097.181338
 11
71.330770
 21
1109.295845
  0
LINE
  8
CSLAYER1
  6
CONTINUOUS
 62
     7
 10
71.330770
 20
1109.295845
 11
86.727308
 21
1106.857273
  0
LINE
  8
CSLAYER1
  6
CONTINUOUS
 62
     7
 10
86.727308
 20
1106.857273
 11
92.313711
 21
1092.304195
  0
LINE
  8
CSLAYER1
  6
CONTINUOUS
 62
     7
 10
92.313711
 20
1092.304195
 11
82.503577
 21
1080.189688
  0
LINE
  8
CSLAYER1
  6
CENTER
 62
     2
 10
117.492561
 20
1163.287474
 11
86.084581
 21
1179.290639
  0
CIRCLE
  8
CSLAYER1
  6
CONTINUOUS
 62
     7
 10
101.788571
 20
1171.289056
 40
13.500000
  0
LINE
  8
CSLAYER1
  6
CONTINUOUS
 62
     7
 10
114.862151
 20
1179.779139
 11
100.972734
 21
1186.856150
  0
LINE
  8
CSLAYER1
  6
CONTINUOUS
 62
     7
 10
100.972734
 20
1186.856150
 11
87.899154
 21
1178.366068
  0
LINE
  8
CSLAYER1
  6
CONTINUOUS
 62
     7
 10
87.899154
 20
1178.366068
 11
88.714991
 21
1162.798974
  0
LINE
  8
CSLAYER1
  6
CONTINUOUS
 62
     7
 10
88.714991
 20
1162.798974
 11
102.604408
 21
1155.721963
  0
LINE
  8
CSLAYER1
  6
CONTINUOUS
 62
     7
 10
102.604408
 20
1155.721963
 11
115.677988
 21
1164.212045
  0
LINE
  8
CSLAYER1
  6
CONTINUOUS
 62
     7
 10
115.677988
 20
1164.212045
 11
114.862151
 21
1179.779139
  0
LINE
  8
CSLAYER1
  6
CENTER
 62
     2
 10
161.559537
 20
1223.940463
 11
136.634023
 21
1248.865977
  0
CIRCLE
  8
CSLAYER1
  6
CONTINUOUS
 62
     7
 10
149.096780
 20
1236.403220
 40
13.500000
  0
LINE
  8
CSLAYER1
  6
CONTINUOUS
 62
     7
 10
164.154073
 20
1240.437809
 11
153.131370
 21
1251.460513
  0
LINE
  8
CSLAYER1
  6
CONTINUOUS
 62
     7
 10
153.131370
 20
1251.460513
 11
138.074076
 21
1247.425924
  0
LINE
  8
CSLAYER1
  6
CONTINUOUS
 62
     7
 10
138.074076
 20
1247.425924
 11
134.039486
 21
1232.368630
  0
LINE
  8
CSLAYER1
  6
CONTINUOUS
 62
     7
 10
134.039486
 20
1232.368630
 11
145.062190
 21
1221.345926
  0
LINE
  8
CSLAYER1
  6
CONTINUOUS
 62
     7
 10
145.062190
 20
1221.345926
 11
160.119484
 21
1225.380516
  0
LINE
  8
CSLAYER1
  6
CONTINUOUS
 62
     7
 10
160.119484
 20
1225.380516
 11
164.154073
 21
1240.437809
  0
LINE
  8
CSLAYER1
  6
CENTER
 62
     2
 10
222.212526
 20
1268.007439
 11
206.209361
 21
1299.415419
  0
CIRCLE
  8
CSLAYER1
  6
CONTINUOUS
 62
     7
 10
214.210943
 20
1283.711429
 40
13.500000
  0
LINE
  8
CSLAYER1
  6
CONTINUOUS
 62
     7
 10
205.720861
 20
1270.637848
 11
198.643850
 21
1284.527266
  0
LINE
  8
CSLAYER1
  6
CONTINUOUS
 62
     7
 10
198.643850
 20
1284.527266
 11
207.133932
 21
1297.600846
  0
LINE
  8
CSLAYER1
  6
CONTINUOUS
 62
     7
 10
207.133932
 20
1297.600846
 11
222.701026
 21
1296.785009
  0
LINE
  8
CSLAYER1
  6
CONTINUOUS
 62
     7
 10
222.701026
 20
1296.785009
 11
229.778037
 21
1282.895592
  0
LINE
  8
CSLAYER1
  6
CONTINUOUS
 62
     7
 10
229.778037
 20
1282.895592
 11
221.287955
 21
1269.822012
  0
LINE
  8
CSLAYER1
  6
CONTINUOUS
 62
     7
 10
221.287955
 20
1269.822012
 11
205.720861
 21
1270.637848
  0
LINE
  8
CSLAYER1
  6
CENTER
 62
     2
 10
293.514391
 20
1291.174819
 11
288.000076
 21
1325.990833
  0
CIRCLE
  8
CSLAYER1
  6
CONTINUOUS
 62
     7
 10
290.757233
 20
1308.582826
 40
13.500000
  0
LINE
  8
CSLAYER1
  6
CONTINUOUS
 62
     7
 10
278.642727
 20
1298.772692
 11
276.204155
 21
1314.169229
  0
LINE
  8
CSLAYER1
  6
CONTINUOUS
 62
     7
 10
276.204155
 20
1314.169229
 11
288.318661
 21
1323.979363
  0
LINE
  8
CSLAYER1
  6
CONTINUOUS
 62
     7
 10
288.318661
 20
1323.979363
 11
302.871740
 21
1318.392960
  0
LINE
  8
CSLAYER1
  6
CONTINUOUS
 62
     7
 10
302.871740
 20
1318.392960
 11
305.310312
 21
1302.996422
  0
LINE
  8
CSLAYER1
  6
CONTINUOUS
 62
     7
 10
305.310312
 20
1302.996422
 11
293.195805
 21
1293.186288
  0
LINE
  8
CSLAYER1
  6
CONTINUOUS
 62
     7
 10
293.195805
 20
1293.186288
 11
278.642727
 21
1298.772692
  0
LINE
  8
CSLAYER1
  6
CENTER
 62
     2
 10
439.787473
 20
1268.007439
 11
455.790638
 21
1299.415419
  0
CIRCLE
  8
CSLAYER1
  6
CONTINUOUS
 62
     7
 10
447.789055
 20
1283.711429
 40
13.500000
  0
LINE
  8
CSLAYER1
  6
CONTINUOUS
 62
     7
 10
456.279138
 20
1270.637848
 11
463.356149
 21
1284.527266
  0
LINE
  8
CSLAYER1
  6
CONTINUOUS
 62
     7
 10
463.356149
 20
1284.527266
 11
454.866067
 21
1297.600846
  0
LINE
  8
CSLAYER1
  6
CONTINUOUS
 62
     7
 10
454.866067
 20
1297.600846
 11
439.298973
 21
1296.785009
  0
LINE
  8
CSLAYER1
  6
CONTINUOUS
 62
     7
 10
439.298973
 20
1296.785009
 11
432.221962
 21
1282.895592
  0
LINE
  8
CSLAYER1
  6
CONTINUOUS
 62
     7
 10
432.221962
 20
1282.895592
 11
440.712044
 21
1269.822012
  0
LINE
  8
CSLAYER1
  6
CONTINUOUS
 62
     7
 10
440.712044
 20
1269.822012
 11
456.279138
 21
1270.637848
  0
LINE
  8
CSLAYER1
  6
CENTER
 62
     2
 10
368.485608
 20
1291.174819
 11
373.999923
 21
1325.990833
  0
CIRCLE
  8
CSLAYER1
  6
CONTINUOUS
 62
     7
 10
371.242766
 20
1308.582826
 40
13.500000
  0
LINE
  8
CSLAYER1
  6
CONTINUOUS
 62
     7
 10
383.357272
 20
1298.772692
 11
385.795844
 21
1314.169229
  0
LINE
  8
CSLAYER1
  6
CONTINUOUS
 62
     7
 10
385.795844
 20
1314.169229
 11
373.681338
 21
1323.979363
  0
LINE
  8
CSLAYER1
  6
CONTINUOUS
 62
     7
 10
373.681338
 20
1323.979363
 11
359.128259
 21
1318.392960
  0
LINE
  8
CSLAYER1
  6
CONTINUOUS
 62
     7
 10
359.128259
 20
1318.392960
 11
356.689687
 21
1302.996422
  0
LINE
  8
CSLAYER1
  6
CONTINUOUS
 62
     7
 10
356.689687
 20
1302.996422
 11
368.804194
 21
1293.186288
  0
LINE
  8
CSLAYER1
  6
CONTINUOUS
 62
     7
 10
368.804194
 20
1293.186288
 11
383.357272
 21
1298.772692
  0
LINE
  8
CSLAYER1
  6
CENTER
 62
     2
 10
544.507438
 20
1163.287474
 11
575.915418
 21
1179.290639
  0
CIRCLE
  8
CSLAYER1
  6
CONTINUOUS
 62
     7
 10
560.211428
 20
1171.289056
 40
13.500000
  0
LINE
  8
CSLAYER1
  6
CONTINUOUS
 62
     7
 10
547.137847
 20
1179.779139
 11
561.027265
 21
1186.856150
  0
LINE
  8
CSLAYER1
  6
CONTINUOUS
 62
     7
 10
561.027265
 20
1186.856150
 11
574.100845
 21
1178.366068
  0
LINE
  8
CSLAYER1
  6
CONTINUOUS
 62
     7
 10
574.100845
 20
1178.366068
 11
573.285008
 21
1162.798974
  0
LINE
  8
CSLAYER1
  6
CONTINUOUS
 62
     7
 10
573.285008
 20
1162.798974
 11
559.395591
 21
1155.721963
  0
LINE
  8
CSLAYER1
  6
CONTINUOUS
 62
     7
 10
559.395591
 20
1155.721963
 11
546.322011
 21
1164.212045
  0
LINE
  8
CSLAYER1
  6
CONTINUOUS
 62
     7
 10
546.322011
 20
1164.212045
 11
547.137847
 21
1179.779139
  0
LINE
  8
CSLAYER1
  6
CENTER
 62
     2
 10
500.440462
 20
1223.940463
 11
525.365976
 21
1248.865977
  0
CIRCLE
  8
CSLAYER1
  6
CONTINUOUS
 62
     7
 10
512.903219
 20
1236.403220
 40
13.500000
  0
LINE
  8
CSLAYER1
  6
CONTINUOUS
 62
     7
 10
497.845925
 20
1240.437809
 11
508.868629
 21
1251.460513
  0
LINE
  8
CSLAYER1
  6
CONTINUOUS
 62
     7
 10
508.868629
 20
1251.460513
 11
523.925923
 21
1247.425924
  0
LINE
  8
CSLAYER1
  6
CONTINUOUS
 62
     7
 10
523.925923
 20
1247.425924
 11
527.960512
 21
1232.368630
  0
LINE
  8
CSLAYER1
  6
CONTINUOUS
 62
     7
 10
527.960512
 20
1232.368630
 11
516.937809
 21
1221.345926
  0
LINE
  8
CSLAYER1
  6
CONTINUOUS
 62
     7
 10
516.937809
 20
1221.345926
 11
501.880515
 21
1225.380516
  0
LINE
  8
CSLAYER1
  6
CONTINUOUS
 62
     7
 10
501.880515
 20
1225.380516
 11
497.845925
 21
1240.437809
  0
LINE
  8
CSLAYER1
  6
CENTER
 62
     2
 10
567.674818
 20
1091.985609
 11
602.490832
 21
1097.499924
  0
ARC
  8
CSLAYER1
  6
CONTINUOUS
 62
     7
 10
585.082825
 20
1094.742766
 40
13.500000
 50
37.799434
 51
234.516131
  0
LINE
  8
CSLAYER1
  6
CONTINUOUS
 62
     7
 10
595.749999
 20
1103.021616
 11
590.669229
 21
1109.295845
  0
LINE
  8
CSLAYER1
  6
CONTINUOUS
 62
     7
 10
590.669229
 20
1109.295845
 11
575.272691
 21
1106.857273
  0
LINE
  8
CSLAYER1
  6
CONTINUOUS
 62
     7
 10
575.272691
 20
1106.857273
 11
569.686288
 21
1092.304195
  0
LINE
  8
CSLAYER1
  6
CONTINUOUS
 62
     7
 10
569.686288
 20
1092.304195
 11
576.613337
 21
1083.750000
  0
LINE
  8
CSLAYER1
  6
CONTINUOUS
 62
     7
 10
568.397214
 20
1025.250000
 11
580.000002
 21
1025.250000
  0
LINE
  8
CSLAYER1
  6
CONTINUOUS
 62
     7
 10
595.749999
 20
1054.500000
 11
595.749999
 21
997.125000
  0
LINE
  8
CSLAYER1
  6
CONTINUOUS
 62
     7
 10
596.499999
 20
996.375000
 11
610.749999
 21
996.375000
  0
LINE
  8
CSLAYER1
  6
CONTINUOUS
 62
     7
 10
610.749999
 20
996.375000
 11
612.249999
 21
997.875000
  0
LINE
  8
CSLAYER1
  6
CONTINUOUS
 62
     7
 10
568.397214
 20
1083.750000
 11
580.000002
 21
1083.750000
  0
LINE
  8
CSLAYER1
  6
CONTINUOUS
 62
     7
 10
595.749999
 20
1054.500000
 11
595.749999
 21
1111.875000
  0
LINE
  8
CSLAYER1
  6
CONTINUOUS
 62
     7
 10
596.499999
 20
1112.625000
 11
610.749999
 21
1112.625000
  0
LINE
  8
CSLAYER1
  6
CONTINUOUS
 62
     7
 10
610.749999
 20
1112.625000
 11
612.249999
 21
1111.125000
  0
ARC
  8
CSLAYER1
  6
CONTINUOUS
 62
     7
 10
596.499999
 20
997.125000
 40
0.750000
 50
180.000000
 51
270.000000
  0
ARC
  8
CSLAYER1
  6
CONTINUOUS
 62
     7
 10
596.499999
 20
1111.875000
 40
0.750000
 50
90.000000
 51
180.000000
  0
LINE
  8
CSLAYER1
  6
CENTER
 62
     2
 10
642.999999
 20
1086.319805
 11
577.000002
 21
1086.319805
  0
LINE
  8
CSLAYER1
  6
CONTINUOUS
 62
     7
 10
612.249999
 20
1112.625000
 11
612.249999
 21
996.375000
  0
LINE
  8
CSLAYER1
  6
CONTINUOUS
 62
     7
 10
613.749999
 20
1112.625000
 11
612.249999
 21
1112.625000
  0
LINE
  8
CSLAYER1
  6
CONTINUOUS
 62
     7
 10
613.749999
 20
996.375000
 11
612.249999
 21
996.375000
  0
LINE
  8
CSLAYER1
  6
CONTINUOUS
 62
     7
 10
613.749999
 20
996.375000
 11
613.749999
 21
1112.625000
  0
LINE
  8
CSLAYER1
  6
CONTINUOUS
 62
     7
 10
615.249999
 20
1112.250000
 11
615.249999
 21
996.750000
  0
LINE
  8
CSLAYER1
  6
CONTINUOUS
 62
     7
 10
615.624999
 20
996.375000
 11
627.249999
 21
996.375000
  0
LINE
  8
CSLAYER1
  6
CONTINUOUS
 62
     7
 10
628.749999
 20
997.875000
 11
628.749999
 21
1111.125000
  0
LINE
  8
CSLAYER1
  6
CONTINUOUS
 62
     7
 10
627.249999
 20
1112.625000
 11
615.624999
 21
1112.625000
  0
LINE
  8
CSLAYER1
  6
CONTINUOUS
 62
     7
 10
615.249999
 20
1090.500000
 11
613.749999
 21
1090.500000
  0
LINE
  8
CSLAYER1
  6
CONTINUOUS
 62
     7
 10
613.749999
 20
1090.500000
 11
613.749999
 21
1018.500000
  0
LINE
  8
CSLAYER1
  6
CONTINUOUS
 62
     7
 10
613.749999
 20
1018.500000
 11
615.249999
 21
1018.500000
  0
LINE
  8
CSLAYER1
  6
CONTINUOUS
 62
     7
 10
635.499999
 20
1076.020767
 11
635.499999
 21
1032.979233
  0
ARC
  8
CSLAYER1
  6
CONTINUOUS
 62
     7
 10
627.249999
 20
1111.125000
 40
1.500000
 50
0.000000
 51
90.000000
  0
ARC
  8
CSLAYER1
  6
CONTINUOUS
 62
     7
 10
627.249999
 20
997.875000
 40
1.500000
 50
270.000000
 51
360.000000
  0
LINE
  8
CSLAYER1
  6
CONTINUOUS
 62
     7
 10
615.624999
 20
1112.625000
 11
615.249999
 21
1112.250000
  0
LINE
  8
CSLAYER1
  6
CONTINUOUS
 62
     7
 10
615.249999
 20
996.750000
 11
615.624999
 21
996.375000
  0
LINE
  8
CSLAYER1
  6
CONTINUOUS
 62
     7
 10
646.464999
 20
1032.144750
 11
651.999999
 21
1033.236252
  0
LINE
  8
CSLAYER1
  6
CONTINUOUS
 62
     7
 10
635.981788
 20
1032.144750
 11
651.999999
 21
1032.144750
  0
LINE
  8
CSLAYER1
  6
CONTINUOUS
 62
     7
 10
641.034999
 20
1032.144750
 11
635.499999
 21
1033.236252
  0
LINE
  8
CSLAYER1
  6
CONTINUOUS
 62
     7
 10
646.464999
 20
1076.855250
 11
651.999999
 21
1075.763748
  0
LINE
  8
CSLAYER1
  6
CONTINUOUS
 62
     7
 10
635.981788
 20
1076.855250
 11
651.999999
 21
1076.855250
  0
LINE
  8
CSLAYER1
  6
CONTINUOUS
 62
     7
 10
641.034999
 20
1076.855250
 11
635.499999
 21
1075.763748
  0
LINE
  8
CSLAYER1
  6
CONTINUOUS
 62
     7
 10
636.249999
 20
1077.319805
 11
635.448926
 21
1075.932305
  0
LINE
  8
CSLAYER1
  6
CONTINUOUS
 62
     7
 10
636.249999
 20
1095.319805
 11
635.448926
 21
1096.707305
  0
LINE
  8
CSLAYER1
  6
CONTINUOUS
 62
     7
 10
635.448926
 20
1096.707305
 11
628.749999
 21
1096.707305
  0
LINE
  8
CSLAYER1
  6
CONTINUOUS
 62
     7
 10
628.749999
 20
1096.707305
 11
628.749999
 21
1075.819805
  0
LINE
  8
CSLAYER1
  6
CONTINUOUS
 62
     7
 10
628.749999
 20
1075.932305
 11
635.448926
 21
1075.932305
  0
LINE
  8
CSLAYER1
  6
CONTINUOUS
 62
     7
 10
636.249999
 20
1077.319805
 11
636.249999
 21
1095.319805
  0
ARC
  8
CSLAYER1
  6
CONTINUOUS
 62
     7
 10
631.640261
 20
1078.529180
 40
4.609738
 50
-34.287473
 51
34.287473
  0
ARC
  8
CSLAYER1
  6
CONTINUOUS
 62
     7
 10
619.012656
 20
1086.319805
 40
17.237343
 50
-17.536184
 51
17.536184
  0
ARC
  8
CSLAYER1
  6
CONTINUOUS
 62
     7
 10
631.640261
 20
1094.110430
 40
4.609738
 50
-34.287473
 51
34.287473
  0
LINE
  8
CSLAYER1
  6
CONTINUOUS
 62
     7
 10
635.448926
 20
1081.126055
 11
628.749999
 21
1081.126055
  0
LINE
  8
CSLAYER1
  6
CONTINUOUS
 62
     7
 10
635.448926
 20
1091.513555
 11
628.749999
 21
1091.513555
  0
LINE
  8
CSLAYER1
  6
CONTINUOUS
 62
     7
 10
580.900002
 20
1092.319808
 11
586.000002
 21
1092.319808
  0
LINE
  8
CSLAYER1
  6
CONTINUOUS
 62
     7
 10
580.000002
 20
1081.219808
 11
580.000002
 21
1091.419808
  0
LINE
  8
CSLAYER1
  6
CONTINUOUS
 62
     7
 10
580.900002
 20
1092.319808
 11
580.000002
 21
1091.419808
  0
LINE
  8
CSLAYER1
  6
CONTINUOUS
 62
     7
 10
580.900002
 20
1080.319808
 11
580.000002
 21
1081.219808
  0
LINE
  8
CSLAYER1
  6
CONTINUOUS
 62
     7
 10
580.900002
 20
1092.319808
 11
580.900002
 21
1080.319808
  0
LINE
  8
CSLAYER1
  6
CONTINUOUS
 62
     7
 10
595.750002
 20
1075.927497
 11
595.749997
 21
1096.707308
  0
LINE
  8
CSLAYER1
  6
CONTINUOUS
 62
     7
 10
595.750002
 20
1075.927497
 11
586.803853
 21
1075.927497
  0
LINE
  8
CSLAYER1
  6
CONTINUOUS
 62
     7
 10
586.000002
 20
1077.319808
 11
586.000002
 21
1095.319808
  0
LINE
  8
CSLAYER1
  6
CONTINUOUS
 62
     7
 10
595.749997
 20
1096.707308
 11
586.801076
 21
1096.707308
  0
LINE
  8
CSLAYER1
  6
CONTINUOUS
 62
     7
 10
586.000002
 20
1095.319808
 11
586.801076
 21
1096.707308
  0
LINE
  8
CSLAYER1
  6
CONTINUOUS
 62
     7
 10
586.000002
 20
1077.319808
 11
586.801076
 21
1075.932308
  0
ARC
  8
CSLAYER1
  6
CONTINUOUS
 62
     7
 10
589.404345
 20
1094.513558
 40
3.404343
 50
139.879485
 51
220.120515
  0
ARC
  8
CSLAYER1
  6
CONTINUOUS
 62
     7
 10
608.870387
 20
1086.319808
 40
22.870385
 50
164.790570
 51
195.209430
  0
ARC
  8
CSLAYER1
  6
CONTINUOUS
 62
     7
 10
589.404345
 20
1078.126058
 40
3.404343
 50
139.879485
 51
220.120515
  0
LINE
  8
CSLAYER1
  6
CONTINUOUS
 62
     7
 10
586.801076
 20
1092.319808
 11
595.749998
 21
1092.319808
  0
LINE
  8
CSLAYER1
  6
CONTINUOUS
 62
     7
 10
586.801076
 20
1080.319808
 11
595.750001
 21
1080.319808
  0
LINE
  8
CSLAYER1
  6
CONTINUOUS
 62
     7
 10
586.000002
 20
1091.506058
 11
580.086252
 21
1091.506058
  0
LINE
  8
CSLAYER1
  6
CONTINUOUS
 62
     7
 10
586.000002
 20
1081.133558
 11
580.086252
 21
1081.133558
  0
LINE
  8
CSLAYER1
  6
CONTINUOUS
 62
     7
 10
586.000002
 20
1080.319808
 11
580.900002
 21
1080.319808
  0
LINE
  8
CSLAYER1
  6
CENTER
 62
     2
 10
642.999999
 20
1022.680195
 11
577.000002
 21
1022.680195
  0
LINE
  8
CSLAYER1
  6
CONTINUOUS
 62
     7
 10
636.249999
 20
1031.680195
 11
635.448926
 21
1033.067695
  0
LINE
  8
CSLAYER1
  6
CONTINUOUS
 62
     7
 10
636.249999
 20
1013.680195
 11
635.448926
 21
1012.292695
  0
LINE
  8
CSLAYER1
  6
CONTINUOUS
 62
     7
 10
635.448926
 20
1012.292695
 11
628.749999
 21
1012.292695
  0
LINE
  8
CSLAYER1
  6
CONTINUOUS
 62
     7
 10
628.749999
 20
1012.292695
 11
628.749999
 21
1033.180195
  0
LINE
  8
CSLAYER1
  6
CONTINUOUS
 62
     7
 10
628.749999
 20
1033.067695
 11
635.448926
 21
1033.067695
  0
LINE
  8
CSLAYER1
  6
CONTINUOUS
 62
     7
 10
636.249999
 20
1031.680195
 11
636.249999
 21
1013.680195
  0
ARC
  8
CSLAYER1
  6
CONTINUOUS
 62
     7
 10
631.640261
 20
1030.470820
 40
4.609738
 50
-34.287473
 51
34.287473
  0
ARC
  8
CSLAYER1
  6
CONTINUOUS
 62
     7
 10
619.012656
 20
1022.680195
 40
17.237343
 50
-17.536184
 51
17.536184
  0
ARC
  8
CSLAYER1
  6
CONTINUOUS
 62
     7
 10
631.640261
 20
1014.889570
 40
4.609738
 50
-34.287473
 51
34.287473
  0
LINE
  8
CSLAYER1
  6
CONTINUOUS
 62
     7
 10
635.448926
 20
1027.873945
 11
628.749999
 21
1027.873945
  0
LINE
  8
CSLAYER1
  6
CONTINUOUS
 62
     7
 10
635.448926
 20
1017.486445
 11
628.749999
 21
1017.486445
  0
LINE
  8
CSLAYER1
  6
CONTINUOUS
 62
     7
 10
580.900002
 20
1016.680193
 11
586.000002
 21
1016.680193
  0
LINE
  8
CSLAYER1
  6
CONTINUOUS
 62
     7
 10
580.000002
 20
1027.780193
 11
580.000002
 21
1017.580193
  0
LINE
  8
CSLAYER1
  6
CONTINUOUS
 62
     7
 10
580.900002
 20
1016.680193
 11
580.000002
 21
1017.580193
  0
LINE
  8
CSLAYER1
  6
CONTINUOUS
 62
     7
 10
580.900002
 20
1028.680193
 11
580.000002
 21
1027.780193
  0
LINE
  8
CSLAYER1
  6
CONTINUOUS
 62
     7
 10
580.900002
 20
1016.680193
 11
580.900002
 21
1028.680193
  0
LINE
  8
CSLAYER1
  6
CONTINUOUS
 62
     7
 10
595.750002
 20
1033.072504
 11
595.749997
 21
1012.292693
  0
LINE
  8
CSLAYER1
  6
CONTINUOUS
 62
     7
 10
595.750002
 20
1033.072504
 11
586.803853
 21
1033.072504
  0
LINE
  8
CSLAYER1
  6
CONTINUOUS
 62
     7
 10
586.000002
 20
1031.680193
 11
586.000002
 21
1013.680193
  0
LINE
  8
CSLAYER1
  6
CONTINUOUS
 62
     7
 10
595.749997
 20
1012.292693
 11
586.801076
 21
1012.292693
  0
LINE
  8
CSLAYER1
  6
CONTINUOUS
 62
     7
 10
586.000002
 20
1013.680193
 11
586.801076
 21
1012.292693
  0
LINE
  8
CSLAYER1
  6
CONTINUOUS
 62
     7
 10
586.000002
 20
1031.680193
 11
586.801076
 21
1033.067693
  0
ARC
  8
CSLAYER1
  6
CONTINUOUS
 62
     7
 10
589.404345
 20
1014.486443
 40
3.404343
 50
139.879485
 51
220.120515
  0
ARC
  8
CSLAYER1
  6
CONTINUOUS
 62
     7
 10
608.870387
 20
1022.680193
 40
22.870385
 50
164.790570
 51
195.209430
  0
ARC
  8
CSLAYER1
  6
CONTINUOUS
 62
     7
 10
589.404345
 20
1030.873943
 40
3.404343
 50
139.879485
 51
220.120515
  0
LINE
  8
CSLAYER1
  6
CONTINUOUS
 62
     7
 10
586.801076
 20
1016.680193
 11
595.749998
 21
1016.680193
  0
LINE
  8
CSLAYER1
  6
CONTINUOUS
 62
     7
 10
586.801076
 20
1028.680193
 11
595.750001
 21
1028.680193
  0
LINE
  8
CSLAYER1
  6
CONTINUOUS
 62
     7
 10
586.000002
 20
1017.493943
 11
580.086252
 21
1017.493943
  0
LINE
  8
CSLAYER1
  6
CONTINUOUS
 62
     7
 10
586.000002
 20
1027.866443
 11
580.086252
 21
1027.866443
  0
LINE
  8
CSLAYER1
  6
CONTINUOUS
 62
     7
 10
586.000002
 20
1028.680193
 11
580.900002
 21
1028.680193
  0
ARC
  8
CSLAYER1
  6
CONTINUOUS
 62
     7
 10
568.397214
 20
1019.250000
 40
6.000000
 50
90.000000
 51
171.554129
  0
ARC
  8
CSLAYER1
  6
CONTINUOUS
 62
     7
 10
568.397214
 20
1089.750000
 40
6.000000
 50
188.445871
 51
270.000000
  0
LINE
  8
CSLAYER1
  6
CONTINUOUS
 62
     7
 10
651.999999
 20
1028.625000
 11
651.999999
 21
1080.375000
  0
LINE
  8
CSLAYER1
  6
CONTINUOUS
 62
     7
 10
694.749999
 20
1028.625000
 11
651.999999
 21
1028.625000
  0
LINE
  8
CSLAYER1
  6
CONTINUOUS
 62
     7
 10
694.749999
 20
1080.375000
 11
651.999999
 21
1080.375000
  0
ARC
  8
CSLAYER1
  6
CONTINUOUS
 62
     7
 10
694.749999
 20
1054.500000
 40
25.875000
 50
-90.000000
 51
90.000000
  0
LINE
  8
CSLAYER1
  6
CENTER
 62
     2
 10
694.749999
 20
1101.750000
 11
694.749999
 21
908.412735
  0
LINE
  8
CSLAYER1
  6
CONTINUOUS
 62
     7
 10
685.749999
 20
947.300243
 11
703.749999
 21
947.300243
  0
LINE
  8
CSLAYER1
  6
CONTINUOUS
 62
     7
 10
646.463485
 20
939.050243
 11
743.036559
 21
939.050243
  0
LINE
  8
CSLAYER1
  6
CONTINUOUS
 62
     7
 10
704.182359
 20
939.050183
 11
703.749999
 21
947.300168
  0
LINE
  8
CSLAYER1
  6
CONTINUOUS
 62
     7
 10
720.887559
 20
939.050205
 11
703.867989
 21
945.050205
  0
LINE
  8
CSLAYER1
  6
CONTINUOUS
 62
     7
 10
646.233825
 20
936.425243
 11
743.266172
 21
936.425243
  0
LINE
  8
CSLAYER1
  6
CONTINUOUS
 62
     7
 10
743.036499
 20
939.050228
 11
743.266164
 21
936.425220
  0
LINE
  8
CSLAYER1
  6
CONTINUOUS
 62
     7
 10
728.482224
 20
939.050220
 11
728.711889
 21
936.425220
  0
LINE
  8
CSLAYER1
  6
CONTINUOUS
 62
     7
 10
702.249999
 20
933.425243
 11
713.644689
 21
933.425243
  0
LINE
  8
CSLAYER1
  6
CONTINUOUS
 62
     7
 10
701.499999
 20
932.112743
 11
714.394689
 21
932.112743
  0
LINE
  8
CSLAYER1
  6
CONTINUOUS
 62
     7
 10
701.322572
 20
928.625243
 11
712.894689
 21
928.625243
  0
LINE
  8
CSLAYER1
  6
CONTINUOUS
 62
     7
 10
714.394689
 20
930.125243
 11
714.394689
 21
932.675243
  0
LINE
  8
CSLAYER1
  6
CONTINUOUS
 62
     7
 10
685.317617
 20
939.050310
 11
685.749977
 21
947.300310
  0
LINE
  8
CSLAYER1
  6
CONTINUOUS
 62
     7
 10
668.612559
 20
939.050265
 11
685.632137
 21
945.050265
  0
LINE
  8
CSLAYER1
  6
CONTINUOUS
 62
     7
 10
700.092924
 20
926.037735
 11
714.641972
 21
926.037735
  0
LINE
  8
CSLAYER1
  6
CONTINUOUS
 62
     7
 10
728.306304
 20
933.425243
 11
732.160929
 21
933.425243
  0
LINE
  8
CSLAYER1
  6
CONTINUOUS
 62
     7
 10
728.067737
 20
932.112743
 11
732.910929
 21
932.112743
  0
LINE
  8
CSLAYER1
  6
CONTINUOUS
 62
     7
 10
727.117607
 20
928.625243
 11
731.410929
 21
928.625243
  0
LINE
  8
CSLAYER1
  6
CONTINUOUS
 62
     7
 10
732.910929
 20
930.125243
 11
732.910929
 21
932.675243
  0
LINE
  8
CSLAYER1
  6
CONTINUOUS
 62
     7
 10
725.521779
 20
926.037735
 11
729.196254
 21
926.037735
  0
LINE
  8
CSLAYER1
  6
CONTINUOUS
 62
     7
 10
701.499999
 20
930.162735
 11
701.499999
 21
932.675243
  0
LINE
  8
CSLAYER1
  6
CONTINUOUS
 62
     7
 10
646.463508
 20
939.050250
 11
646.233848
 21
936.425243
  0
LINE
  8
CSLAYER1
  6
CONTINUOUS
 62
     7
 10
661.017789
 20
939.050228
 11
660.788132
 21
936.425250
  0
LINE
  8
CSLAYER1
  6
CONTINUOUS
 62
     7
 10
687.249999
 20
933.425243
 11
675.855309
 21
933.425243
  0
LINE
  8
CSLAYER1
  6
CONTINUOUS
 62
     7
 10
687.999999
 20
932.112743
 11
675.105309
 21
932.112743
  0
LINE
  8
CSLAYER1
  6
CONTINUOUS
 62
     7
 10
688.177427
 20
928.625243
 11
676.605309
 21
928.625243
  0
LINE
  8
CSLAYER1
  6
CONTINUOUS
 62
     7
 10
675.105309
 20
930.125243
 11
675.105309
 21
932.675243
  0
LINE
  8
CSLAYER1
  6
CONTINUOUS
 62
     7
 10
689.407074
 20
926.037735
 11
674.858027
 21
926.037735
  0
LINE
  8
CSLAYER1
  6
CONTINUOUS
 62
     7
 10
661.193694
 20
933.425243
 11
657.339069
 21
933.425243
  0
LINE
  8
CSLAYER1
  6
CONTINUOUS
 62
     7
 10
661.432262
 20
932.112743
 11
656.589069
 21
932.112743
  0
LINE
  8
CSLAYER1
  6
CONTINUOUS
 62
     7
 10
662.382392
 20
928.625243
 11
658.089069
 21
928.625243
  0
LINE
  8
CSLAYER1
  6
CONTINUOUS
 62
     7
 10
656.589069
 20
930.125243
 11
656.589069
 21
932.675243
  0
LINE
  8
CSLAYER1
  6
CONTINUOUS
 62
     7
 10
663.978219
 20
926.037735
 11
660.303744
 21
926.037735
  0
LINE
  8
CSLAYER1
  6
CONTINUOUS
 62
     7
 10
687.999999
 20
930.162735
 11
687.999999
 21
932.675243
  0
LINE
  8
CSLAYER1
  6
CONTINUOUS
 62
     7
 10
680.499999
 20
957.750000
 11
708.999999
 21
957.750000
  0
LINE
  8
CSLAYER1
  6
CONTINUOUS
 62
     7
 10
680.499999
 20
974.625000
 11
708.999999
 21
974.625000
  0
LINE
  8
CSLAYER1
  6
CONTINUOUS
 62
     7
 10
700.374999
 20
947.300243
 11
700.374999
 21
957.750000
  0
LINE
  8
CSLAYER1
  6
CONTINUOUS
 62
     7
 10
689.124999
 20
947.300243
 11
689.124999
 21
957.750000
  0
LINE
  8
CSLAYER1
  6
CONTINUOUS
 62
     7
 10
708.999999
 20
957.750000
 11
708.999999
 21
974.625000
  0
LINE
  8
CSLAYER1
  6
CONTINUOUS
 62
     7
 10
680.499999
 20
957.750000
 11
680.499999
 21
974.625000
  0
LINE
  8
CSLAYER1
  6
CONTINUOUS
 62
     7
 10
694.749999
 20
957.750000
 11
694.749999
 21
974.625000
  0
LINE
  8
CSLAYER1
  6
CONTINUOUS
 62
     7
 10
668.874999
 20
1016.250000
 11
720.624999
 21
1016.250000
  0
LINE
  8
CSLAYER1
  6
CONTINUOUS
 62
     7
 10
668.874999
 20
1019.625000
 11
720.624999
 21
1019.625000
  0
LINE
  8
CSLAYER1
  6
CONTINUOUS
 62
     7
 10
720.624999
 20
1013.399357
 11
720.624999
 21
1019.625000
  0
LINE
  8
CSLAYER1
  6
CONTINUOUS
 62
     7
 10
719.874999
 20
1019.625000
 11
719.874999
 21
1021.281270
  0
LINE
  8
CSLAYER1
  6
CONTINUOUS
 62
     7
 10
669.624999
 20
1019.625000
 11
669.624999
 21
1021.281270
  0
LINE
  8
CSLAYER1
  6
CONTINUOUS
 62
     7
 10
711.999999
 20
1011.780036
 11
720.624999
 21
1013.399355
  0
LINE
  8
CSLAYER1
  6
CONTINUOUS
 62
     7
 10
668.874999
 20
1013.399311
 11
668.874999
 21
1019.625000
  0
LINE
  8
CSLAYER1
  6
CONTINUOUS
 62
     7
 10
677.499999
 20
1011.779995
 11
668.874999
 21
1013.399314
  0
LINE
  8
CSLAYER1
  6
CONTINUOUS
 62
     7
 10
722.499999
 20
1038.478535
 11
722.499999
 21
1070.521466
  0
LINE
  8
CSLAYER1
  6
CONTINUOUS
 62
     7
 10
684.066811
 20
1080.375000
 11
694.749999
 21
1086.542943
  0
LINE
  8
CSLAYER1
  6
CONTINUOUS
 62
     7
 10
694.750014
 20
1022.457067
 11
722.499999
 21
1038.478532
  0
LINE
  8
CSLAYER1
  6
CONTINUOUS
 62
     7
 10
694.750014
 20
1086.542934
 11
722.499999
 21
1070.521469
  0
LINE
  8
CSLAYER1
  6
CONTINUOUS
 62
     7
 10
684.066811
 20
1028.625000
 11
694.749999
 21
1022.457058
  0
LINE
  8
CSLAYER1
  6
CONTINUOUS
 62
     7
 10
711.999999
 20
1003.152753
 11
711.999999
 21
1011.780018
  0
LINE
  8
CSLAYER1
  6
CONTINUOUS
 62
     7
 10
677.499999
 20
1003.152753
 11
677.499999
 21
1011.780007
  0
LINE
  8
CSLAYER1
  6
CONTINUOUS
 62
     7
 10
677.499999
 20
1003.152753
 11
711.999999
 21
1003.152753
  0
LINE
  8
CSLAYER1
  6
CONTINUOUS
 62
     7
 10
677.499999
 20
1011.780007
 11
711.999999
 21
1011.780018
  0
LINE
  8
CSLAYER1
  6
CONTINUOUS
 62
     7
 10
694.749999
 20
1003.152753
 11
694.749999
 21
1011.780018
  0
LINE
  8
CSLAYER1
  6
CONTINUOUS
 62
     7
 10
668.874999
 20
1013.399314
 11
720.624999
 21
1013.399360
  0
LINE
  8
CSLAYER1
  6
CONTINUOUS
 62
     7
 10
706.374999
 20
978.375000
 11
706.374999
 21
995.890904
  0
LINE
  8
CSLAYER1
  6
CONTINUOUS
 62
     7
 10
683.124999
 20
978.375000
 11
683.124999
 21
995.890904
  0
LINE
  8
CSLAYER1
  6
CONTINUOUS
 62
     7
 10
682.749999
 20
978.375000
 11
706.749999
 21
978.375000
  0
LINE
  8
CSLAYER1
  6
CONTINUOUS
 62
     7
 10
706.749999
 20
974.625000
 11
706.749999
 21
978.375000
  0
LINE
  8
CSLAYER1
  6
CONTINUOUS
 62
     7
 10
682.749999
 20
974.625000
 11
682.749999
 21
978.375000
  0
LINE
  8
CSLAYER1
  6
CONTINUOUS
 62
     7
 10
706.374999
 20
974.625000
 11
706.374999
 21
978.375000
  0
LINE
  8
CSLAYER1
  6
CONTINUOUS
 62
     7
 10
683.124999
 20
974.625000
 11
683.124999
 21
978.375000
  0
ARC
  8
CSLAYER1
  6
CONTINUOUS
 62
     7
 10
695.519762
 20
941.352758
 40
48.000000
 50
346.741927
 51
354.107831
  0
ARC
  8
CSLAYER1
  6
CONTINUOUS
 62
     7
 10
732.095649
 20
932.745458
 40
10.425000
 50
316.103283
 51
346.685099
  0
ARC
  8
CSLAYER1
  6
CONTINUOUS
 62
     7
 10
734.630522
 20
930.350235
 40
6.937500
 50
218.434660
 51
315.849702
  0
ARC
  8
CSLAYER1
  6
CONTINUOUS
 62
     7
 10
680.965479
 20
941.352758
 40
48.000000
 50
346.741927
 51
354.107831
  0
ARC
  8
CSLAYER1
  6
CONTINUOUS
 62
     7
 10
717.541367
 20
932.745458
 40
10.425000
 50
316.103283
 51
346.685099
  0
ARC
  8
CSLAYER1
  6
CONTINUOUS
 62
     7
 10
720.076232
 20
930.350235
 40
6.937500
 50
218.434660
 51
315.849702
  0
ARC
  8
CSLAYER1
  6
CONTINUOUS
 62
     7
 10
712.894689
 20
930.125243
 40
1.500000
 50
270.000018
 51
360.000000
  0
ARC
  8
CSLAYER1
  6
CONTINUOUS
 62
     7
 10
713.644689
 20
932.675243
 40
0.750000
 50
0.000000
 51
89.999980
  0
ARC
  8
CSLAYER1
  6
CONTINUOUS
 62
     7
 10
731.410929
 20
930.125243
 40
1.500000
 50
270.000018
 51
360.000000
  0
ARC
  8
CSLAYER1
  6
CONTINUOUS
 62
     7
 10
732.160929
 20
932.675243
 40
0.750000
 50
0.000000
 51
89.999980
  0
ARC
  8
CSLAYER1
  6
CONTINUOUS
 62
     7
 10
694.749999
 20
930.162735
 40
6.750000
 50
179.999980
 51
360.000000
  0
ARC
  8
CSLAYER1
  6
CONTINUOUS
 62
     7
 10
702.249999
 20
932.675243
 40
0.750000
 50
90.000000
 51
179.999980
  0
ARC
  8
CSLAYER1
  6
CONTINUOUS
 62
     7
 10
693.980237
 20
941.352758
 40
48.000000
 50
185.892190
 51
193.258090
  0
ARC
  8
CSLAYER1
  6
CONTINUOUS
 62
     7
 10
657.404349
 20
932.745458
 40
10.425000
 50
193.314920
 51
223.896730
  0
ARC
  8
CSLAYER1
  6
CONTINUOUS
 62
     7
 10
654.869477
 20
930.350235
 40
6.937500
 50
224.150320
 51
321.565341
  0
ARC
  8
CSLAYER1
  6
CONTINUOUS
 62
     7
 10
708.534519
 20
941.352758
 40
48.000000
 50
185.892190
 51
193.258090
  0
ARC
  8
CSLAYER1
  6
CONTINUOUS
 62
     7
 10
671.958632
 20
932.745458
 40
10.425000
 50
193.314920
 51
223.896730
  0
ARC
  8
CSLAYER1
  6
CONTINUOUS
 62
     7
 10
669.423767
 20
930.350235
 40
6.937500
 50
224.150320
 51
321.565341
  0
ARC
  8
CSLAYER1
  6
CONTINUOUS
 62
     7
 10
676.605309
 20
930.125243
 40
1.500000
 50
179.999980
 51
269.999963
  0
ARC
  8
CSLAYER1
  6
CONTINUOUS
 62
     7
 10
675.855309
 20
932.675243
 40
0.750000
 50
90.000000
 51
179.999980
  0
ARC
  8
CSLAYER1
  6
CONTINUOUS
 62
     7
 10
658.089069
 20
930.125243
 40
1.500000
 50
179.999980
 51
269.999963
  0
ARC
  8
CSLAYER1
  6
CONTINUOUS
 62
     7
 10
657.339069
 20
932.675243
 40
0.750000
 50
90.000000
 51
179.999980
  0
ARC
  8
CSLAYER1
  6
CONTINUOUS
 62
     7
 10
687.249999
 20
932.675243
 40
0.750000
 50
0.000020
 51
89.999980
  0
ARC
  8
CSLAYER1
  6
CONTINUOUS
 62
     7
 10
713.874999
 20
995.890904
 40
7.500000
 50
104.477490
 51
180.000040
  0
ARC
  8
CSLAYER1
  6
CONTINUOUS
 62
     7
 10
694.749999
 20
1054.500000
 40
32.250000
 50
-24.211583
 51
126.647244
  0
ARC
  8
CSLAYER1
  6
CONTINUOUS
 62
     7
 10
768.624999
 20
1021.281270
 40
48.750000
 50
155.788370
 51
180.000020
  0
ARC
  8
CSLAYER1
  6
CONTINUOUS
 62
     7
 10
620.874999
 20
1021.281270
 40
48.750000
 50
0.000010
 51
8.664054
  0
ARC
  8
CSLAYER1
  6
CONTINUOUS
 62
     7
 10
675.624999
 20
995.890904
 40
7.500000
 50
-0.000036
 51
75.522490
  0
LINE
  8
CSLAYER1
  6
CONTINUOUS
 62
     7
 10
283.257233
 20
538.500000
 11
298.257233
 21
538.500000
  0
LINE
  8
CSLAYER1
  6
CONTINUOUS
 62
     7
 10
299.757233
 20
540.000000
 11
299.757233
 21
545.250000
  0
LINE
  8
CSLAYER1
  6
CONTINUOUS
 62
     7
 10
277.257233
 20
624.750000
 11
275.157233
 21
623.537565
  0
LINE
  8
CSLAYER1
  6
CONTINUOUS
 62
     7
 10
275.157233
 20
623.537565
 11
275.157233
 21
613.500000
  0
LINE
  8
CSLAYER1
  6
CONTINUOUS
 62
     7
 10
304.257233
 20
624.750000
 11
306.357233
 21
623.537565
  0
LINE
  8
CSLAYER1
  6
CONTINUOUS
 62
     7
 10
306.357233
 20
623.537565
 11
306.357233
 21
613.500000
  0
LINE
  8
CSLAYER1
  6
CONTINUOUS
 62
     7
 10
277.257233
 20
624.750000
 11
304.257233
 21
624.750000
  0
LINE
  8
CSLAYER1
  6
CONTINUOUS
 62
     7
 10
275.157233
 20
613.500000
 11
306.357233
 21
613.500000
  0
ARC
  8
CSLAYER1
  6
CONTINUOUS
 62
     7
 10
278.457233
 20
619.652822
 40
5.097178
 50
49.652860
 51
130.347140
  0
ARC
  8
CSLAYER1
  6
CONTINUOUS
 62
     7
 10
290.757233
 20
590.739946
 40
34.010055
 50
74.655173
 51
105.344827
  0
ARC
  8
CSLAYER1
  6
CONTINUOUS
 62
     7
 10
303.057233
 20
619.652822
 40
5.097178
 50
49.652860
 51
130.347140
  0
LINE
  8
CSLAYER1
  6
CONTINUOUS
 62
     7
 10
281.757233
 20
623.537565
 11
281.757233
 21
613.500000
  0
LINE
  8
CSLAYER1
  6
CONTINUOUS
 62
     7
 10
299.757233
 20
623.537565
 11
299.757233
 21
613.500000
  0
LINE
  8
CSLAYER1
  6
CONTINUOUS
 62
     7
 10
281.757233
 20
540.000000
 11
283.257233
 21
538.500000
  0
LINE
  8
CSLAYER1
  6
CONTINUOUS
 62
     7
 10
298.257233
 20
538.500000
 11
299.757233
 21
540.000000
  0
LINE
  8
CSLAYER1
  6
CONTINUOUS
 62
     7
 10
298.632233
 20
538.875000
 11
298.632233
 21
545.250000
  0
LINE
  8
CSLAYER1
  6
CONTINUOUS
 62
     7
 10
281.757233
 20
540.000000
 11
299.757233
 21
540.000000
  0
LINE
  8
CSLAYER1
  6
CONTINUOUS
 62
     7
 10
275.157233
 20
559.500000
 11
306.357233
 21
559.500000
  0
LINE
  8
CSLAYER1
  6
CONTINUOUS
 62
     7
 10
277.257233
 20
545.250000
 11
304.257233
 21
545.250000
  0
LINE
  8
CSLAYER1
  6
CONTINUOUS
 62
     7
 10
277.257233
 20
545.250000
 11
275.157233
 21
546.462436
  0
LINE
  8
CSLAYER1
  6
CONTINUOUS
 62
     7
 10
304.257233
 20
545.250000
 11
306.357233
 21
546.462436
  0
LINE
  8
CSLAYER1
  6
CONTINUOUS
 62
     7
 10
275.157233
 20
559.500000
 11
275.157233
 21
546.462436
  0
LINE
  8
CSLAYER1
  6
CONTINUOUS
 62
     7
 10
306.357233
 20
559.500000
 11
306.357233
 21
546.462436
  0
ARC
  8
CSLAYER1
  6
CONTINUOUS
 62
     7
 10
278.457233
 20
550.347178
 40
5.097178
 50
229.652860
 51
310.347140
  0
ARC
  8
CSLAYER1
  6
CONTINUOUS
 62
     7
 10
290.757233
 20
579.260055
 40
34.010055
 50
254.655173
 51
285.344827
  0
ARC
  8
CSLAYER1
  6
CONTINUOUS
 62
     7
 10
303.057233
 20
550.347178
 40
5.097178
 50
229.652860
 51
310.347140
  0
LINE
  8
CSLAYER1
  6
CONTINUOUS
 62
     7
 10
281.757233
 20
559.500000
 11
281.757233
 21
546.462436
  0
LINE
  8
CSLAYER1
  6
CONTINUOUS
 62
     7
 10
299.757233
 20
559.500000
 11
299.757233
 21
546.462436
  0
LINE
  8
CSLAYER1
  6
CONTINUOUS
 62
     7
 10
281.757233
 20
545.250000
 11
281.757233
 21
540.000000
  0
LINE
  8
CSLAYER1
  6
CONTINUOUS
 62
     7
 10
282.882233
 20
545.250000
 11
282.882233
 21
538.875000
  0
LINE
  8
CSLAYER1
  6
CENTER
 62
     2
 10
290.757233
 20
632.250000
 11
290.757233
 21
531.000000
  0
LINE
  8
CSLAYER1
  6
CONTINUOUS
 62
     7
 10
206.710943
 20
538.500000
 11
221.710943
 21
538.500000
  0
LINE
  8
CSLAYER1
  6
CONTINUOUS
 62
     7
 10
223.210943
 20
540.000000
 11
223.210943
 21
545.250000
  0
LINE
  8
CSLAYER1
  6
CONTINUOUS
 62
     7
 10
200.710943
 20
624.750000
 11
198.610943
 21
623.537565
  0
LINE
  8
CSLAYER1
  6
CONTINUOUS
 62
     7
 10
198.610943
 20
623.537565
 11
198.610943
 21
613.500000
  0
LINE
  8
CSLAYER1
  6
CONTINUOUS
 62
     7
 10
227.710943
 20
624.750000
 11
229.810943
 21
623.537565
  0
LINE
  8
CSLAYER1
  6
CONTINUOUS
 62
     7
 10
229.810943
 20
623.537565
 11
229.810943
 21
613.500000
  0
LINE
  8
CSLAYER1
  6
CONTINUOUS
 62
     7
 10
200.710943
 20
624.750000
 11
227.710943
 21
624.750000
  0
LINE
  8
CSLAYER1
  6
CONTINUOUS
 62
     7
 10
198.610943
 20
613.500000
 11
229.810943
 21
613.500000
  0
ARC
  8
CSLAYER1
  6
CONTINUOUS
 62
     7
 10
201.910943
 20
619.652822
 40
5.097178
 50
49.652860
 51
130.347140
  0
ARC
  8
CSLAYER1
  6
CONTINUOUS
 62
     7
 10
214.210943
 20
590.739946
 40
34.010055
 50
74.655173
 51
105.344827
  0
ARC
  8
CSLAYER1
  6
CONTINUOUS
 62
     7
 10
226.510943
 20
619.652822
 40
5.097178
 50
49.652860
 51
130.347140
  0
LINE
  8
CSLAYER1
  6
CONTINUOUS
 62
     7
 10
205.210943
 20
623.537565
 11
205.210943
 21
613.500000
  0
LINE
  8
CSLAYER1
  6
CONTINUOUS
 62
     7
 10
223.210943
 20
623.537565
 11
223.210943
 21
613.500000
  0
LINE
  8
CSLAYER1
  6
CONTINUOUS
 62
     7
 10
205.210943
 20
540.000000
 11
206.710943
 21
538.500000
  0
LINE
  8
CSLAYER1
  6
CONTINUOUS
 62
     7
 10
221.710943
 20
538.500000
 11
223.210943
 21
540.000000
  0
LINE
  8
CSLAYER1
  6
CONTINUOUS
 62
     7
 10
222.085943
 20
538.875000
 11
222.085943
 21
545.250000
  0
LINE
  8
CSLAYER1
  6
CONTINUOUS
 62
     7
 10
205.210943
 20
540.000000
 11
223.210943
 21
540.000000
  0
LINE
  8
CSLAYER1
  6
CONTINUOUS
 62
     7
 10
198.610943
 20
559.500000
 11
229.810943
 21
559.500000
  0
LINE
  8
CSLAYER1
  6
CONTINUOUS
 62
     7
 10
200.710943
 20
545.250000
 11
227.710943
 21
545.250000
  0
LINE
  8
CSLAYER1
  6
CONTINUOUS
 62
     7
 10
200.710943
 20
545.250000
 11
198.610943
 21
546.462436
  0
LINE
  8
CSLAYER1
  6
CONTINUOUS
 62
     7
 10
227.710943
 20
545.250000
 11
229.810943
 21
546.462436
  0
LINE
  8
CSLAYER1
  6
CONTINUOUS
 62
     7
 10
198.610943
 20
559.500000
 11
198.610943
 21
546.462436
  0
LINE
  8
CSLAYER1
  6
CONTINUOUS
 62
     7
 10
229.810943
 20
559.500000
 11
229.810943
 21
546.462436
  0
ARC
  8
CSLAYER1
  6
CONTINUOUS
 62
     7
 10
201.910943
 20
550.347178
 40
5.097178
 50
229.652860
 51
310.347140
  0
ARC
  8
CSLAYER1
  6
CONTINUOUS
 62
     7
 10
214.210943
 20
579.260055
 40
34.010055
 50
254.655173
 51
285.344827
  0
ARC
  8
CSLAYER1
  6
CONTINUOUS
 62
     7
 10
226.510943
 20
550.347178
 40
5.097178
 50
229.652860
 51
310.347140
  0
LINE
  8
CSLAYER1
  6
CONTINUOUS
 62
     7
 10
205.210943
 20
559.500000
 11
205.210943
 21
546.462436
  0
LINE
  8
CSLAYER1
  6
CONTINUOUS
 62
     7
 10
223.210943
 20
559.500000
 11
223.210943
 21
546.462436
  0
LINE
  8
CSLAYER1
  6
CONTINUOUS
 62
     7
 10
205.210943
 20
545.250000
 11
205.210943
 21
540.000000
  0
LINE
  8
CSLAYER1
  6
CONTINUOUS
 62
     7
 10
206.335943
 20
545.250000
 11
206.335943
 21
538.875000
  0
LINE
  8
CSLAYER1
  6
CENTER
 62
     2
 10
214.210943
 20
632.250000
 11
214.210943
 21
531.000000
  0
LINE
  8
CSLAYER1
  6
CONTINUOUS
 62
     7
 10
141.596780
 20
538.500000
 11
156.596780
 21
538.500000
  0
LINE
  8
CSLAYER1
  6
CONTINUOUS
 62
     7
 10
158.096780
 20
540.000000
 11
158.096780
 21
545.250000
  0
LINE
  8
CSLAYER1
  6
CONTINUOUS
 62
     7
 10
135.596780
 20
624.750000
 11
133.496780
 21
623.537565
  0
LINE
  8
CSLAYER1
  6
CONTINUOUS
 62
     7
 10
133.496780
 20
623.537565
 11
133.496780
 21
613.500000
  0
LINE
  8
CSLAYER1
  6
CONTINUOUS
 62
     7
 10
162.596780
 20
624.750000
 11
164.696780
 21
623.537565
  0
LINE
  8
CSLAYER1
  6
CONTINUOUS
 62
     7
 10
164.696780
 20
623.537565
 11
164.696780
 21
613.500000
  0
LINE
  8
CSLAYER1
  6
CONTINUOUS
 62
     7
 10
135.596780
 20
624.750000
 11
162.596780
 21
624.750000
  0
LINE
  8
CSLAYER1
  6
CONTINUOUS
 62
     7
 10
133.496780
 20
613.500000
 11
164.696780
 21
613.500000
  0
ARC
  8
CSLAYER1
  6
CONTINUOUS
 62
     7
 10
136.796780
 20
619.652822
 40
5.097178
 50
49.652860
 51
130.347140
  0
ARC
  8
CSLAYER1
  6
CONTINUOUS
 62
     7
 10
149.096780
 20
590.739946
 40
34.010055
 50
74.655173
 51
105.344827
  0
ARC
  8
CSLAYER1
  6
CONTINUOUS
 62
     7
 10
161.396780
 20
619.652822
 40
5.097178
 50
49.652860
 51
130.347140
  0
LINE
  8
CSLAYER1
  6
CONTINUOUS
 62
     7
 10
140.096780
 20
623.537565
 11
140.096780
 21
613.500000
  0
LINE
  8
CSLAYER1
  6
CONTINUOUS
 62
     7
 10
158.096780
 20
623.537565
 11
158.096780
 21
613.500000
  0
LINE
  8
CSLAYER1
  6
CONTINUOUS
 62
     7
 10
140.096780
 20
540.000000
 11
141.596780
 21
538.500000
  0
LINE
  8
CSLAYER1
  6
CONTINUOUS
 62
     7
 10
156.596780
 20
538.500000
 11
158.096780
 21
540.000000
  0
LINE
  8
CSLAYER1
  6
CONTINUOUS
 62
     7
 10
156.971780
 20
538.875000
 11
156.971780
 21
545.250000
  0
LINE
  8
CSLAYER1
  6
CONTINUOUS
 62
     7
 10
140.096780
 20
540.000000
 11
158.096780
 21
540.000000
  0
LINE
  8
CSLAYER1
  6
CONTINUOUS
 62
     7
 10
133.496780
 20
559.500000
 11
164.696780
 21
559.500000
  0
LINE
  8
CSLAYER1
  6
CONTINUOUS
 62
     7
 10
135.596780
 20
545.250000
 11
162.596780
 21
545.250000
  0
LINE
  8
CSLAYER1
  6
CONTINUOUS
 62
     7
 10
135.596780
 20
545.250000
 11
133.496780
 21
546.462436
  0
LINE
  8
CSLAYER1
  6
CONTINUOUS
 62
     7
 10
162.596780
 20
545.250000
 11
164.696780
 21
546.462436
  0
LINE
  8
CSLAYER1
  6
CONTINUOUS
 62
     7
 10
133.496780
 20
559.500000
 11
133.496780
 21
546.462436
  0
LINE
  8
CSLAYER1
  6
CONTINUOUS
 62
     7
 10
164.696780
 20
559.500000
 11
164.696780
 21
546.462436
  0
ARC
  8
CSLAYER1
  6
CONTINUOUS
 62
     7
 10
136.796780
 20
550.347178
 40
5.097178
 50
229.652860
 51
310.347140
  0
ARC
  8
CSLAYER1
  6
CONTINUOUS
 62
     7
 10
149.096780
 20
579.260055
 40
34.010055
 50
254.655173
 51
285.344827
  0
ARC
  8
CSLAYER1
  6
CONTINUOUS
 62
     7
 10
161.396780
 20
550.347178
 40
5.097178
 50
229.652860
 51
310.347140
  0
LINE
  8
CSLAYER1
  6
CONTINUOUS
 62
     7
 10
140.096780
 20
559.500000
 11
140.096780
 21
546.462436
  0
LINE
  8
CSLAYER1
  6
CONTINUOUS
 62
     7
 10
158.096780
 20
559.500000
 11
158.096780
 21
546.462436
  0
LINE
  8
CSLAYER1
  6
CONTINUOUS
 62
     7
 10
140.096780
 20
545.250000
 11
140.096780
 21
540.000000
  0
LINE
  8
CSLAYER1
  6
CONTINUOUS
 62
     7
 10
141.221780
 20
545.250000
 11
141.221780
 21
538.875000
  0
LINE
  8
CSLAYER1
  6
CENTER
 62
     2
 10
149.096780
 20
632.250000
 11
149.096780
 21
531.000000
  0
LINE
  8
CSLAYER1
  6
CONTINUOUS
 62
     7
 10
94.288571
 20
538.500000
 11
109.288571
 21
538.500000
  0
LINE
  8
CSLAYER1
  6
CONTINUOUS
 62
     7
 10
110.788571
 20
540.000000
 11
110.788571
 21
545.250000
  0
LINE
  8
CSLAYER1
  6
CONTINUOUS
 62
     7
 10
88.288571
 20
624.750000
 11
86.188571
 21
623.537565
  0
LINE
  8
CSLAYER1
  6
CONTINUOUS
 62
     7
 10
86.188571
 20
623.537565
 11
86.188571
 21
613.500000
  0
LINE
  8
CSLAYER1
  6
CONTINUOUS
 62
     7
 10
115.288571
 20
624.750000
 11
117.388571
 21
623.537565
  0
LINE
  8
CSLAYER1
  6
CONTINUOUS
 62
     7
 10
117.388571
 20
623.537565
 11
117.388571
 21
613.500000
  0
LINE
  8
CSLAYER1
  6
CONTINUOUS
 62
     7
 10
88.288571
 20
624.750000
 11
115.288571
 21
624.750000
  0
LINE
  8
CSLAYER1
  6
CONTINUOUS
 62
     7
 10
86.188571
 20
613.500000
 11
117.388571
 21
613.500000
  0
ARC
  8
CSLAYER1
  6
CONTINUOUS
 62
     7
 10
89.488571
 20
619.652822
 40
5.097178
 50
49.652860
 51
130.347140
  0
ARC
  8
CSLAYER1
  6
CONTINUOUS
 62
     7
 10
101.788571
 20
590.739946
 40
34.010055
 50
74.655173
 51
105.344827
  0
ARC
  8
CSLAYER1
  6
CONTINUOUS
 62
     7
 10
114.088571
 20
619.652822
 40
5.097178
 50
49.652860
 51
130.347140
  0
LINE
  8
CSLAYER1
  6
CONTINUOUS
 62
     7
 10
92.788571
 20
623.537565
 11
92.788571
 21
613.500000
  0
LINE
  8
CSLAYER1
  6
CONTINUOUS
 62
     7
 10
110.788571
 20
623.537565
 11
110.788571
 21
613.500000
  0
LINE
  8
CSLAYER1
  6
CONTINUOUS
 62
     7
 10
92.788571
 20
540.000000
 11
94.288571
 21
538.500000
  0
LINE
  8
CSLAYER1
  6
CONTINUOUS
 62
     7
 10
109.288571
 20
538.500000
 11
110.788571
 21
540.000000
  0
LINE
  8
CSLAYER1
  6
CONTINUOUS
 62
     7
 10
109.663571
 20
538.875000
 11
109.663571
 21
545.250000
  0
LINE
  8
CSLAYER1
  6
CONTINUOUS
 62
     7
 10
92.788571
 20
540.000000
 11
110.788571
 21
540.000000
  0
LINE
  8
CSLAYER1
  6
CONTINUOUS
 62
     7
 10
86.188571
 20
559.500000
 11
117.388571
 21
559.500000
  0
LINE
  8
CSLAYER1
  6
CONTINUOUS
 62
     7
 10
88.288571
 20
545.250000
 11
115.288571
 21
545.250000
  0
LINE
  8
CSLAYER1
  6
CONTINUOUS
 62
     7
 10
88.288571
 20
545.250000
 11
86.188571
 21
546.462436
  0
LINE
  8
CSLAYER1
  6
CONTINUOUS
 62
     7
 10
115.288571
 20
545.250000
 11
117.388571
 21
546.462436
  0
LINE
  8
CSLAYER1
  6
CONTINUOUS
 62
     7
 10
86.188571
 20
559.500000
 11
86.188571
 21
546.462436
  0
LINE
  8
CSLAYER1
  6
CONTINUOUS
 62
     7
 10
117.388571
 20
559.500000
 11
117.388571
 21
546.462436
  0
ARC
  8
CSLAYER1
  6
CONTINUOUS
 62
     7
 10
89.488571
 20
550.347178
 40
5.097178
 50
229.652860
 51
310.347140
  0
ARC
  8
CSLAYER1
  6
CONTINUOUS
 62
     7
 10
101.788571
 20
579.260055
 40
34.010055
 50
254.655173
 51
285.344827
  0
ARC
  8
CSLAYER1
  6
CONTINUOUS
 62
     7
 10
114.088571
 20
550.347178
 40
5.097178
 50
229.652860
 51
310.347140
  0
LINE
  8
CSLAYER1
  6
CONTINUOUS
 62
     7
 10
92.788571
 20
559.500000
 11
92.788571
 21
546.462436
  0
LINE
  8
CSLAYER1
  6
CONTINUOUS
 62
     7
 10
110.788571
 20
559.500000
 11
110.788571
 21
546.462436
  0
LINE
  8
CSLAYER1
  6
CONTINUOUS
 62
     7
 10
92.788571
 20
545.250000
 11
92.788571
 21
540.000000
  0
LINE
  8
CSLAYER1
  6
CONTINUOUS
 62
     7
 10
93.913571
 20
545.250000
 11
93.913571
 21
538.875000
  0
LINE
  8
CSLAYER1
  6
CENTER
 62
     2
 10
101.788571
 20
632.250000
 11
101.788571
 21
531.000000
  0
LINE
  8
CSLAYER1
  6
CONTINUOUS
 62
     7
 10
69.417174
 20
538.500000
 11
84.417174
 21
538.500000
  0
LINE
  8
CSLAYER1
  6
CONTINUOUS
 62
     7
 10
85.917174
 20
540.000000
 11
85.917174
 21
545.250000
  0
LINE
  8
CSLAYER1
  6
CONTINUOUS
 62
     7
 10
63.417174
 20
624.750000
 11
61.317174
 21
623.537565
  0
LINE
  8
CSLAYER1
  6
CONTINUOUS
 62
     7
 10
61.317174
 20
623.537565
 11
61.317174
 21
613.500000
  0
LINE
  8
CSLAYER1
  6
CONTINUOUS
 62
     7
 10
63.417174
 20
624.750000
 11
90.417174
 21
624.750000
  0
LINE
  8
CSLAYER1
  6
CONTINUOUS
 62
     7
 10
61.317174
 20
613.500000
 11
92.517174
 21
613.500000
  0
ARC
  8
CSLAYER1
  6
CONTINUOUS
 62
     7
 10
64.617174
 20
619.652822
 40
5.097178
 50
49.652860
 51
130.347140
  0
ARC
  8
CSLAYER1
  6
CONTINUOUS
 62
     7
 10
76.917174
 20
590.739946
 40
34.010055
 50
74.655173
 51
105.344827
  0
ARC
  8
CSLAYER1
  6
CONTINUOUS
 62
     7
 10
89.217174
 20
619.652822
 40
5.097178
 50
103.159566
 51
130.347140
  0
LINE
  8
CSLAYER1
  6
CONTINUOUS
 62
     7
 10
67.917174
 20
623.537565
 11
67.917174
 21
613.500000
  0
LINE
  8
CSLAYER1
  6
CONTINUOUS
 62
     7
 10
85.917174
 20
623.537565
 11
85.917174
 21
613.500000
  0
LINE
  8
CSLAYER1
  6
CONTINUOUS
 62
     7
 10
67.917174
 20
540.000000
 11
69.417174
 21
538.500000
  0
LINE
  8
CSLAYER1
  6
CONTINUOUS
 62
     7
 10
84.417174
 20
538.500000
 11
85.917174
 21
540.000000
  0
LINE
  8
CSLAYER1
  6
CONTINUOUS
 62
     7
 10
84.792174
 20
538.875000
 11
84.792174
 21
545.250000
  0
LINE
  8
CSLAYER1
  6
CONTINUOUS
 62
     7
 10
67.917174
 20
540.000000
 11
85.917174
 21
540.000000
  0
LINE
  8
CSLAYER1
  6
CONTINUOUS
 62
     7
 10
61.317174
 20
559.500000
 11
92.517174
 21
559.500000
  0
LINE
  8
CSLAYER1
  6
CONTINUOUS
 62
     7
 10
63.417174
 20
545.250000
 11
90.417174
 21
545.250000
  0
LINE
  8
CSLAYER1
  6
CONTINUOUS
 62
     7
 10
63.417174
 20
545.250000
 11
61.317174
 21
546.462436
  0
LINE
  8
CSLAYER1
  6
CONTINUOUS
 62
     7
 10
61.317174
 20
559.500000
 11
61.317174
 21
546.462436
  0
ARC
  8
CSLAYER1
  6
CONTINUOUS
 62
     7
 10
64.617174
 20
550.347178
 40
5.097178
 50
229.652860
 51
310.347140
  0
ARC
  8
CSLAYER1
  6
CONTINUOUS
 62
     7
 10
76.917174
 20
579.260055
 40
34.010055
 50
254.655173
 51
285.344827
  0
ARC
  8
CSLAYER1
  6
CONTINUOUS
 62
     7
 10
89.217174
 20
550.347178
 40
5.097178
 50
229.652860
 51
256.840434
  0
LINE
  8
CSLAYER1
  6
CONTINUOUS
 62
     7
 10
67.917174
 20
559.500000
 11
67.917174
 21
546.462436
  0
LINE
  8
CSLAYER1
  6
CONTINUOUS
 62
     7
 10
85.917174
 20
559.500000
 11
85.917174
 21
546.462436
  0
LINE
  8
CSLAYER1
  6
CONTINUOUS
 62
     7
 10
67.917174
 20
545.250000
 11
67.917174
 21
540.000000
  0
LINE
  8
CSLAYER1
  6
CONTINUOUS
 62
     7
 10
69.042174
 20
545.250000
 11
69.042174
 21
538.875000
  0
LINE
  8
CSLAYER1
  6
CENTER
 62
     2
 10
76.917174
 20
632.250000
 11
76.917174
 21
531.000000
  0
LINE
  8
CSLAYER1
  6
CONTINUOUS
 62
     7
 10
563.499999
 20
587.250000
 11
563.499999
 21
585.750000
  0
LINE
  8
CSLAYER1
  6
CONTINUOUS
 62
     7
 10
564.999999
 20
624.750000
 11
564.999999
 21
633.750000
  0
LINE
  8
CSLAYER1
  6
CONTINUOUS
 62
     7
 10
378.742766
 20
538.500000
 11
363.742766
 21
538.500000
  0
LINE
  8
CSLAYER1
  6
CONTINUOUS
 62
     7
 10
362.242766
 20
540.000000
 11
362.242766
 21
545.250000
  0
LINE
  8
CSLAYER1
  6
CONTINUOUS
 62
     7
 10
384.742766
 20
624.750000
 11
386.842766
 21
623.537565
  0
LINE
  8
CSLAYER1
  6
CONTINUOUS
 62
     7
 10
386.842766
 20
623.537565
 11
386.842766
 21
613.500000
  0
LINE
  8
CSLAYER1
  6
CONTINUOUS
 62
     7
 10
357.742766
 20
624.750000
 11
355.642766
 21
623.537565
  0
LINE
  8
CSLAYER1
  6
CONTINUOUS
 62
     7
 10
355.642766
 20
623.537565
 11
355.642766
 21
613.500000
  0
LINE
  8
CSLAYER1
  6
CONTINUOUS
 62
     7
 10
384.742766
 20
624.750000
 11
357.742766
 21
624.750000
  0
LINE
  8
CSLAYER1
  6
CONTINUOUS
 62
     7
 10
386.842766
 20
613.500000
 11
355.642766
 21
613.500000
  0
ARC
  8
CSLAYER1
  6
CONTINUOUS
 62
     7
 10
383.542766
 20
619.652822
 40
5.097178
 50
49.652860
 51
130.347140
  0
ARC
  8
CSLAYER1
  6
CONTINUOUS
 62
     7
 10
371.242766
 20
590.739946
 40
34.010055
 50
74.655173
 51
105.344827
  0
ARC
  8
CSLAYER1
  6
CONTINUOUS
 62
     7
 10
358.942766
 20
619.652822
 40
5.097178
 50
49.652860
 51
130.347140
  0
LINE
  8
CSLAYER1
  6
CONTINUOUS
 62
     7
 10
380.242766
 20
623.537565
 11
380.242766
 21
613.500000
  0
LINE
  8
CSLAYER1
  6
CONTINUOUS
 62
     7
 10
362.242766
 20
623.537565
 11
362.242766
 21
613.500000
  0
LINE
  8
CSLAYER1
  6
CONTINUOUS
 62
     7
 10
380.242766
 20
540.000000
 11
378.742766
 21
538.500000
  0
LINE
  8
CSLAYER1
  6
CONTINUOUS
 62
     7
 10
363.742766
 20
538.500000
 11
362.242766
 21
540.000000
  0
LINE
  8
CSLAYER1
  6
CONTINUOUS
 62
     7
 10
363.367766
 20
538.875000
 11
363.367766
 21
545.250000
  0
LINE
  8
CSLAYER1
  6
CONTINUOUS
 62
     7
 10
380.242766
 20
540.000000
 11
362.242766
 21
540.000000
  0
LINE
  8
CSLAYER1
  6
CONTINUOUS
 62
     7
 10
386.842766
 20
559.500000
 11
355.642766
 21
559.500000
  0
LINE
  8
CSLAYER1
  6
CONTINUOUS
 62
     7
 10
384.742766
 20
545.250000
 11
357.742766
 21
545.250000
  0
LINE
  8
CSLAYER1
  6
CONTINUOUS
 62
     7
 10
384.742766
 20
545.250000
 11
386.842766
 21
546.462436
  0
LINE
  8
CSLAYER1
  6
CONTINUOUS
 62
     7
 10
357.742766
 20
545.250000
 11
355.642766
 21
546.462436
  0
LINE
  8
CSLAYER1
  6
CONTINUOUS
 62
     7
 10
386.842766
 20
559.500000
 11
386.842766
 21
546.462436
  0
LINE
  8
CSLAYER1
  6
CONTINUOUS
 62
     7
 10
355.642766
 20
559.500000
 11
355.642766
 21
546.462436
  0
ARC
  8
CSLAYER1
  6
CONTINUOUS
 62
     7
 10
383.542766
 20
550.347178
 40
5.097178
 50
229.652860
 51
310.347140
  0
ARC
  8
CSLAYER1
  6
CONTINUOUS
 62
     7
 10
371.242766
 20
579.260055
 40
34.010055
 50
254.655173
 51
285.344827
  0
ARC
  8
CSLAYER1
  6
CONTINUOUS
 62
     7
 10
358.942766
 20
550.347178
 40
5.097178
 50
229.652860
 51
310.347140
  0
LINE
  8
CSLAYER1
  6
CONTINUOUS
 62
     7
 10
380.242766
 20
559.500000
 11
380.242766
 21
546.462436
  0
LINE
  8
CSLAYER1
  6
CONTINUOUS
 62
     7
 10
362.242766
 20
559.500000
 11
362.242766
 21
546.462436
  0
LINE
  8
CSLAYER1
  6
CONTINUOUS
 62
     7
 10
380.242766
 20
545.250000
 11
380.242766
 21
540.000000
  0
LINE
  8
CSLAYER1
  6
CONTINUOUS
 62
     7
 10
379.117766
 20
545.250000
 11
379.117766
 21
538.875000
  0
LINE
  8
CSLAYER1
  6
CENTER
 62
     2
 10
371.242766
 20
632.250000
 11
371.242766
 21
531.000000
  0
LINE
  8
CSLAYER1
  6
CONTINUOUS
 62
     7
 10
455.289055
 20
538.500000
 11
440.289055
 21
538.500000
  0
LINE
  8
CSLAYER1
  6
CONTINUOUS
 62
     7
 10
438.789055
 20
540.000000
 11
438.789055
 21
545.250000
  0
LINE
  8
CSLAYER1
  6
CONTINUOUS
 62
     7
 10
461.289055
 20
624.750000
 11
463.389055
 21
623.537565
  0
LINE
  8
CSLAYER1
  6
CONTINUOUS
 62
     7
 10
463.389055
 20
623.537565
 11
463.389055
 21
613.500000
  0
LINE
  8
CSLAYER1
  6
CONTINUOUS
 62
     7
 10
434.289055
 20
624.750000
 11
432.189055
 21
623.537565
  0
LINE
  8
CSLAYER1
  6
CONTINUOUS
 62
     7
 10
432.189055
 20
623.537565
 11
432.189055
 21
613.500000
  0
LINE
  8
CSLAYER1
  6
CONTINUOUS
 62
     7
 10
461.289055
 20
624.750000
 11
434.289055
 21
624.750000
  0
LINE
  8
CSLAYER1
  6
CONTINUOUS
 62
     7
 10
463.389055
 20
613.500000
 11
432.189055
 21
613.500000
  0
ARC
  8
CSLAYER1
  6
CONTINUOUS
 62
     7
 10
460.089055
 20
619.652822
 40
5.097178
 50
49.652860
 51
130.347140
  0
ARC
  8
CSLAYER1
  6
CONTINUOUS
 62
     7
 10
447.789055
 20
590.739946
 40
34.010055
 50
74.655173
 51
105.344827
  0
ARC
  8
CSLAYER1
  6
CONTINUOUS
 62
     7
 10
435.489055
 20
619.652822
 40
5.097178
 50
49.652860
 51
130.347140
  0
LINE
  8
CSLAYER1
  6
CONTINUOUS
 62
     7
 10
456.789055
 20
623.537565
 11
456.789055
 21
613.500000
  0
LINE
  8
CSLAYER1
  6
CONTINUOUS
 62
     7
 10
438.789055
 20
623.537565
 11
438.789055
 21
613.500000
  0
LINE
  8
CSLAYER1
  6
CONTINUOUS
 62
     7
 10
456.789055
 20
540.000000
 11
455.289055
 21
538.500000
  0
LINE
  8
CSLAYER1
  6
CONTINUOUS
 62
     7
 10
440.289055
 20
538.500000
 11
438.789055
 21
540.000000
  0
LINE
  8
CSLAYER1
  6
CONTINUOUS
 62
     7
 10
439.914055
 20
538.875000
 11
439.914055
 21
545.250000
  0
LINE
  8
CSLAYER1
  6
CONTINUOUS
 62
     7
 10
456.789055
 20
540.000000
 11
438.789055
 21
540.000000
  0
LINE
  8
CSLAYER1
  6
CONTINUOUS
 62
     7
 10
463.389055
 20
559.500000
 11
432.189055
 21
559.500000
  0
LINE
  8
CSLAYER1
  6
CONTINUOUS
 62
     7
 10
461.289055
 20
545.250000
 11
434.289055
 21
545.250000
  0
LINE
  8
CSLAYER1
  6
CONTINUOUS
 62
     7
 10
461.289055
 20
545.250000
 11
463.389055
 21
546.462436
  0
LINE
  8
CSLAYER1
  6
CONTINUOUS
 62
     7
 10
434.289055
 20
545.250000
 11
432.189055
 21
546.462436
  0
LINE
  8
CSLAYER1
  6
CONTINUOUS
 62
     7
 10
463.389055
 20
559.500000
 11
463.389055
 21
546.462436
  0
LINE
  8
CSLAYER1
  6
CONTINUOUS
 62
     7
 10
432.189055
 20
559.500000
 11
432.189055
 21
546.462436
  0
ARC
  8
CSLAYER1
  6
CONTINUOUS
 62
     7
 10
460.089055
 20
550.347178
 40
5.097178
 50
229.652860
 51
310.347140
  0
ARC
  8
CSLAYER1
  6
CONTINUOUS
 62
     7
 10
447.789055
 20
579.260055
 40
34.010055
 50
254.655173
 51
285.344827
  0
ARC
  8
CSLAYER1
  6
CONTINUOUS
 62
     7
 10
435.489055
 20
550.347178
 40
5.097178
 50
229.652860
 51
310.347140
  0
LINE
  8
CSLAYER1
  6
CONTINUOUS
 62
     7
 10
456.789055
 20
559.500000
 11
456.789055
 21
546.462436
  0
LINE
  8
CSLAYER1
  6
CONTINUOUS
 62
     7
 10
438.789055
 20
559.500000
 11
438.789055
 21
546.462436
  0
LINE
  8
CSLAYER1
  6
CONTINUOUS
 62
     7
 10
456.789055
 20
545.250000
 11
456.789055
 21
540.000000
  0
LINE
  8
CSLAYER1
  6
CONTINUOUS
 62
     7
 10
455.664055
 20
545.250000
 11
455.664055
 21
538.875000
  0
LINE
  8
CSLAYER1
  6
CENTER
 62
     2
 10
447.789055
 20
632.250000
 11
447.789055
 21
531.000000
  0
LINE
  8
CSLAYER1
  6
CONTINUOUS
 62
     7
 10
520.403219
 20
538.500000
 11
505.403219
 21
538.500000
  0
LINE
  8
CSLAYER1
  6
CONTINUOUS
 62
     7
 10
503.903219
 20
540.000000
 11
503.903219
 21
545.250000
  0
LINE
  8
CSLAYER1
  6
CONTINUOUS
 62
     7
 10
526.403219
 20
624.750000
 11
528.503219
 21
623.537565
  0
LINE
  8
CSLAYER1
  6
CONTINUOUS
 62
     7
 10
528.503219
 20
623.537565
 11
528.503219
 21
613.500000
  0
LINE
  8
CSLAYER1
  6
CONTINUOUS
 62
     7
 10
499.403219
 20
624.750000
 11
497.303219
 21
623.537565
  0
LINE
  8
CSLAYER1
  6
CONTINUOUS
 62
     7
 10
497.303219
 20
623.537565
 11
497.303219
 21
613.500000
  0
LINE
  8
CSLAYER1
  6
CONTINUOUS
 62
     7
 10
526.403219
 20
624.750000
 11
499.403219
 21
624.750000
  0
LINE
  8
CSLAYER1
  6
CONTINUOUS
 62
     7
 10
528.503219
 20
613.500000
 11
497.303219
 21
613.500000
  0
ARC
  8
CSLAYER1
  6
CONTINUOUS
 62
     7
 10
525.203219
 20
619.652822
 40
5.097178
 50
49.652860
 51
130.347140
  0
ARC
  8
CSLAYER1
  6
CONTINUOUS
 62
     7
 10
512.903219
 20
590.739946
 40
34.010055
 50
74.655173
 51
105.344827
  0
ARC
  8
CSLAYER1
  6
CONTINUOUS
 62
     7
 10
500.603219
 20
619.652822
 40
5.097178
 50
49.652860
 51
130.347140
  0
LINE
  8
CSLAYER1
  6
CONTINUOUS
 62
     7
 10
521.903219
 20
623.537565
 11
521.903219
 21
613.500000
  0
LINE
  8
CSLAYER1
  6
CONTINUOUS
 62
     7
 10
503.903219
 20
623.537565
 11
503.903219
 21
613.500000
  0
LINE
  8
CSLAYER1
  6
CONTINUOUS
 62
     7
 10
521.903219
 20
540.000000
 11
520.403219
 21
538.500000
  0
LINE
  8
CSLAYER1
  6
CONTINUOUS
 62
     7
 10
505.403219
 20
538.500000
 11
503.903219
 21
540.000000
  0
LINE
  8
CSLAYER1
  6
CONTINUOUS
 62
     7
 10
505.028219
 20
538.875000
 11
505.028219
 21
545.250000
  0
LINE
  8
CSLAYER1
  6
CONTINUOUS
 62
     7
 10
521.903219
 20
540.000000
 11
503.903219
 21
540.000000
  0
LINE
  8
CSLAYER1
  6
CONTINUOUS
 62
     7
 10
528.503219
 20
559.500000
 11
497.303219
 21
559.500000
  0
LINE
  8
CSLAYER1
  6
CONTINUOUS
 62
     7
 10
526.403219
 20
545.250000
 11
499.403219
 21
545.250000
  0
LINE
  8
CSLAYER1
  6
CONTINUOUS
 62
     7
 10
526.403219
 20
545.250000
 11
528.503219
 21
546.462436
  0
LINE
  8
CSLAYER1
  6
CONTINUOUS
 62
     7
 10
499.403219
 20
545.250000
 11
497.303219
 21
546.462436
  0
LINE
  8
CSLAYER1
  6
CONTINUOUS
 62
     7
 10
528.503219
 20
559.500000
 11
528.503219
 21
546.462436
  0
LINE
  8
CSLAYER1
  6
CONTINUOUS
 62
     7
 10
497.303219
 20
559.500000
 11
497.303219
 21
546.462436
  0
ARC
  8
CSLAYER1
  6
CONTINUOUS
 62
     7
 10
525.203219
 20
550.347178
 40
5.097178
 50
229.652860
 51
310.347140
  0
ARC
  8
CSLAYER1
  6
CONTINUOUS
 62
     7
 10
512.903219
 20
579.260055
 40
34.010055
 50
254.655173
 51
285.344827
  0
ARC
  8
CSLAYER1
  6
CONTINUOUS
 62
     7
 10
500.603219
 20
550.347178
 40
5.097178
 50
229.652860
 51
310.347140
  0
LINE
  8
CSLAYER1
  6
CONTINUOUS
 62
     7
 10
521.903219
 20
559.500000
 11
521.903219
 21
546.462436
  0
LINE
  8
CSLAYER1
  6
CONTINUOUS
 62
     7
 10
503.903219
 20
559.500000
 11
503.903219
 21
546.462436
  0
LINE
  8
CSLAYER1
  6
CONTINUOUS
 62
     7
 10
521.903219
 20
545.250000
 11
521.903219
 21
540.000000
  0
LINE
  8
CSLAYER1
  6
CONTINUOUS
 62
     7
 10
520.778219
 20
545.250000
 11
520.778219
 21
538.875000
  0
LINE
  8
CSLAYER1
  6
CENTER
 62
     2
 10
512.903219
 20
632.250000
 11
512.903219
 21
531.000000
  0
LINE
  8
CSLAYER1
  6
CONTINUOUS
 62
     7
 10
567.711428
 20
538.500000
 11
552.711428
 21
538.500000
  0
LINE
  8
CSLAYER1
  6
CONTINUOUS
 62
     7
 10
551.211428
 20
540.000000
 11
551.211428
 21
545.250000
  0
LINE
  8
CSLAYER1
  6
CONTINUOUS
 62
     7
 10
573.711428
 20
624.750000
 11
575.811428
 21
623.537565
  0
LINE
  8
CSLAYER1
  6
CONTINUOUS
 62
     7
 10
575.811428
 20
623.537565
 11
575.811428
 21
613.500000
  0
LINE
  8
CSLAYER1
  6
CONTINUOUS
 62
     7
 10
546.711428
 20
624.750000
 11
544.611428
 21
623.537565
  0
LINE
  8
CSLAYER1
  6
CONTINUOUS
 62
     7
 10
544.611428
 20
623.537565
 11
544.611428
 21
613.500000
  0
LINE
  8
CSLAYER1
  6
CONTINUOUS
 62
     7
 10
573.711428
 20
624.750000
 11
546.711428
 21
624.750000
  0
LINE
  8
CSLAYER1
  6
CONTINUOUS
 62
     7
 10
575.811428
 20
613.500000
 11
544.611428
 21
613.500000
  0
ARC
  8
CSLAYER1
  6
CONTINUOUS
 62
     7
 10
572.511428
 20
619.652822
 40
5.097178
 50
49.652860
 51
130.347140
  0
ARC
  8
CSLAYER1
  6
CONTINUOUS
 62
     7
 10
560.211428
 20
590.739946
 40
34.010055
 50
74.655173
 51
105.344827
  0
ARC
  8
CSLAYER1
  6
CONTINUOUS
 62
     7
 10
547.911428
 20
619.652822
 40
5.097178
 50
49.652860
 51
130.347140
  0
LINE
  8
CSLAYER1
  6
CONTINUOUS
 62
     7
 10
569.211428
 20
623.537565
 11
569.211428
 21
613.500000
  0
LINE
  8
CSLAYER1
  6
CONTINUOUS
 62
     7
 10
551.211428
 20
623.537565
 11
551.211428
 21
613.500000
  0
LINE
  8
CSLAYER1
  6
CONTINUOUS
 62
     7
 10
569.211428
 20
540.000000
 11
567.711428
 21
538.500000
  0
LINE
  8
CSLAYER1
  6
CONTINUOUS
 62
     7
 10
552.711428
 20
538.500000
 11
551.211428
 21
540.000000
  0
LINE
  8
CSLAYER1
  6
CONTINUOUS
 62
     7
 10
552.336428
 20
538.875000
 11
552.336428
 21
545.250000
  0
LINE
  8
CSLAYER1
  6
CONTINUOUS
 62
     7
 10
569.211428
 20
540.000000
 11
551.211428
 21
540.000000
  0
LINE
  8
CSLAYER1
  6
CONTINUOUS
 62
     7
 10
575.811428
 20
559.500000
 11
544.611428
 21
559.500000
  0
LINE
  8
CSLAYER1
  6
CONTINUOUS
 62
     7
 10
573.711428
 20
545.250000
 11
546.711428
 21
545.250000
  0
LINE
  8
CSLAYER1
  6
CONTINUOUS
 62
     7
 10
573.711428
 20
545.250000
 11
575.811428
 21
546.462436
  0
LINE
  8
CSLAYER1
  6
CONTINUOUS
 62
     7
 10
546.711428
 20
545.250000
 11
544.611428
 21
546.462436
  0
LINE
  8
CSLAYER1
  6
CONTINUOUS
 62
     7
 10
575.811428
 20
559.500000
 11
575.811428
 21
546.462436
  0
LINE
  8
CSLAYER1
  6
CONTINUOUS
 62
     7
 10
544.611428
 20
559.500000
 11
544.611428
 21
546.462436
  0
ARC
  8
CSLAYER1
  6
CONTINUOUS
 62
     7
 10
572.511428
 20
550.347178
 40
5.097178
 50
229.652860
 51
310.347140
  0
ARC
  8
CSLAYER1
  6
CONTINUOUS
 62
     7
 10
560.211428
 20
579.260055
 40
34.010055
 50
254.655173
 51
285.344827
  0
ARC
  8
CSLAYER1
  6
CONTINUOUS
 62
     7
 10
547.911428
 20
550.347178
 40
5.097178
 50
229.652860
 51
310.347140
  0
LINE
  8
CSLAYER1
  6
CONTINUOUS
 62
     7
 10
569.211428
 20
559.500000
 11
569.211428
 21
546.462436
  0
LINE
  8
CSLAYER1
  6
CONTINUOUS
 62
     7
 10
551.211428
 20
559.500000
 11
551.211428
 21
546.462436
  0
LINE
  8
CSLAYER1
  6
CONTINUOUS
 62
     7
 10
569.211428
 20
545.250000
 11
569.211428
 21
540.000000
  0
LINE
  8
CSLAYER1
  6
CONTINUOUS
 62
     7
 10
568.086428
 20
545.250000
 11
568.086428
 21
538.875000
  0
LINE
  8
CSLAYER1
  6
CENTER
 62
     2
 10
560.211428
 20
632.250000
 11
560.211428
 21
531.000000
  0
LINE
  8
CSLAYER1
  6
CONTINUOUS
 62
     7
 10
592.582825
 20
538.500000
 11
577.582825
 21
538.500000
  0
LINE
  8
CSLAYER1
  6
CONTINUOUS
 62
     7
 10
576.082825
 20
540.000000
 11
576.082825
 21
545.250000
  0
LINE
  8
CSLAYER1
  6
CONTINUOUS
 62
     7
 10
598.582825
 20
624.750000
 11
600.682825
 21
623.537565
  0
LINE
  8
CSLAYER1
  6
CONTINUOUS
 62
     7
 10
600.682825
 20
623.537565
 11
600.682825
 21
613.500000
  0
LINE
  8
CSLAYER1
  6
CONTINUOUS
 62
     7
 10
598.582825
 20
624.750000
 11
571.582825
 21
624.750000
  0
LINE
  8
CSLAYER1
  6
CONTINUOUS
 62
     7
 10
600.682825
 20
613.500000
 11
569.482825
 21
613.500000
  0
ARC
  8
CSLAYER1
  6
CONTINUOUS
 62
     7
 10
597.382825
 20
619.652822
 40
5.097178
 50
49.652860
 51
130.347140
  0
ARC
  8
CSLAYER1
  6
CONTINUOUS
 62
     7
 10
585.082825
 20
590.739946
 40
34.010055
 50
74.655173
 51
105.344827
  0
ARC
  8
CSLAYER1
  6
CONTINUOUS
 62
     7
 10
572.782825
 20
619.652822
 40
5.097178
 50
49.652860
 51
76.840434
  0
LINE
  8
CSLAYER1
  6
CONTINUOUS
 62
     7
 10
594.082825
 20
623.537565
 11
594.082825
 21
613.500000
  0
LINE
  8
CSLAYER1
  6
CONTINUOUS
 62
     7
 10
576.082825
 20
623.537565
 11
576.082825
 21
613.500000
  0
LINE
  8
CSLAYER1
  6
CONTINUOUS
 62
     7
 10
594.082825
 20
540.000000
 11
592.582825
 21
538.500000
  0
LINE
  8
CSLAYER1
  6
CONTINUOUS
 62
     7
 10
577.582825
 20
538.500000
 11
576.082825
 21
540.000000
  0
LINE
  8
CSLAYER1
  6
CONTINUOUS
 62
     7
 10
577.207825
 20
538.875000
 11
577.207825
 21
545.250000
  0
LINE
  8
CSLAYER1
  6
CONTINUOUS
 62
     7
 10
594.082825
 20
540.000000
 11
576.082825
 21
540.000000
  0
LINE
  8
CSLAYER1
  6
CONTINUOUS
 62
     7
 10
600.682825
 20
559.500000
 11
569.482825
 21
559.500000
  0
LINE
  8
CSLAYER1
  6
CONTINUOUS
 62
     7
 10
598.582825
 20
545.250000
 11
571.582825
 21
545.250000
  0
LINE
  8
CSLAYER1
  6
CONTINUOUS
 62
     7
 10
598.582825
 20
545.250000
 11
600.682825
 21
546.462436
  0
LINE
  8
CSLAYER1
  6
CONTINUOUS
 62
     7
 10
600.682825
 20
559.500000
 11
600.682825
 21
546.462436
  0
ARC
  8
CSLAYER1
  6
CONTINUOUS
 62
     7
 10
597.382825
 20
550.347178
 40
5.097178
 50
229.652860
 51
310.347140
  0
ARC
  8
CSLAYER1
  6
CONTINUOUS
 62
     7
 10
585.082825
 20
579.260055
 40
34.010055
 50
254.655173
 51
285.344827
  0
ARC
  8
CSLAYER1
  6
CONTINUOUS
 62
     7
 10
572.782825
 20
550.347178
 40
5.097178
 50
283.159566
 51
310.347140
  0
LINE
  8
CSLAYER1
  6
CONTINUOUS
 62
     7
 10
594.082825
 20
559.500000
 11
594.082825
 21
546.462436
  0
LINE
  8
CSLAYER1
  6
CONTINUOUS
 62
     7
 10
576.082825
 20
559.500000
 11
576.082825
 21
546.462436
  0
LINE
  8
CSLAYER1
  6
CONTINUOUS
 62
     7
 10
594.082825
 20
545.250000
 11
594.082825
 21
540.000000
  0
LINE
  8
CSLAYER1
  6
CONTINUOUS
 62
     7
 10
592.957825
 20
545.250000
 11
592.957825
 21
538.875000
  0
LINE
  8
CSLAYER1
  6
CENTER
 62
     2
 10
585.082825
 20
632.250000
 11
585.082825
 21
531.000000
  0
LINE
  8
CSLAYER1
  6
CONTINUOUS
 62
     7
 10
283.257233
 20
254.250000
 11
298.257233
 21
254.250000
  0
LINE
  8
CSLAYER1
  6
CONTINUOUS
 62
     7
 10
299.757233
 20
255.750000
 11
299.757233
 21
261.000000
  0
LINE
  8
CSLAYER1
  6
CONTINUOUS
 62
     7
 10
277.257233
 20
340.500000
 11
275.157233
 21
339.287565
  0
LINE
  8
CSLAYER1
  6
CONTINUOUS
 62
     7
 10
275.157233
 20
339.287565
 11
275.157233
 21
329.250000
  0
LINE
  8
CSLAYER1
  6
CONTINUOUS
 62
     7
 10
304.257233
 20
340.500000
 11
306.357233
 21
339.287565
  0
LINE
  8
CSLAYER1
  6
CONTINUOUS
 62
     7
 10
306.357233
 20
339.287565
 11
306.357233
 21
329.250000
  0
LINE
  8
CSLAYER1
  6
CONTINUOUS
 62
     7
 10
277.257233
 20
340.500000
 11
304.257233
 21
340.500000
  0
LINE
  8
CSLAYER1
  6
CONTINUOUS
 62
     7
 10
275.157233
 20
329.250000
 11
306.357233
 21
329.250000
  0
ARC
  8
CSLAYER1
  6
CONTINUOUS
 62
     7
 10
278.457233
 20
335.402822
 40
5.097178
 50
49.652860
 51
130.347140
  0
ARC
  8
CSLAYER1
  6
CONTINUOUS
 62
     7
 10
290.757233
 20
306.489946
 40
34.010055
 50
74.655173
 51
105.344827
  0
ARC
  8
CSLAYER1
  6
CONTINUOUS
 62
     7
 10
303.057233
 20
335.402822
 40
5.097178
 50
49.652860
 51
130.347140
  0
LINE
  8
CSLAYER1
  6
CONTINUOUS
 62
     7
 10
281.757233
 20
339.287565
 11
281.757233
 21
329.250000
  0
LINE
  8
CSLAYER1
  6
CONTINUOUS
 62
     7
 10
299.757233
 20
339.287565
 11
299.757233
 21
329.250000
  0
LINE
  8
CSLAYER1
  6
CONTINUOUS
 62
     7
 10
281.757233
 20
255.750000
 11
283.257233
 21
254.250000
  0
LINE
  8
CSLAYER1
  6
CONTINUOUS
 62
     7
 10
298.257233
 20
254.250000
 11
299.757233
 21
255.750000
  0
LINE
  8
CSLAYER1
  6
CONTINUOUS
 62
     7
 10
298.632233
 20
254.625000
 11
298.632233
 21
261.000000
  0
LINE
  8
CSLAYER1
  6
CONTINUOUS
 62
     7
 10
281.757233
 20
255.750000
 11
299.757233
 21
255.750000
  0
LINE
  8
CSLAYER1
  6
CONTINUOUS
 62
     7
 10
275.157233
 20
275.250000
 11
306.357233
 21
275.250000
  0
LINE
  8
CSLAYER1
  6
CONTINUOUS
 62
     7
 10
277.257233
 20
261.000000
 11
304.257233
 21
261.000000
  0
LINE
  8
CSLAYER1
  6
CONTINUOUS
 62
     7
 10
277.257233
 20
261.000000
 11
275.157233
 21
262.212436
  0
LINE
  8
CSLAYER1
  6
CONTINUOUS
 62
     7
 10
304.257233
 20
261.000000
 11
306.357233
 21
262.212436
  0
LINE
  8
CSLAYER1
  6
CONTINUOUS
 62
     7
 10
275.157233
 20
275.250000
 11
275.157233
 21
262.212436
  0
LINE
  8
CSLAYER1
  6
CONTINUOUS
 62
     7
 10
306.357233
 20
275.250000
 11
306.357233
 21
262.212436
  0
ARC
  8
CSLAYER1
  6
CONTINUOUS
 62
     7
 10
278.457233
 20
266.097178
 40
5.097178
 50
229.652860
 51
310.347140
  0
ARC
  8
CSLAYER1
  6
CONTINUOUS
 62
     7
 10
290.757233
 20
295.010055
 40
34.010055
 50
254.655173
 51
285.344827
  0
ARC
  8
CSLAYER1
  6
CONTINUOUS
 62
     7
 10
303.057233
 20
266.097178
 40
5.097178
 50
229.652860
 51
310.347140
  0
LINE
  8
CSLAYER1
  6
CONTINUOUS
 62
     7
 10
281.757233
 20
275.250000
 11
281.757233
 21
262.212436
  0
LINE
  8
CSLAYER1
  6
CONTINUOUS
 62
     7
 10
299.757233
 20
275.250000
 11
299.757233
 21
262.212436
  0
LINE
  8
CSLAYER1
  6
CONTINUOUS
 62
     7
 10
281.757233
 20
261.000000
 11
281.757233
 21
255.750000
  0
LINE
  8
CSLAYER1
  6
CONTINUOUS
 62
     7
 10
282.882233
 20
261.000000
 11
282.882233
 21
254.625000
  0
LINE
  8
CSLAYER1
  6
CENTER
 62
     2
 10
290.757233
 20
348.000000
 11
290.757233
 21
246.750000
  0
LINE
  8
CSLAYER1
  6
CONTINUOUS
 62
     7
 10
206.710943
 20
254.250000
 11
221.710943
 21
254.250000
  0
LINE
  8
CSLAYER1
  6
CONTINUOUS
 62
     7
 10
223.210943
 20
255.750000
 11
223.210943
 21
261.000000
  0
LINE
  8
CSLAYER1
  6
CONTINUOUS
 62
     7
 10
200.710943
 20
340.500000
 11
198.610943
 21
339.287565
  0
LINE
  8
CSLAYER1
  6
CONTINUOUS
 62
     7
 10
198.610943
 20
339.287565
 11
198.610943
 21
329.250000
  0
LINE
  8
CSLAYER1
  6
CONTINUOUS
 62
     7
 10
227.710943
 20
340.500000
 11
229.810943
 21
339.287565
  0
LINE
  8
CSLAYER1
  6
CONTINUOUS
 62
     7
 10
229.810943
 20
339.287565
 11
229.810943
 21
329.250000
  0
LINE
  8
CSLAYER1
  6
CONTINUOUS
 62
     7
 10
200.710943
 20
340.500000
 11
227.710943
 21
340.500000
  0
LINE
  8
CSLAYER1
  6
CONTINUOUS
 62
     7
 10
198.610943
 20
329.250000
 11
229.810943
 21
329.250000
  0
ARC
  8
CSLAYER1
  6
CONTINUOUS
 62
     7
 10
201.910943
 20
335.402822
 40
5.097178
 50
49.652860
 51
130.347140
  0
ARC
  8
CSLAYER1
  6
CONTINUOUS
 62
     7
 10
214.210943
 20
306.489946
 40
34.010055
 50
74.655173
 51
105.344827
  0
ARC
  8
CSLAYER1
  6
CONTINUOUS
 62
     7
 10
226.510943
 20
335.402822
 40
5.097178
 50
49.652860
 51
130.347140
  0
LINE
  8
CSLAYER1
  6
CONTINUOUS
 62
     7
 10
205.210943
 20
339.287565
 11
205.210943
 21
329.250000
  0
LINE
  8
CSLAYER1
  6
CONTINUOUS
 62
     7
 10
223.210943
 20
339.287565
 11
223.210943
 21
329.250000
  0
LINE
  8
CSLAYER1
  6
CONTINUOUS
 62
     7
 10
205.210943
 20
255.750000
 11
206.710943
 21
254.250000
  0
LINE
  8
CSLAYER1
  6
CONTINUOUS
 62
     7
 10
221.710943
 20
254.250000
 11
223.210943
 21
255.750000
  0
LINE
  8
CSLAYER1
  6
CONTINUOUS
 62
     7
 10
222.085943
 20
254.625000
 11
222.085943
 21
261.000000
  0
LINE
  8
CSLAYER1
  6
CONTINUOUS
 62
     7
 10
205.210943
 20
255.750000
 11
223.210943
 21
255.750000
  0
LINE
  8
CSLAYER1
  6
CONTINUOUS
 62
     7
 10
198.610943
 20
275.250000
 11
229.810943
 21
275.250000
  0
LINE
  8
CSLAYER1
  6
CONTINUOUS
 62
     7
 10
200.710943
 20
261.000000
 11
227.710943
 21
261.000000
  0
LINE
  8
CSLAYER1
  6
CONTINUOUS
 62
     7
 10
200.710943
 20
261.000000
 11
198.610943
 21
262.212436
  0
LINE
  8
CSLAYER1
  6
CONTINUOUS
 62
     7
 10
227.710943
 20
261.000000
 11
229.810943
 21
262.212436
  0
LINE
  8
CSLAYER1
  6
CONTINUOUS
 62
     7
 10
198.610943
 20
275.250000
 11
198.610943
 21
262.212436
  0
LINE
  8
CSLAYER1
  6
CONTINUOUS
 62
     7
 10
229.810943
 20
275.250000
 11
229.810943
 21
262.212436
  0
ARC
  8
CSLAYER1
  6
CONTINUOUS
 62
     7
 10
201.910943
 20
266.097178
 40
5.097178
 50
229.652860
 51
310.347140
  0
ARC
  8
CSLAYER1
  6
CONTINUOUS
 62
     7
 10
214.210943
 20
295.010055
 40
34.010055
 50
254.655173
 51
285.344827
  0
ARC
  8
CSLAYER1
  6
CONTINUOUS
 62
     7
 10
226.510943
 20
266.097178
 40
5.097178
 50
229.652860
 51
310.347140
  0
LINE
  8
CSLAYER1
  6
CONTINUOUS
 62
     7
 10
205.210943
 20
275.250000
 11
205.210943
 21
262.212436
  0
LINE
  8
CSLAYER1
  6
CONTINUOUS
 62
     7
 10
223.210943
 20
275.250000
 11
223.210943
 21
262.212436
  0
LINE
  8
CSLAYER1
  6
CONTINUOUS
 62
     7
 10
205.210943
 20
261.000000
 11
205.210943
 21
255.750000
  0
LINE
  8
CSLAYER1
  6
CONTINUOUS
 62
     7
 10
206.335943
 20
261.000000
 11
206.335943
 21
254.625000
  0
LINE
  8
CSLAYER1
  6
CENTER
 62
     2
 10
214.210943
 20
348.000000
 11
214.210943
 21
246.750000
  0
LINE
  8
CSLAYER1
  6
CONTINUOUS
 62
     7
 10
141.596780
 20
254.250000
 11
156.596780
 21
254.250000
  0
LINE
  8
CSLAYER1
  6
CONTINUOUS
 62
     7
 10
158.096780
 20
255.750000
 11
158.096780
 21
261.000000
  0
LINE
  8
CSLAYER1
  6
CONTINUOUS
 62
     7
 10
135.596780
 20
340.500000
 11
133.496780
 21
339.287565
  0
LINE
  8
CSLAYER1
  6
CONTINUOUS
 62
     7
 10
133.496780
 20
339.287565
 11
133.496780
 21
329.250000
  0
LINE
  8
CSLAYER1
  6
CONTINUOUS
 62
     7
 10
162.596780
 20
340.500000
 11
164.696780
 21
339.287565
  0
LINE
  8
CSLAYER1
  6
CONTINUOUS
 62
     7
 10
164.696780
 20
339.287565
 11
164.696780
 21
329.250000
  0
LINE
  8
CSLAYER1
  6
CONTINUOUS
 62
     7
 10
135.596780
 20
340.500000
 11
162.596780
 21
340.500000
  0
LINE
  8
CSLAYER1
  6
CONTINUOUS
 62
     7
 10
133.496780
 20
329.250000
 11
164.696780
 21
329.250000
  0
ARC
  8
CSLAYER1
  6
CONTINUOUS
 62
     7
 10
136.796780
 20
335.402822
 40
5.097178
 50
49.652860
 51
130.347140
  0
ARC
  8
CSLAYER1
  6
CONTINUOUS
 62
     7
 10
149.096780
 20
306.489946
 40
34.010055
 50
74.655173
 51
105.344827
  0
ARC
  8
CSLAYER1
  6
CONTINUOUS
 62
     7
 10
161.396780
 20
335.402822
 40
5.097178
 50
49.652860
 51
130.347140
  0
LINE
  8
CSLAYER1
  6
CONTINUOUS
 62
     7
 10
140.096780
 20
339.287565
 11
140.096780
 21
329.250000
  0
LINE
  8
CSLAYER1
  6
CONTINUOUS
 62
     7
 10
158.096780
 20
339.287565
 11
158.096780
 21
329.250000
  0
LINE
  8
CSLAYER1
  6
CONTINUOUS
 62
     7
 10
140.096780
 20
255.750000
 11
141.596780
 21
254.250000
  0
LINE
  8
CSLAYER1
  6
CONTINUOUS
 62
     7
 10
156.596780
 20
254.250000
 11
158.096780
 21
255.750000
  0
LINE
  8
CSLAYER1
  6
CONTINUOUS
 62
     7
 10
156.971780
 20
254.625000
 11
156.971780
 21
261.000000
  0
LINE
  8
CSLAYER1
  6
CONTINUOUS
 62
     7
 10
140.096780
 20
255.750000
 11
158.096780
 21
255.750000
  0
LINE
  8
CSLAYER1
  6
CONTINUOUS
 62
     7
 10
133.496780
 20
275.250000
 11
164.696780
 21
275.250000
  0
LINE
  8
CSLAYER1
  6
CONTINUOUS
 62
     7
 10
135.596780
 20
261.000000
 11
162.596780
 21
261.000000
  0
LINE
  8
CSLAYER1
  6
CONTINUOUS
 62
     7
 10
135.596780
 20
261.000000
 11
133.496780
 21
262.212436
  0
LINE
  8
CSLAYER1
  6
CONTINUOUS
 62
     7
 10
162.596780
 20
261.000000
 11
164.696780
 21
262.212436
  0
LINE
  8
CSLAYER1
  6
CONTINUOUS
 62
     7
 10
133.496780
 20
275.250000
 11
133.496780
 21
262.212436
  0
LINE
  8
CSLAYER1
  6
CONTINUOUS
 62
     7
 10
164.696780
 20
275.250000
 11
164.696780
 21
262.212436
  0
ARC
  8
CSLAYER1
  6
CONTINUOUS
 62
     7
 10
136.796780
 20
266.097178
 40
5.097178
 50
229.652860
 51
310.347140
  0
ARC
  8
CSLAYER1
  6
CONTINUOUS
 62
     7
 10
149.096780
 20
295.010055
 40
34.010055
 50
254.655173
 51
285.344827
  0
ARC
  8
CSLAYER1
  6
CONTINUOUS
 62
     7
 10
161.396780
 20
266.097178
 40
5.097178
 50
229.652860
 51
310.347140
  0
LINE
  8
CSLAYER1
  6
CONTINUOUS
 62
     7
 10
140.096780
 20
275.250000
 11
140.096780
 21
262.212436
  0
LINE
  8
CSLAYER1
  6
CONTINUOUS
 62
     7
 10
158.096780
 20
275.250000
 11
158.096780
 21
262.212436
  0
LINE
  8
CSLAYER1
  6
CONTINUOUS
 62
     7
 10
140.096780
 20
261.000000
 11
140.096780
 21
255.750000
  0
LINE
  8
CSLAYER1
  6
CONTINUOUS
 62
     7
 10
141.221780
 20
261.000000
 11
141.221780
 21
254.625000
  0
LINE
  8
CSLAYER1
  6
CENTER
 62
     2
 10
149.096780
 20
348.000000
 11
149.096780
 21
246.750000
  0
LINE
  8
CSLAYER1
  6
CONTINUOUS
 62
     7
 10
94.288571
 20
254.250000
 11
109.288571
 21
254.250000
  0
LINE
  8
CSLAYER1
  6
CONTINUOUS
 62
     7
 10
110.788571
 20
255.750000
 11
110.788571
 21
261.000000
  0
LINE
  8
CSLAYER1
  6
CONTINUOUS
 62
     7
 10
88.288571
 20
340.500000
 11
86.188571
 21
339.287565
  0
LINE
  8
CSLAYER1
  6
CONTINUOUS
 62
     7
 10
86.188571
 20
339.287565
 11
86.188571
 21
329.250000
  0
LINE
  8
CSLAYER1
  6
CONTINUOUS
 62
     7
 10
115.288571
 20
340.500000
 11
117.388571
 21
339.287565
  0
LINE
  8
CSLAYER1
  6
CONTINUOUS
 62
     7
 10
117.388571
 20
339.287565
 11
117.388571
 21
329.250000
  0
LINE
  8
CSLAYER1
  6
CONTINUOUS
 62
     7
 10
88.288571
 20
340.500000
 11
115.288571
 21
340.500000
  0
LINE
  8
CSLAYER1
  6
CONTINUOUS
 62
     7
 10
86.188571
 20
329.250000
 11
117.388571
 21
329.250000
  0
ARC
  8
CSLAYER1
  6
CONTINUOUS
 62
     7
 10
89.488571
 20
335.402822
 40
5.097178
 50
49.652860
 51
130.347140
  0
ARC
  8
CSLAYER1
  6
CONTINUOUS
 62
     7
 10
101.788571
 20
306.489946
 40
34.010055
 50
74.655173
 51
105.344827
  0
ARC
  8
CSLAYER1
  6
CONTINUOUS
 62
     7
 10
114.088571
 20
335.402822
 40
5.097178
 50
49.652860
 51
130.347140
  0
LINE
  8
CSLAYER1
  6
CONTINUOUS
 62
     7
 10
92.788571
 20
339.287565
 11
92.788571
 21
329.250000
  0
LINE
  8
CSLAYER1
  6
CONTINUOUS
 62
     7
 10
110.788571
 20
339.287565
 11
110.788571
 21
329.250000
  0
LINE
  8
CSLAYER1
  6
CONTINUOUS
 62
     7
 10
92.788571
 20
255.750000
 11
94.288571
 21
254.250000
  0
LINE
  8
CSLAYER1
  6
CONTINUOUS
 62
     7
 10
109.288571
 20
254.250000
 11
110.788571
 21
255.750000
  0
LINE
  8
CSLAYER1
  6
CONTINUOUS
 62
     7
 10
109.663571
 20
254.625000
 11
109.663571
 21
261.000000
  0
LINE
  8
CSLAYER1
  6
CONTINUOUS
 62
     7
 10
92.788571
 20
255.750000
 11
110.788571
 21
255.750000
  0
LINE
  8
CSLAYER1
  6
CONTINUOUS
 62
     7
 10
86.188571
 20
275.250000
 11
117.388571
 21
275.250000
  0
LINE
  8
CSLAYER1
  6
CONTINUOUS
 62
     7
 10
88.288571
 20
261.000000
 11
115.288571
 21
261.000000
  0
LINE
  8
CSLAYER1
  6
CONTINUOUS
 62
     7
 10
88.288571
 20
261.000000
 11
86.188571
 21
262.212436
  0
LINE
  8
CSLAYER1
  6
CONTINUOUS
 62
     7
 10
115.288571
 20
261.000000
 11
117.388571
 21
262.212436
  0
LINE
  8
CSLAYER1
  6
CONTINUOUS
 62
     7
 10
86.188571
 20
275.250000
 11
86.188571
 21
262.212436
  0
LINE
  8
CSLAYER1
  6
CONTINUOUS
 62
     7
 10
117.388571
 20
275.250000
 11
117.388571
 21
262.212436
  0
ARC
  8
CSLAYER1
  6
CONTINUOUS
 62
     7
 10
89.488571
 20
266.097178
 40
5.097178
 50
229.652860
 51
310.347140
  0
ARC
  8
CSLAYER1
  6
CONTINUOUS
 62
     7
 10
101.788571
 20
295.010055
 40
34.010055
 50
254.655173
 51
285.344827
  0
ARC
  8
CSLAYER1
  6
CONTINUOUS
 62
     7
 10
114.088571
 20
266.097178
 40
5.097178
 50
229.652860
 51
310.347140
  0
LINE
  8
CSLAYER1
  6
CONTINUOUS
 62
     7
 10
92.788571
 20
275.250000
 11
92.788571
 21
262.212436
  0
LINE
  8
CSLAYER1
  6
CONTINUOUS
 62
     7
 10
110.788571
 20
275.250000
 11
110.788571
 21
262.212436
  0
LINE
  8
CSLAYER1
  6
CONTINUOUS
 62
     7
 10
92.788571
 20
261.000000
 11
92.788571
 21
255.750000
  0
LINE
  8
CSLAYER1
  6
CONTINUOUS
 62
     7
 10
93.913571
 20
261.000000
 11
93.913571
 21
254.625000
  0
LINE
  8
CSLAYER1
  6
CENTER
 62
     2
 10
101.788571
 20
348.000000
 11
101.788571
 21
246.750000
  0
LINE
  8
CSLAYER1
  6
CONTINUOUS
 62
     7
 10
69.417174
 20
254.250000
 11
84.417174
 21
254.250000
  0
LINE
  8
CSLAYER1
  6
CONTINUOUS
 62
     7
 10
85.917174
 20
255.750000
 11
85.917174
 21
261.000000
  0
LINE
  8
CSLAYER1
  6
CONTINUOUS
 62
     7
 10
63.417174
 20
340.500000
 11
61.317174
 21
339.287565
  0
LINE
  8
CSLAYER1
  6
CONTINUOUS
 62
     7
 10
61.317174
 20
339.287565
 11
61.317174
 21
329.250000
  0
LINE
  8
CSLAYER1
  6
CONTINUOUS
 62
     7
 10
63.417174
 20
340.500000
 11
90.417174
 21
340.500000
  0
LINE
  8
CSLAYER1
  6
CONTINUOUS
 62
     7
 10
61.317174
 20
329.250000
 11
92.517174
 21
329.250000
  0
ARC
  8
CSLAYER1
  6
CONTINUOUS
 62
     7
 10
64.617174
 20
335.402822
 40
5.097178
 50
49.652860
 51
130.347140
  0
ARC
  8
CSLAYER1
  6
CONTINUOUS
 62
     7
 10
76.917174
 20
306.489946
 40
34.010055
 50
74.655173
 51
105.344827
  0
ARC
  8
CSLAYER1
  6
CONTINUOUS
 62
     7
 10
89.217174
 20
335.402822
 40
5.097178
 50
103.159566
 51
130.347140
  0
LINE
  8
CSLAYER1
  6
CONTINUOUS
 62
     7
 10
67.917174
 20
339.287565
 11
67.917174
 21
329.250000
  0
LINE
  8
CSLAYER1
  6
CONTINUOUS
 62
     7
 10
85.917174
 20
339.287565
 11
85.917174
 21
329.250000
  0
LINE
  8
CSLAYER1
  6
CONTINUOUS
 62
     7
 10
67.917174
 20
255.750000
 11
69.417174
 21
254.250000
  0
LINE
  8
CSLAYER1
  6
CONTINUOUS
 62
     7
 10
84.417174
 20
254.250000
 11
85.917174
 21
255.750000
  0
LINE
  8
CSLAYER1
  6
CONTINUOUS
 62
     7
 10
84.792174
 20
254.625000
 11
84.792174
 21
261.000000
  0
LINE
  8
CSLAYER1
  6
CONTINUOUS
 62
     7
 10
67.917174
 20
255.750000
 11
85.917174
 21
255.750000
  0
LINE
  8
CSLAYER1
  6
CONTINUOUS
 62
     7
 10
61.317174
 20
275.250000
 11
92.517174
 21
275.250000
  0
LINE
  8
CSLAYER1
  6
CONTINUOUS
 62
     7
 10
63.417174
 20
261.000000
 11
90.417174
 21
261.000000
  0
LINE
  8
CSLAYER1
  6
CONTINUOUS
 62
     7
 10
63.417174
 20
261.000000
 11
61.317174
 21
262.212436
  0
LINE
  8
CSLAYER1
  6
CONTINUOUS
 62
     7
 10
61.317174
 20
275.250000
 11
61.317174
 21
262.212436
  0
ARC
  8
CSLAYER1
  6
CONTINUOUS
 62
     7
 10
64.617174
 20
266.097178
 40
5.097178
 50
229.652860
 51
310.347140
  0
ARC
  8
CSLAYER1
  6
CONTINUOUS
 62
     7
 10
76.917174
 20
295.010055
 40
34.010055
 50
254.655173
 51
285.344827
  0
ARC
  8
CSLAYER1
  6
CONTINUOUS
 62
     7
 10
89.217174
 20
266.097178
 40
5.097178
 50
229.652860
 51
256.840434
  0
LINE
  8
CSLAYER1
  6
CONTINUOUS
 62
     7
 10
67.917174
 20
275.250000
 11
67.917174
 21
262.212436
  0
LINE
  8
CSLAYER1
  6
CONTINUOUS
 62
     7
 10
85.917174
 20
275.250000
 11
85.917174
 21
262.212436
  0
LINE
  8
CSLAYER1
  6
CONTINUOUS
 62
     7
 10
67.917174
 20
261.000000
 11
67.917174
 21
255.750000
  0
LINE
  8
CSLAYER1
  6
CONTINUOUS
 62
     7
 10
69.042174
 20
261.000000
 11
69.042174
 21
254.625000
  0
LINE
  8
CSLAYER1
  6
CENTER
 62
     2
 10
76.917174
 20
348.000000
 11
76.917174
 21
246.750000
  0
LINE
  8
CSLAYER1
  6
CONTINUOUS
 62
     7
 10
563.499999
 20
303.000000
 11
563.499999
 21
301.500000
  0
LINE
  8
CSLAYER1
  6
CONTINUOUS
 62
     7
 10
378.742766
 20
254.250000
 11
363.742766
 21
254.250000
  0
LINE
  8
CSLAYER1
  6
CONTINUOUS
 62
     7
 10
362.242766
 20
255.750000
 11
362.242766
 21
261.000000
  0
LINE
  8
CSLAYER1
  6
CONTINUOUS
 62
     7
 10
384.742766
 20
340.500000
 11
386.842766
 21
339.287565
  0
LINE
  8
CSLAYER1
  6
CONTINUOUS
 62
     7
 10
386.842766
 20
339.287565
 11
386.842766
 21
329.250000
  0
LINE
  8
CSLAYER1
  6
CONTINUOUS
 62
     7
 10
357.742766
 20
340.500000
 11
355.642766
 21
339.287565
  0
LINE
  8
CSLAYER1
  6
CONTINUOUS
 62
     7
 10
355.642766
 20
339.287565
 11
355.642766
 21
329.250000
  0
LINE
  8
CSLAYER1
  6
CONTINUOUS
 62
     7
 10
384.742766
 20
340.500000
 11
357.742766
 21
340.500000
  0
LINE
  8
CSLAYER1
  6
CONTINUOUS
 62
     7
 10
386.842766
 20
329.250000
 11
355.642766
 21
329.250000
  0
ARC
  8
CSLAYER1
  6
CONTINUOUS
 62
     7
 10
383.542766
 20
335.402822
 40
5.097178
 50
49.652860
 51
130.347140
  0
ARC
  8
CSLAYER1
  6
CONTINUOUS
 62
     7
 10
371.242766
 20
306.489946
 40
34.010055
 50
74.655173
 51
105.344827
  0
ARC
  8
CSLAYER1
  6
CONTINUOUS
 62
     7
 10
358.942766
 20
335.402822
 40
5.097178
 50
49.652860
 51
130.347140
  0
LINE
  8
CSLAYER1
  6
CONTINUOUS
 62
     7
 10
380.242766
 20
339.287565
 11
380.242766
 21
329.250000
  0
LINE
  8
CSLAYER1
  6
CONTINUOUS
 62
     7
 10
362.242766
 20
339.287565
 11
362.242766
 21
329.250000
  0
LINE
  8
CSLAYER1
  6
CONTINUOUS
 62
     7
 10
380.242766
 20
255.750000
 11
378.742766
 21
254.250000
  0
LINE
  8
CSLAYER1
  6
CONTINUOUS
 62
     7
 10
363.742766
 20
254.250000
 11
362.242766
 21
255.750000
  0
LINE
  8
CSLAYER1
  6
CONTINUOUS
 62
     7
 10
363.367766
 20
254.625000
 11
363.367766
 21
261.000000
  0
LINE
  8
CSLAYER1
  6
CONTINUOUS
 62
     7
 10
380.242766
 20
255.750000
 11
362.242766
 21
255.750000
  0
LINE
  8
CSLAYER1
  6
CONTINUOUS
 62
     7
 10
386.842766
 20
275.250000
 11
355.642766
 21
275.250000
  0
LINE
  8
CSLAYER1
  6
CONTINUOUS
 62
     7
 10
384.742766
 20
261.000000
 11
357.742766
 21
261.000000
  0
LINE
  8
CSLAYER1
  6
CONTINUOUS
 62
     7
 10
384.742766
 20
261.000000
 11
386.842766
 21
262.212436
  0
LINE
  8
CSLAYER1
  6
CONTINUOUS
 62
     7
 10
357.742766
 20
261.000000
 11
355.642766
 21
262.212436
  0
LINE
  8
CSLAYER1
  6
CONTINUOUS
 62
     7
 10
386.842766
 20
275.250000
 11
386.842766
 21
262.212436
  0
LINE
  8
CSLAYER1
  6
CONTINUOUS
 62
     7
 10
355.642766
 20
275.250000
 11
355.642766
 21
262.212436
  0
ARC
  8
CSLAYER1
  6
CONTINUOUS
 62
     7
 10
383.542766
 20
266.097178
 40
5.097178
 50
229.652860
 51
310.347140
  0
ARC
  8
CSLAYER1
  6
CONTINUOUS
 62
     7
 10
371.242766
 20
295.010055
 40
34.010055
 50
254.655173
 51
285.344827
  0
ARC
  8
CSLAYER1
  6
CONTINUOUS
 62
     7
 10
358.942766
 20
266.097178
 40
5.097178
 50
229.652860
 51
310.347140
  0
LINE
  8
CSLAYER1
  6
CONTINUOUS
 62
     7
 10
380.242766
 20
275.250000
 11
380.242766
 21
262.212436
  0
LINE
  8
CSLAYER1
  6
CONTINUOUS
 62
     7
 10
362.242766
 20
275.250000
 11
362.242766
 21
262.212436
  0
LINE
  8
CSLAYER1
  6
CONTINUOUS
 62
     7
 10
380.242766
 20
261.000000
 11
380.242766
 21
255.750000
  0
LINE
  8
CSLAYER1
  6
CONTINUOUS
 62
     7
 10
379.117766
 20
261.000000
 11
379.117766
 21
254.625000
  0
LINE
  8
CSLAYER1
  6
CENTER
 62
     2
 10
371.242766
 20
348.000000
 11
371.242766
 21
246.750000
  0
LINE
  8
CSLAYER1
  6
CONTINUOUS
 62
     7
 10
455.289055
 20
254.250000
 11
440.289055
 21
254.250000
  0
LINE
  8
CSLAYER1
  6
CONTINUOUS
 62
     7
 10
438.789055
 20
255.750000
 11
438.789055
 21
261.000000
  0
LINE
  8
CSLAYER1
  6
CONTINUOUS
 62
     7
 10
461.289055
 20
340.500000
 11
463.389055
 21
339.287565
  0
LINE
  8
CSLAYER1
  6
CONTINUOUS
 62
     7
 10
463.389055
 20
339.287565
 11
463.389055
 21
329.250000
  0
LINE
  8
CSLAYER1
  6
CONTINUOUS
 62
     7
 10
434.289055
 20
340.500000
 11
432.189055
 21
339.287565
  0
LINE
  8
CSLAYER1
  6
CONTINUOUS
 62
     7
 10
432.189055
 20
339.287565
 11
432.189055
 21
329.250000
  0
LINE
  8
CSLAYER1
  6
CONTINUOUS
 62
     7
 10
461.289055
 20
340.500000
 11
434.289055
 21
340.500000
  0
LINE
  8
CSLAYER1
  6
CONTINUOUS
 62
     7
 10
463.389055
 20
329.250000
 11
432.189055
 21
329.250000
  0
ARC
  8
CSLAYER1
  6
CONTINUOUS
 62
     7
 10
460.089055
 20
335.402822
 40
5.097178
 50
49.652860
 51
130.347140
  0
ARC
  8
CSLAYER1
  6
CONTINUOUS
 62
     7
 10
447.789055
 20
306.489946
 40
34.010055
 50
74.655173
 51
105.344827
  0
ARC
  8
CSLAYER1
  6
CONTINUOUS
 62
     7
 10
435.489055
 20
335.402822
 40
5.097178
 50
49.652860
 51
130.347140
  0
LINE
  8
CSLAYER1
  6
CONTINUOUS
 62
     7
 10
456.789055
 20
339.287565
 11
456.789055
 21
329.250000
  0
LINE
  8
CSLAYER1
  6
CONTINUOUS
 62
     7
 10
438.789055
 20
339.287565
 11
438.789055
 21
329.250000
  0
LINE
  8
CSLAYER1
  6
CONTINUOUS
 62
     7
 10
456.789055
 20
255.750000
 11
455.289055
 21
254.250000
  0
LINE
  8
CSLAYER1
  6
CONTINUOUS
 62
     7
 10
440.289055
 20
254.250000
 11
438.789055
 21
255.750000
  0
LINE
  8
CSLAYER1
  6
CONTINUOUS
 62
     7
 10
439.914055
 20
254.625000
 11
439.914055
 21
261.000000
  0
LINE
  8
CSLAYER1
  6
CONTINUOUS
 62
     7
 10
456.789055
 20
255.750000
 11
438.789055
 21
255.750000
  0
LINE
  8
CSLAYER1
  6
CONTINUOUS
 62
     7
 10
463.389055
 20
275.250000
 11
432.189055
 21
275.250000
  0
LINE
  8
CSLAYER1
  6
CONTINUOUS
 62
     7
 10
461.289055
 20
261.000000
 11
434.289055
 21
261.000000
  0
LINE
  8
CSLAYER1
  6
CONTINUOUS
 62
     7
 10
461.289055
 20
261.000000
 11
463.389055
 21
262.212436
  0
LINE
  8
CSLAYER1
  6
CONTINUOUS
 62
     7
 10
434.289055
 20
261.000000
 11
432.189055
 21
262.212436
  0
LINE
  8
CSLAYER1
  6
CONTINUOUS
 62
     7
 10
463.389055
 20
275.250000
 11
463.389055
 21
262.212436
  0
LINE
  8
CSLAYER1
  6
CONTINUOUS
 62
     7
 10
432.189055
 20
275.250000
 11
432.189055
 21
262.212436
  0
ARC
  8
CSLAYER1
  6
CONTINUOUS
 62
     7
 10
460.089055
 20
266.097178
 40
5.097178
 50
229.652860
 51
310.347140
  0
ARC
  8
CSLAYER1
  6
CONTINUOUS
 62
     7
 10
447.789055
 20
295.010055
 40
34.010055
 50
254.655173
 51
285.344827
  0
ARC
  8
CSLAYER1
  6
CONTINUOUS
 62
     7
 10
435.489055
 20
266.097178
 40
5.097178
 50
229.652860
 51
310.347140
  0
LINE
  8
CSLAYER1
  6
CONTINUOUS
 62
     7
 10
456.789055
 20
275.250000
 11
456.789055
 21
262.212436
  0
LINE
  8
CSLAYER1
  6
CONTINUOUS
 62
     7
 10
438.789055
 20
275.250000
 11
438.789055
 21
262.212436
  0
LINE
  8
CSLAYER1
  6
CONTINUOUS
 62
     7
 10
456.789055
 20
261.000000
 11
456.789055
 21
255.750000
  0
LINE
  8
CSLAYER1
  6
CONTINUOUS
 62
     7
 10
455.664055
 20
261.000000
 11
455.664055
 21
254.625000
  0
LINE
  8
CSLAYER1
  6
CENTER
 62
     2
 10
447.789055
 20
348.000000
 11
447.789055
 21
246.750000
  0
LINE
  8
CSLAYER1
  6
CONTINUOUS
 62
     7
 10
520.403219
 20
254.250000
 11
505.403219
 21
254.250000
  0
LINE
  8
CSLAYER1
  6
CONTINUOUS
 62
     7
 10
503.903219
 20
255.750000
 11
503.903219
 21
261.000000
  0
LINE
  8
CSLAYER1
  6
CONTINUOUS
 62
     7
 10
526.403219
 20
340.500000
 11
528.503219
 21
339.287565
  0
LINE
  8
CSLAYER1
  6
CONTINUOUS
 62
     7
 10
528.503219
 20
339.287565
 11
528.503219
 21
329.250000
  0
LINE
  8
CSLAYER1
  6
CONTINUOUS
 62
     7
 10
499.403219
 20
340.500000
 11
497.303219
 21
339.287565
  0
LINE
  8
CSLAYER1
  6
CONTINUOUS
 62
     7
 10
497.303219
 20
339.287565
 11
497.303219
 21
329.250000
  0
LINE
  8
CSLAYER1
  6
CONTINUOUS
 62
     7
 10
526.403219
 20
340.500000
 11
499.403219
 21
340.500000
  0
LINE
  8
CSLAYER1
  6
CONTINUOUS
 62
     7
 10
528.503219
 20
329.250000
 11
497.303219
 21
329.250000
  0
ARC
  8
CSLAYER1
  6
CONTINUOUS
 62
     7
 10
525.203219
 20
335.402822
 40
5.097178
 50
49.652860
 51
130.347140
  0
ARC
  8
CSLAYER1
  6
CONTINUOUS
 62
     7
 10
512.903219
 20
306.489946
 40
34.010055
 50
74.655173
 51
105.344827
  0
ARC
  8
CSLAYER1
  6
CONTINUOUS
 62
     7
 10
500.603219
 20
335.402822
 40
5.097178
 50
49.652860
 51
130.347140
  0
LINE
  8
CSLAYER1
  6
CONTINUOUS
 62
     7
 10
521.903219
 20
339.287565
 11
521.903219
 21
329.250000
  0
LINE
  8
CSLAYER1
  6
CONTINUOUS
 62
     7
 10
503.903219
 20
339.287565
 11
503.903219
 21
329.250000
  0
LINE
  8
CSLAYER1
  6
CONTINUOUS
 62
     7
 10
521.903219
 20
255.750000
 11
520.403219
 21
254.250000
  0
LINE
  8
CSLAYER1
  6
CONTINUOUS
 62
     7
 10
505.403219
 20
254.250000
 11
503.903219
 21
255.750000
  0
LINE
  8
CSLAYER1
  6
CONTINUOUS
 62
     7
 10
505.028219
 20
254.625000
 11
505.028219
 21
261.000000
  0
LINE
  8
CSLAYER1
  6
CONTINUOUS
 62
     7
 10
521.903219
 20
255.750000
 11
503.903219
 21
255.750000
  0
LINE
  8
CSLAYER1
  6
CONTINUOUS
 62
     7
 10
528.503219
 20
275.250000
 11
497.303219
 21
275.250000
  0
LINE
  8
CSLAYER1
  6
CONTINUOUS
 62
     7
 10
526.403219
 20
261.000000
 11
499.403219
 21
261.000000
  0
LINE
  8
CSLAYER1
  6
CONTINUOUS
 62
     7
 10
526.403219
 20
261.000000
 11
528.503219
 21
262.212436
  0
LINE
  8
CSLAYER1
  6
CONTINUOUS
 62
     7
 10
499.403219
 20
261.000000
 11
497.303219
 21
262.212436
  0
LINE
  8
CSLAYER1
  6
CONTINUOUS
 62
     7
 10
528.503219
 20
275.250000
 11
528.503219
 21
262.212436
  0
LINE
  8
CSLAYER1
  6
CONTINUOUS
 62
     7
 10
497.303219
 20
275.250000
 11
497.303219
 21
262.212436
  0
ARC
  8
CSLAYER1
  6
CONTINUOUS
 62
     7
 10
525.203219
 20
266.097178
 40
5.097178
 50
229.652860
 51
310.347140
  0
ARC
  8
CSLAYER1
  6
CONTINUOUS
 62
     7
 10
512.903219
 20
295.010055
 40
34.010055
 50
254.655173
 51
285.344827
  0
ARC
  8
CSLAYER1
  6
CONTINUOUS
 62
     7
 10
500.603219
 20
266.097178
 40
5.097178
 50
229.652860
 51
310.347140
  0
LINE
  8
CSLAYER1
  6
CONTINUOUS
 62
     7
 10
521.903219
 20
275.250000
 11
521.903219
 21
262.212436
  0
LINE
  8
CSLAYER1
  6
CONTINUOUS
 62
     7
 10
503.903219
 20
275.250000
 11
503.903219
 21
262.212436
  0
LINE
  8
CSLAYER1
  6
CONTINUOUS
 62
     7
 10
521.903219
 20
261.000000
 11
521.903219
 21
255.750000
  0
LINE
  8
CSLAYER1
  6
CONTINUOUS
 62
     7
 10
520.778219
 20
261.000000
 11
520.778219
 21
254.625000
  0
LINE
  8
CSLAYER1
  6
CENTER
 62
     2
 10
512.903219
 20
348.000000
 11
512.903219
 21
246.750000
  0
LINE
  8
CSLAYER1
  6
CONTINUOUS
 62
     7
 10
567.711428
 20
254.250000
 11
552.711428
 21
254.250000
  0
LINE
  8
CSLAYER1
  6
CONTINUOUS
 62
     7
 10
551.211428
 20
255.750000
 11
551.211428
 21
261.000000
  0
LINE
  8
CSLAYER1
  6
CONTINUOUS
 62
     7
 10
573.711428
 20
340.500000
 11
575.811428
 21
339.287565
  0
LINE
  8
CSLAYER1
  6
CONTINUOUS
 62
     7
 10
575.811428
 20
339.287565
 11
575.811428
 21
329.250000
  0
LINE
  8
CSLAYER1
  6
CONTINUOUS
 62
     7
 10
546.711428
 20
340.500000
 11
544.611428
 21
339.287565
  0
LINE
  8
CSLAYER1
  6
CONTINUOUS
 62
     7
 10
544.611428
 20
339.287565
 11
544.611428
 21
329.250000
  0
LINE
  8
CSLAYER1
  6
CONTINUOUS
 62
     7
 10
573.711428
 20
340.500000
 11
546.711428
 21
340.500000
  0
LINE
  8
CSLAYER1
  6
CONTINUOUS
 62
     7
 10
575.811428
 20
329.250000
 11
544.611428
 21
329.250000
  0
ARC
  8
CSLAYER1
  6
CONTINUOUS
 62
     7
 10
572.511428
 20
335.402822
 40
5.097178
 50
49.652860
 51
130.347140
  0
ARC
  8
CSLAYER1
  6
CONTINUOUS
 62
     7
 10
560.211428
 20
306.489946
 40
34.010055
 50
74.655173
 51
105.344827
  0
ARC
  8
CSLAYER1
  6
CONTINUOUS
 62
     7
 10
547.911428
 20
335.402822
 40
5.097178
 50
49.652860
 51
130.347140
  0
LINE
  8
CSLAYER1
  6
CONTINUOUS
 62
     7
 10
569.211428
 20
339.287565
 11
569.211428
 21
329.250000
  0
LINE
  8
CSLAYER1
  6
CONTINUOUS
 62
     7
 10
551.211428
 20
339.287565
 11
551.211428
 21
329.250000
  0
LINE
  8
CSLAYER1
  6
CONTINUOUS
 62
     7
 10
569.211428
 20
255.750000
 11
567.711428
 21
254.250000
  0
LINE
  8
CSLAYER1
  6
CONTINUOUS
 62
     7
 10
552.711428
 20
254.250000
 11
551.211428
 21
255.750000
  0
LINE
  8
CSLAYER1
  6
CONTINUOUS
 62
     7
 10
552.336428
 20
254.625000
 11
552.336428
 21
261.000000
  0
LINE
  8
CSLAYER1
  6
CONTINUOUS
 62
     7
 10
569.211428
 20
255.750000
 11
551.211428
 21
255.750000
  0
LINE
  8
CSLAYER1
  6
CONTINUOUS
 62
     7
 10
575.811428
 20
275.250000
 11
544.611428
 21
275.250000
  0
LINE
  8
CSLAYER1
  6
CONTINUOUS
 62
     7
 10
573.711428
 20
261.000000
 11
546.711428
 21
261.000000
  0
LINE
  8
CSLAYER1
  6
CONTINUOUS
 62
     7
 10
573.711428
 20
261.000000
 11
575.811428
 21
262.212436
  0
LINE
  8
CSLAYER1
  6
CONTINUOUS
 62
     7
 10
546.711428
 20
261.000000
 11
544.611428
 21
262.212436
  0
LINE
  8
CSLAYER1
  6
CONTINUOUS
 62
     7
 10
575.811428
 20
275.250000
 11
575.811428
 21
262.212436
  0
LINE
  8
CSLAYER1
  6
CONTINUOUS
 62
     7
 10
544.611428
 20
275.250000
 11
544.611428
 21
262.212436
  0
ARC
  8
CSLAYER1
  6
CONTINUOUS
 62
     7
 10
572.511428
 20
266.097178
 40
5.097178
 50
229.652860
 51
310.347140
  0
ARC
  8
CSLAYER1
  6
CONTINUOUS
 62
     7
 10
560.211428
 20
295.010055
 40
34.010055
 50
254.655173
 51
285.344827
  0
ARC
  8
CSLAYER1
  6
CONTINUOUS
 62
     7
 10
547.911428
 20
266.097178
 40
5.097178
 50
229.652860
 51
310.347140
  0
LINE
  8
CSLAYER1
  6
CONTINUOUS
 62
     7
 10
569.211428
 20
275.250000
 11
569.211428
 21
262.212436
  0
LINE
  8
CSLAYER1
  6
CONTINUOUS
 62
     7
 10
551.211428
 20
275.250000
 11
551.211428
 21
262.212436
  0
LINE
  8
CSLAYER1
  6
CONTINUOUS
 62
     7
 10
569.211428
 20
261.000000
 11
569.211428
 21
255.750000
  0
LINE
  8
CSLAYER1
  6
CONTINUOUS
 62
     7
 10
568.086428
 20
261.000000
 11
568.086428
 21
254.625000
  0
LINE
  8
CSLAYER1
  6
CENTER
 62
     2
 10
560.211428
 20
348.000000
 11
560.211428
 21
246.750000
  0
LINE
  8
CSLAYER1
  6
CONTINUOUS
 62
     7
 10
592.582825
 20
254.250000
 11
577.582825
 21
254.250000
  0
LINE
  8
CSLAYER1
  6
CONTINUOUS
 62
     7
 10
576.082825
 20
255.750000
 11
576.082825
 21
261.000000
  0
LINE
  8
CSLAYER1
  6
CONTINUOUS
 62
     7
 10
598.582825
 20
340.500000
 11
600.682825
 21
339.287565
  0
LINE
  8
CSLAYER1
  6
CONTINUOUS
 62
     7
 10
600.682825
 20
339.287565
 11
600.682825
 21
329.250000
  0
LINE
  8
CSLAYER1
  6
CONTINUOUS
 62
     7
 10
598.582825
 20
340.500000
 11
571.582825
 21
340.500000
  0
LINE
  8
CSLAYER1
  6
CONTINUOUS
 62
     7
 10
600.682825
 20
329.250000
 11
569.482825
 21
329.250000
  0
ARC
  8
CSLAYER1
  6
CONTINUOUS
 62
     7
 10
597.382825
 20
335.402822
 40
5.097178
 50
49.652860
 51
130.347140
  0
ARC
  8
CSLAYER1
  6
CONTINUOUS
 62
     7
 10
585.082825
 20
306.489946
 40
34.010055
 50
74.655173
 51
105.344827
  0
ARC
  8
CSLAYER1
  6
CONTINUOUS
 62
     7
 10
572.782825
 20
335.402822
 40
5.097178
 50
49.652860
 51
76.840434
  0
LINE
  8
CSLAYER1
  6
CONTINUOUS
 62
     7
 10
594.082825
 20
339.287565
 11
594.082825
 21
329.250000
  0
LINE
  8
CSLAYER1
  6
CONTINUOUS
 62
     7
 10
576.082825
 20
339.287565
 11
576.082825
 21
329.250000
  0
LINE
  8
CSLAYER1
  6
CONTINUOUS
 62
     7
 10
594.082825
 20
255.750000
 11
592.582825
 21
254.250000
  0
LINE
  8
CSLAYER1
  6
CONTINUOUS
 62
     7
 10
577.582825
 20
254.250000
 11
576.082825
 21
255.750000
  0
LINE
  8
CSLAYER1
  6
CONTINUOUS
 62
     7
 10
577.207825
 20
254.625000
 11
577.207825
 21
261.000000
  0
LINE
  8
CSLAYER1
  6
CONTINUOUS
 62
     7
 10
594.082825
 20
255.750000
 11
576.082825
 21
255.750000
  0
LINE
  8
CSLAYER1
  6
CONTINUOUS
 62
     7
 10
600.682825
 20
275.250000
 11
569.482825
 21
275.250000
  0
LINE
  8
CSLAYER1
  6
CONTINUOUS
 62
     7
 10
598.582825
 20
261.000000
 11
571.582825
 21
261.000000
  0
LINE
  8
CSLAYER1
  6
CONTINUOUS
 62
     7
 10
598.582825
 20
261.000000
 11
600.682825
 21
262.212436
  0
LINE
  8
CSLAYER1
  6
CONTINUOUS
 62
     7
 10
600.682825
 20
275.250000
 11
600.682825
 21
262.212436
  0
ARC
  8
CSLAYER1
  6
CONTINUOUS
 62
     7
 10
597.382825
 20
266.097178
 40
5.097178
 50
229.652860
 51
310.347140
  0
ARC
  8
CSLAYER1
  6
CONTINUOUS
 62
     7
 10
585.082825
 20
295.010055
 40
34.010055
 50
254.655173
 51
285.344827
  0
ARC
  8
CSLAYER1
  6
CONTINUOUS
 62
     7
 10
572.782825
 20
266.097178
 40
5.097178
 50
283.159566
 51
310.347140
  0
LINE
  8
CSLAYER1
  6
CONTINUOUS
 62
     7
 10
594.082825
 20
275.250000
 11
594.082825
 21
262.212436
  0
LINE
  8
CSLAYER1
  6
CONTINUOUS
 62
     7
 10
576.082825
 20
275.250000
 11
576.082825
 21
262.212436
  0
LINE
  8
CSLAYER1
  6
CONTINUOUS
 62
     7
 10
594.082825
 20
261.000000
 11
594.082825
 21
255.750000
  0
LINE
  8
CSLAYER1
  6
CONTINUOUS
 62
     7
 10
592.957825
 20
261.000000
 11
592.957825
 21
254.625000
  0
LINE
  8
CSLAYER1
  6
CENTER
 62
     2
 10
585.082825
 20
348.000000
 11
585.082825
 21
246.750000
  0
LINE
  8
CSLAYER1
  6
CONTINUOUS
 62
     7
 10
888.249999
 20
303.000000
 11
888.249999
 21
301.500000
  0
LINE
  8
CSLAYER1
  6
CONTINUOUS
 62
     7
 10
1073.007233
 20
254.250000
 11
1088.007233
 21
254.250000
  0
LINE
  8
CSLAYER1
  6
CONTINUOUS
 62
     7
 10
1089.507233
 20
255.750000
 11
1089.507233
 21
261.000000
  0
LINE
  8
CSLAYER1
  6
CONTINUOUS
 62
     7
 10
1067.007233
 20
340.500000
 11
1064.907233
 21
339.287565
  0
LINE
  8
CSLAYER1
  6
CONTINUOUS
 62
     7
 10
1064.907233
 20
339.287565
 11
1064.907233
 21
329.250000
  0
LINE
  8
CSLAYER1
  6
CONTINUOUS
 62
     7
 10
1067.007233
 20
340.500000
 11
1093.259057
 21
340.500000
  0
LINE
  8
CSLAYER1
  6
CONTINUOUS
 62
     7
 10
1064.907233
 20
329.250000
 11
1078.663661
 21
329.250000
  0
ARC
  8
CSLAYER1
  6
CONTINUOUS
 62
     7
 10
1068.207233
 20
335.402822
 40
5.097178
 50
49.652860
 51
130.347140
  0
ARC
  8
CSLAYER1
  6
CONTINUOUS
 62
     7
 10
1080.507233
 20
306.489946
 40
34.010055
 50
74.655173
 51
105.344827
  0
ARC
  8
CSLAYER1
  6
CONTINUOUS
 62
     7
 10
1092.807233
 20
335.402822
 40
5.097178
 50
84.981833
 51
130.347140
  0
LINE
  8
CSLAYER1
  6
CONTINUOUS
 62
     7
 10
1071.507233
 20
339.287565
 11
1071.507233
 21
329.250000
  0
LINE
  8
CSLAYER1
  6
CONTINUOUS
 62
     7
 10
1089.507233
 20
339.287565
 11
1089.507233
 21
333.779907
  0
LINE
  8
CSLAYER1
  6
CONTINUOUS
 62
     7
 10
1071.507233
 20
255.750000
 11
1073.007233
 21
254.250000
  0
LINE
  8
CSLAYER1
  6
CONTINUOUS
 62
     7
 10
1088.007233
 20
254.250000
 11
1089.507233
 21
255.750000
  0
LINE
  8
CSLAYER1
  6
CONTINUOUS
 62
     7
 10
1088.382233
 20
254.625000
 11
1088.382233
 21
261.000000
  0
LINE
  8
CSLAYER1
  6
CONTINUOUS
 62
     7
 10
1071.507233
 20
255.750000
 11
1089.507233
 21
255.750000
  0
LINE
  8
CSLAYER1
  6
CONTINUOUS
 62
     7
 10
1064.907233
 20
275.250000
 11
1093.729018
 21
275.250000
  0
LINE
  8
CSLAYER1
  6
CONTINUOUS
 62
     7
 10
1067.007233
 20
261.000000
 11
1089.662502
 21
261.000000
  0
LINE
  8
CSLAYER1
  6
CONTINUOUS
 62
     7
 10
1067.007233
 20
261.000000
 11
1064.907233
 21
262.212436
  0
LINE
  8
CSLAYER1
  6
CONTINUOUS
 62
     7
 10
1064.907233
 20
275.250000
 11
1064.907233
 21
262.212436
  0
ARC
  8
CSLAYER1
  6
CONTINUOUS
 62
     7
 10
1068.207233
 20
266.097178
 40
5.097178
 50
229.652860
 51
310.347140
  0
ARC
  8
CSLAYER1
  6
CONTINUOUS
 62
     7
 10
1080.507233
 20
295.010055
 40
34.010055
 50
254.655173
 51
285.344827
  0
ARC
  8
CSLAYER1
  6
CONTINUOUS
 62
     7
 10
1092.807233
 20
266.097178
 40
5.097178
 50
229.652860
 51
231.905858
  0
LINE
  8
CSLAYER1
  6
CONTINUOUS
 62
     7
 10
1071.507233
 20
275.250000
 11
1071.507233
 21
262.212436
  0
LINE
  8
CSLAYER1
  6
CONTINUOUS
 62
     7
 10
1089.507233
 20
275.250000
 11
1089.507233
 21
262.212436
  0
LINE
  8
CSLAYER1
  6
CONTINUOUS
 62
     7
 10
1071.507233
 20
261.000000
 11
1071.507233
 21
255.750000
  0
LINE
  8
CSLAYER1
  6
CONTINUOUS
 62
     7
 10
1072.632233
 20
261.000000
 11
1072.632233
 21
254.625000
  0
LINE
  8
CSLAYER1
  6
CENTER
 62
     2
 10
1080.507233
 20
348.000000
 11
1080.507233
 21
246.750000
  0
LINE
  8
CSLAYER1
  6
CONTINUOUS
 62
     7
 10
996.460943
 20
254.250000
 11
1011.460943
 21
254.250000
  0
LINE
  8
CSLAYER1
  6
CONTINUOUS
 62
     7
 10
1012.960943
 20
255.750000
 11
1012.960943
 21
261.000000
  0
LINE
  8
CSLAYER1
  6
CONTINUOUS
 62
     7
 10
990.460943
 20
340.500000
 11
988.360943
 21
339.287565
  0
LINE
  8
CSLAYER1
  6
CONTINUOUS
 62
     7
 10
988.360943
 20
339.287565
 11
988.360943
 21
329.250000
  0
LINE
  8
CSLAYER1
  6
CONTINUOUS
 62
     7
 10
1017.460943
 20
340.500000
 11
1019.560943
 21
339.287565
  0
LINE
  8
CSLAYER1
  6
CONTINUOUS
 62
     7
 10
1019.560943
 20
339.287565
 11
1019.560943
 21
329.250000
  0
LINE
  8
CSLAYER1
  6
CONTINUOUS
 62
     7
 10
1005.300242
 20
340.500000
 11
1017.460943
 21
340.500000
  0
ARC
  8
CSLAYER1
  6
CONTINUOUS
 62
     7
 10
991.660943
 20
335.402822
 40
5.097178
 50
104.168418
 51
130.347140
  0
ARC
  8
CSLAYER1
  6
CONTINUOUS
 62
     7
 10
1003.960943
 20
306.489946
 40
34.010055
 50
74.655173
 51
87.743138
  0
ARC
  8
CSLAYER1
  6
CONTINUOUS
 62
     7
 10
1016.260943
 20
335.402822
 40
5.097178
 50
49.652860
 51
130.347140
  0
LINE
  8
CSLAYER1
  6
CONTINUOUS
 62
     7
 10
1012.960943
 20
339.287565
 11
1012.960943
 21
329.250000
  0
LINE
  8
CSLAYER1
  6
CONTINUOUS
 62
     7
 10
994.960943
 20
255.750000
 11
996.460943
 21
254.250000
  0
LINE
  8
CSLAYER1
  6
CONTINUOUS
 62
     7
 10
1011.460943
 20
254.250000
 11
1012.960943
 21
255.750000
  0
LINE
  8
CSLAYER1
  6
CONTINUOUS
 62
     7
 10
1011.835943
 20
254.625000
 11
1011.835943
 21
261.000000
  0
LINE
  8
CSLAYER1
  6
CONTINUOUS
 62
     7
 10
994.960943
 20
255.750000
 11
1012.960943
 21
255.750000
  0
LINE
  8
CSLAYER1
  6
CONTINUOUS
 62
     7
 10
988.360943
 20
275.250000
 11
1019.560943
 21
275.250000
  0
LINE
  8
CSLAYER1
  6
CONTINUOUS
 62
     7
 10
990.460943
 20
261.000000
 11
992.520643
 21
261.000000
  0
LINE
  8
CSLAYER1
  6
CONTINUOUS
 62
     7
 10
990.460943
 20
261.000000
 11
988.360943
 21
262.212436
  0
LINE
  8
CSLAYER1
  6
CONTINUOUS
 62
     7
 10
1017.460943
 20
261.000000
 11
1019.560943
 21
262.212436
  0
LINE
  8
CSLAYER1
  6
CONTINUOUS
 62
     7
 10
988.360943
 20
275.250000
 11
988.360943
 21
262.212436
  0
LINE
  8
CSLAYER1
  6
CONTINUOUS
 62
     7
 10
1019.560943
 20
275.250000
 11
1019.560943
 21
262.212436
  0
ARC
  8
CSLAYER1
  6
CONTINUOUS
 62
     7
 10
991.660943
 20
266.097178
 40
5.097178
 50
229.652860
 51
278.846755
  0
ARC
  8
CSLAYER1
  6
CONTINUOUS
 62
     7
 10
1003.960943
 20
295.010055
 40
34.010055
 50
272.256862
 51
285.344827
  0
ARC
  8
CSLAYER1
  6
CONTINUOUS
 62
     7
 10
1016.260943
 20
266.097178
 40
5.097178
 50
229.652860
 51
310.347140
  0
LINE
  8
CSLAYER1
  6
CONTINUOUS
 62
     7
 10
1012.960943
 20
275.250000
 11
1012.960943
 21
262.212436
  0
LINE
  8
CSLAYER1
  6
CONTINUOUS
 62
     7
 10
994.960943
 20
259.557857
 11
994.960943
 21
255.750000
  0
LINE
  8
CSLAYER1
  6
CONTINUOUS
 62
     7
 10
996.085943
 20
259.148523
 11
996.085943
 21
254.625000
  0
LINE
  8
CSLAYER1
  6
CENTER
 62
     2
 10
1003.960943
 20
348.000000
 11
1003.960943
 21
246.750000
  0
LINE
  8
CSLAYER1
  6
CONTINUOUS
 62
     7
 10
931.346780
 20
254.250000
 11
946.346780
 21
254.250000
  0
LINE
  8
CSLAYER1
  6
CONTINUOUS
 62
     7
 10
947.846780
 20
255.750000
 11
947.846780
 21
261.000000
  0
LINE
  8
CSLAYER1
  6
CONTINUOUS
 62
     7
 10
925.346780
 20
340.500000
 11
923.246780
 21
339.287565
  0
LINE
  8
CSLAYER1
  6
CONTINUOUS
 62
     7
 10
923.246780
 20
339.287565
 11
923.246780
 21
329.250000
  0
LINE
  8
CSLAYER1
  6
CONTINUOUS
 62
     7
 10
952.346780
 20
340.500000
 11
954.446780
 21
339.287565
  0
LINE
  8
CSLAYER1
  6
CONTINUOUS
 62
     7
 10
954.446780
 20
339.287565
 11
954.446780
 21
329.250000
  0
LINE
  8
CSLAYER1
  6
CONTINUOUS
 62
     7
 10
925.346780
 20
340.500000
 11
952.346780
 21
340.500000
  0
LINE
  8
CSLAYER1
  6
CONTINUOUS
 62
     7
 10
923.246780
 20
329.250000
 11
954.446780
 21
329.250000
  0
ARC
  8
CSLAYER1
  6
CONTINUOUS
 62
     7
 10
926.546780
 20
335.402822
 40
5.097178
 50
49.652860
 51
130.347140
  0
ARC
  8
CSLAYER1
  6
CONTINUOUS
 62
     7
 10
938.846780
 20
306.489946
 40
34.010055
 50
74.655173
 51
105.344827
  0
ARC
  8
CSLAYER1
  6
CONTINUOUS
 62
     7
 10
951.146780
 20
335.402822
 40
5.097178
 50
49.652860
 51
130.347140
  0
LINE
  8
CSLAYER1
  6
CONTINUOUS
 62
     7
 10
929.846780
 20
339.287565
 11
929.846780
 21
329.250000
  0
LINE
  8
CSLAYER1
  6
CONTINUOUS
 62
     7
 10
947.846780
 20
339.287565
 11
947.846780
 21
329.250000
  0
LINE
  8
CSLAYER1
  6
CONTINUOUS
 62
     7
 10
929.846780
 20
255.750000
 11
931.346780
 21
254.250000
  0
LINE
  8
CSLAYER1
  6
CONTINUOUS
 62
     7
 10
946.346780
 20
254.250000
 11
947.846780
 21
255.750000
  0
LINE
  8
CSLAYER1
  6
CONTINUOUS
 62
     7
 10
946.721780
 20
254.625000
 11
946.721780
 21
261.000000
  0
LINE
  8
CSLAYER1
  6
CONTINUOUS
 62
     7
 10
929.846780
 20
255.750000
 11
947.846780
 21
255.750000
  0
LINE
  8
CSLAYER1
  6
CONTINUOUS
 62
     7
 10
923.246780
 20
275.250000
 11
954.446780
 21
275.250000
  0
LINE
  8
CSLAYER1
  6
CONTINUOUS
 62
     7
 10
925.346780
 20
261.000000
 11
952.346780
 21
261.000000
  0
LINE
  8
CSLAYER1
  6
CONTINUOUS
 62
     7
 10
925.346780
 20
261.000000
 11
923.246780
 21
262.212436
  0
LINE
  8
CSLAYER1
  6
CONTINUOUS
 62
     7
 10
952.346780
 20
261.000000
 11
954.446780
 21
262.212436
  0
LINE
  8
CSLAYER1
  6
CONTINUOUS
 62
     7
 10
923.246780
 20
275.250000
 11
923.246780
 21
262.212436
  0
LINE
  8
CSLAYER1
  6
CONTINUOUS
 62
     7
 10
954.446780
 20
275.250000
 11
954.446780
 21
262.212436
  0
ARC
  8
CSLAYER1
  6
CONTINUOUS
 62
     7
 10
926.546780
 20
266.097178
 40
5.097178
 50
229.652860
 51
310.347140
  0
ARC
  8
CSLAYER1
  6
CONTINUOUS
 62
     7
 10
938.846780
 20
295.010055
 40
34.010055
 50
254.655173
 51
285.344827
  0
ARC
  8
CSLAYER1
  6
CONTINUOUS
 62
     7
 10
951.146780
 20
266.097178
 40
5.097178
 50
229.652860
 51
310.347140
  0
LINE
  8
CSLAYER1
  6
CONTINUOUS
 62
     7
 10
929.846780
 20
275.250000
 11
929.846780
 21
262.212436
  0
LINE
  8
CSLAYER1
  6
CONTINUOUS
 62
     7
 10
947.846780
 20
275.250000
 11
947.846780
 21
262.212436
  0
LINE
  8
CSLAYER1
  6
CONTINUOUS
 62
     7
 10
929.846780
 20
261.000000
 11
929.846780
 21
255.750000
  0
LINE
  8
CSLAYER1
  6
CONTINUOUS
 62
     7
 10
930.971780
 20
261.000000
 11
930.971780
 21
254.625000
  0
LINE
  8
CSLAYER1
  6
CENTER
 62
     2
 10
938.846780
 20
348.000000
 11
938.846780
 21
246.750000
  0
LINE
  8
CSLAYER1
  6
CONTINUOUS
 62
     7
 10
884.038571
 20
254.250000
 11
899.038571
 21
254.250000
  0
LINE
  8
CSLAYER1
  6
CONTINUOUS
 62
     7
 10
900.538571
 20
255.750000
 11
900.538571
 21
261.000000
  0
LINE
  8
CSLAYER1
  6
CONTINUOUS
 62
     7
 10
878.038571
 20
340.500000
 11
875.938571
 21
339.287565
  0
LINE
  8
CSLAYER1
  6
CONTINUOUS
 62
     7
 10
875.938571
 20
339.287565
 11
875.938571
 21
329.250000
  0
LINE
  8
CSLAYER1
  6
CONTINUOUS
 62
     7
 10
905.038571
 20
340.500000
 11
907.138571
 21
339.287565
  0
LINE
  8
CSLAYER1
  6
CONTINUOUS
 62
     7
 10
907.138571
 20
339.287565
 11
907.138571
 21
329.250000
  0
LINE
  8
CSLAYER1
  6
CONTINUOUS
 62
     7
 10
878.038571
 20
340.500000
 11
905.038571
 21
340.500000
  0
LINE
  8
CSLAYER1
  6
CONTINUOUS
 62
     7
 10
875.938571
 20
329.250000
 11
907.138571
 21
329.250000
  0
ARC
  8
CSLAYER1
  6
CONTINUOUS
 62
     7
 10
879.238571
 20
335.402822
 40
5.097178
 50
49.652860
 51
130.347140
  0
ARC
  8
CSLAYER1
  6
CONTINUOUS
 62
     7
 10
891.538571
 20
306.489946
 40
34.010055
 50
74.655173
 51
105.344827
  0
ARC
  8
CSLAYER1
  6
CONTINUOUS
 62
     7
 10
903.838571
 20
335.402822
 40
5.097178
 50
49.652860
 51
130.347140
  0
LINE
  8
CSLAYER1
  6
CONTINUOUS
 62
     7
 10
882.538571
 20
339.287565
 11
882.538571
 21
329.250000
  0
LINE
  8
CSLAYER1
  6
CONTINUOUS
 62
     7
 10
900.538571
 20
339.287565
 11
900.538571
 21
329.250000
  0
LINE
  8
CSLAYER1
  6
CONTINUOUS
 62
     7
 10
882.538571
 20
255.750000
 11
884.038571
 21
254.250000
  0
LINE
  8
CSLAYER1
  6
CONTINUOUS
 62
     7
 10
899.038571
 20
254.250000
 11
900.538571
 21
255.750000
  0
LINE
  8
CSLAYER1
  6
CONTINUOUS
 62
     7
 10
899.413571
 20
254.625000
 11
899.413571
 21
261.000000
  0
LINE
  8
CSLAYER1
  6
CONTINUOUS
 62
     7
 10
882.538571
 20
255.750000
 11
900.538571
 21
255.750000
  0
LINE
  8
CSLAYER1
  6
CONTINUOUS
 62
     7
 10
875.938571
 20
275.250000
 11
907.138571
 21
275.250000
  0
LINE
  8
CSLAYER1
  6
CONTINUOUS
 62
     7
 10
878.038571
 20
261.000000
 11
905.038571
 21
261.000000
  0
LINE
  8
CSLAYER1
  6
CONTINUOUS
 62
     7
 10
878.038571
 20
261.000000
 11
875.938571
 21
262.212436
  0
LINE
  8
CSLAYER1
  6
CONTINUOUS
 62
     7
 10
905.038571
 20
261.000000
 11
907.138571
 21
262.212436
  0
LINE
  8
CSLAYER1
  6
CONTINUOUS
 62
     7
 10
875.938571
 20
275.250000
 11
875.938571
 21
262.212436
  0
LINE
  8
CSLAYER1
  6
CONTINUOUS
 62
     7
 10
907.138571
 20
275.250000
 11
907.138571
 21
262.212436
  0
ARC
  8
CSLAYER1
  6
CONTINUOUS
 62
     7
 10
879.238571
 20
266.097178
 40
5.097178
 50
229.652860
 51
310.347140
  0
ARC
  8
CSLAYER1
  6
CONTINUOUS
 62
     7
 10
891.538571
 20
295.010055
 40
34.010055
 50
254.655173
 51
285.344827
  0
ARC
  8
CSLAYER1
  6
CONTINUOUS
 62
     7
 10
903.838571
 20
266.097178
 40
5.097178
 50
229.652860
 51
310.347140
  0
LINE
  8
CSLAYER1
  6
CONTINUOUS
 62
     7
 10
882.538571
 20
275.250000
 11
882.538571
 21
262.212436
  0
LINE
  8
CSLAYER1
  6
CONTINUOUS
 62
     7
 10
900.538571
 20
275.250000
 11
900.538571
 21
262.212436
  0
LINE
  8
CSLAYER1
  6
CONTINUOUS
 62
     7
 10
882.538571
 20
261.000000
 11
882.538571
 21
255.750000
  0
LINE
  8
CSLAYER1
  6
CONTINUOUS
 62
     7
 10
883.663571
 20
261.000000
 11
883.663571
 21
254.625000
  0
LINE
  8
CSLAYER1
  6
CENTER
 62
     2
 10
891.538571
 20
348.000000
 11
891.538571
 21
246.750000
  0
LINE
  8
CSLAYER1
  6
CONTINUOUS
 62
     7
 10
859.167174
 20
254.250000
 11
874.167174
 21
254.250000
  0
LINE
  8
CSLAYER1
  6
CONTINUOUS
 62
     7
 10
875.667174
 20
255.750000
 11
875.667174
 21
261.000000
  0
LINE
  8
CSLAYER1
  6
CONTINUOUS
 62
     7
 10
853.167174
 20
340.500000
 11
851.067174
 21
339.287565
  0
LINE
  8
CSLAYER1
  6
CONTINUOUS
 62
     7
 10
851.067174
 20
339.287565
 11
851.067174
 21
329.250000
  0
LINE
  8
CSLAYER1
  6
CONTINUOUS
 62
     7
 10
853.167174
 20
340.500000
 11
880.167174
 21
340.500000
  0
LINE
  8
CSLAYER1
  6
CONTINUOUS
 62
     7
 10
851.067174
 20
329.250000
 11
882.267174
 21
329.250000
  0
ARC
  8
CSLAYER1
  6
CONTINUOUS
 62
     7
 10
854.367174
 20
335.402822
 40
5.097178
 50
49.652860
 51
130.347140
  0
ARC
  8
CSLAYER1
  6
CONTINUOUS
 62
     7
 10
866.667174
 20
306.489946
 40
34.010055
 50
74.655173
 51
105.344827
  0
ARC
  8
CSLAYER1
  6
CONTINUOUS
 62
     7
 10
878.967174
 20
335.402822
 40
5.097178
 50
103.159566
 51
130.347140
  0
LINE
  8
CSLAYER1
  6
CONTINUOUS
 62
     7
 10
857.667174
 20
339.287565
 11
857.667174
 21
329.250000
  0
LINE
  8
CSLAYER1
  6
CONTINUOUS
 62
     7
 10
875.667174
 20
339.287565
 11
875.667174
 21
329.250000
  0
LINE
  8
CSLAYER1
  6
CONTINUOUS
 62
     7
 10
857.667174
 20
255.750000
 11
859.167174
 21
254.250000
  0
LINE
  8
CSLAYER1
  6
CONTINUOUS
 62
     7
 10
874.167174
 20
254.250000
 11
875.667174
 21
255.750000
  0
LINE
  8
CSLAYER1
  6
CONTINUOUS
 62
     7
 10
874.542174
 20
254.625000
 11
874.542174
 21
261.000000
  0
LINE
  8
CSLAYER1
  6
CONTINUOUS
 62
     7
 10
857.667174
 20
255.750000
 11
875.667174
 21
255.750000
  0
LINE
  8
CSLAYER1
  6
CONTINUOUS
 62
     7
 10
851.067174
 20
275.250000
 11
882.267174
 21
275.250000
  0
LINE
  8
CSLAYER1
  6
CONTINUOUS
 62
     7
 10
853.167174
 20
261.000000
 11
880.167174
 21
261.000000
  0
LINE
  8
CSLAYER1
  6
CONTINUOUS
 62
     7
 10
853.167174
 20
261.000000
 11
851.067174
 21
262.212436
  0
LINE
  8
CSLAYER1
  6
CONTINUOUS
 62
     7
 10
851.067174
 20
275.250000
 11
851.067174
 21
262.212436
  0
ARC
  8
CSLAYER1
  6
CONTINUOUS
 62
     7
 10
854.367174
 20
266.097178
 40
5.097178
 50
229.652860
 51
310.347140
  0
ARC
  8
CSLAYER1
  6
CONTINUOUS
 62
     7
 10
866.667174
 20
295.010055
 40
34.010055
 50
254.655173
 51
285.344827
  0
ARC
  8
CSLAYER1
  6
CONTINUOUS
 62
     7
 10
878.967174
 20
266.097178
 40
5.097178
 50
229.652860
 51
256.840434
  0
LINE
  8
CSLAYER1
  6
CONTINUOUS
 62
     7
 10
857.667174
 20
275.250000
 11
857.667174
 21
262.212436
  0
LINE
  8
CSLAYER1
  6
CONTINUOUS
 62
     7
 10
875.667174
 20
275.250000
 11
875.667174
 21
262.212436
  0
LINE
  8
CSLAYER1
  6
CONTINUOUS
 62
     7
 10
857.667174
 20
261.000000
 11
857.667174
 21
255.750000
  0
LINE
  8
CSLAYER1
  6
CONTINUOUS
 62
     7
 10
858.792174
 20
261.000000
 11
858.792174
 21
254.625000
  0
LINE
  8
CSLAYER1
  6
CENTER
 62
     2
 10
866.667174
 20
348.000000
 11
866.667174
 21
246.750000
  0
LINE
  8
CSLAYER1
  6
CONTINUOUS
 62
     7
 10
1005.300242
 20
261.000000
 11
1017.460943
 21
261.000000
  0
LINE
  8
CSLAYER1
  6
CONTINUOUS
 62
     7
 10
1353.249999
 20
303.000000
 11
1353.249999
 21
301.500000
  0
LINE
  8
CSLAYER1
  6
CONTINUOUS
 62
     7
 10
1353.249999
 20
303.000000
 11
1353.249999
 21
301.500000
  0
LINE
  8
CSLAYER1
  6
CONTINUOUS
 62
     7
 10
1310.153219
 20
254.250000
 11
1295.153219
 21
254.250000
  0
LINE
  8
CSLAYER1
  6
CONTINUOUS
 62
     7
 10
1293.653219
 20
255.750000
 11
1293.653219
 21
261.000000
  0
LINE
  8
CSLAYER1
  6
CONTINUOUS
 62
     7
 10
1316.153219
 20
340.500000
 11
1318.253219
 21
339.287565
  0
LINE
  8
CSLAYER1
  6
CONTINUOUS
 62
     7
 10
1318.253219
 20
339.287565
 11
1318.253219
 21
329.250000
  0
LINE
  8
CSLAYER1
  6
CONTINUOUS
 62
     7
 10
1289.153219
 20
340.500000
 11
1287.053219
 21
339.287565
  0
LINE
  8
CSLAYER1
  6
CONTINUOUS
 62
     7
 10
1287.053219
 20
339.287565
 11
1287.053219
 21
329.250000
  0
LINE
  8
CSLAYER1
  6
CONTINUOUS
 62
     7
 10
1316.153219
 20
340.500000
 11
1289.153219
 21
340.500000
  0
LINE
  8
CSLAYER1
  6
CONTINUOUS
 62
     7
 10
1318.253219
 20
329.250000
 11
1287.053219
 21
329.250000
  0
ARC
  8
CSLAYER1
  6
CONTINUOUS
 62
     7
 10
1314.953219
 20
335.402822
 40
5.097178
 50
49.652860
 51
130.347140
  0
ARC
  8
CSLAYER1
  6
CONTINUOUS
 62
     7
 10
1302.653219
 20
306.489946
 40
34.010055
 50
74.655173
 51
105.344827
  0
ARC
  8
CSLAYER1
  6
CONTINUOUS
 62
     7
 10
1290.353219
 20
335.402822
 40
5.097178
 50
49.652860
 51
130.347140
  0
LINE
  8
CSLAYER1
  6
CONTINUOUS
 62
     7
 10
1311.653219
 20
339.287565
 11
1311.653219
 21
329.250000
  0
LINE
  8
CSLAYER1
  6
CONTINUOUS
 62
     7
 10
1293.653219
 20
339.287565
 11
1293.653219
 21
329.250000
  0
LINE
  8
CSLAYER1
  6
CONTINUOUS
 62
     7
 10
1311.653219
 20
255.750000
 11
1310.153219
 21
254.250000
  0
LINE
  8
CSLAYER1
  6
CONTINUOUS
 62
     7
 10
1295.153219
 20
254.250000
 11
1293.653219
 21
255.750000
  0
LINE
  8
CSLAYER1
  6
CONTINUOUS
 62
     7
 10
1294.778219
 20
254.625000
 11
1294.778219
 21
261.000000
  0
LINE
  8
CSLAYER1
  6
CONTINUOUS
 62
     7
 10
1311.653219
 20
255.750000
 11
1293.653219
 21
255.750000
  0
LINE
  8
CSLAYER1
  6
CONTINUOUS
 62
     7
 10
1318.253219
 20
275.250000
 11
1287.053219
 21
275.250000
  0
LINE
  8
CSLAYER1
  6
CONTINUOUS
 62
     7
 10
1316.153219
 20
261.000000
 11
1289.153219
 21
261.000000
  0
LINE
  8
CSLAYER1
  6
CONTINUOUS
 62
     7
 10
1316.153219
 20
261.000000
 11
1318.253219
 21
262.212436
  0
LINE
  8
CSLAYER1
  6
CONTINUOUS
 62
     7
 10
1289.153219
 20
261.000000
 11
1287.053219
 21
262.212436
  0
LINE
  8
CSLAYER1
  6
CONTINUOUS
 62
     7
 10
1318.253219
 20
275.250000
 11
1318.253219
 21
262.212436
  0
LINE
  8
CSLAYER1
  6
CONTINUOUS
 62
     7
 10
1287.053219
 20
275.250000
 11
1287.053219
 21
262.212436
  0
ARC
  8
CSLAYER1
  6
CONTINUOUS
 62
     7
 10
1314.953219
 20
266.097178
 40
5.097178
 50
229.652860
 51
310.347140
  0
ARC
  8
CSLAYER1
  6
CONTINUOUS
 62
     7
 10
1302.653219
 20
295.010055
 40
34.010055
 50
254.655173
 51
285.344827
  0
ARC
  8
CSLAYER1
  6
CONTINUOUS
 62
     7
 10
1290.353219
 20
266.097178
 40
5.097178
 50
229.652860
 51
310.347140
  0
LINE
  8
CSLAYER1
  6
CONTINUOUS
 62
     7
 10
1311.653219
 20
275.250000
 11
1311.653219
 21
262.212436
  0
LINE
  8
CSLAYER1
  6
CONTINUOUS
 62
     7
 10
1293.653219
 20
275.250000
 11
1293.653219
 21
262.212436
  0
LINE
  8
CSLAYER1
  6
CONTINUOUS
 62
     7
 10
1311.653219
 20
261.000000
 11
1311.653219
 21
255.750000
  0
LINE
  8
CSLAYER1
  6
CONTINUOUS
 62
     7
 10
1310.528219
 20
261.000000
 11
1310.528219
 21
254.625000
  0
LINE
  8
CSLAYER1
  6
CENTER
 62
     2
 10
1302.653219
 20
348.000000
 11
1302.653219
 21
246.750000
  0
LINE
  8
CSLAYER1
  6
CONTINUOUS
 62
     7
 10
1357.461428
 20
254.250000
 11
1342.461428
 21
254.250000
  0
LINE
  8
CSLAYER1
  6
CONTINUOUS
 62
     7
 10
1340.961428
 20
255.750000
 11
1340.961428
 21
261.000000
  0
LINE
  8
CSLAYER1
  6
CONTINUOUS
 62
     7
 10
1363.461428
 20
340.500000
 11
1365.561428
 21
339.287565
  0
LINE
  8
CSLAYER1
  6
CONTINUOUS
 62
     7
 10
1365.561428
 20
339.287565
 11
1365.561428
 21
329.250000
  0
LINE
  8
CSLAYER1
  6
CONTINUOUS
 62
     7
 10
1336.461428
 20
340.500000
 11
1334.361428
 21
339.287565
  0
LINE
  8
CSLAYER1
  6
CONTINUOUS
 62
     7
 10
1334.361428
 20
339.287565
 11
1334.361428
 21
329.250000
  0
LINE
  8
CSLAYER1
  6
CONTINUOUS
 62
     7
 10
1363.461428
 20
340.500000
 11
1336.461428
 21
340.500000
  0
LINE
  8
CSLAYER1
  6
CONTINUOUS
 62
     7
 10
1365.561428
 20
329.250000
 11
1334.361428
 21
329.250000
  0
ARC
  8
CSLAYER1
  6
CONTINUOUS
 62
     7
 10
1362.261428
 20
335.402822
 40
5.097178
 50
49.652860
 51
130.347140
  0
ARC
  8
CSLAYER1
  6
CONTINUOUS
 62
     7
 10
1349.961428
 20
306.489946
 40
34.010055
 50
74.655173
 51
105.344827
  0
ARC
  8
CSLAYER1
  6
CONTINUOUS
 62
     7
 10
1337.661428
 20
335.402822
 40
5.097178
 50
49.652860
 51
130.347140
  0
LINE
  8
CSLAYER1
  6
CONTINUOUS
 62
     7
 10
1358.961428
 20
339.287565
 11
1358.961428
 21
329.250000
  0
LINE
  8
CSLAYER1
  6
CONTINUOUS
 62
     7
 10
1340.961428
 20
339.287565
 11
1340.961428
 21
329.250000
  0
LINE
  8
CSLAYER1
  6
CONTINUOUS
 62
     7
 10
1358.961428
 20
255.750000
 11
1357.461428
 21
254.250000
  0
LINE
  8
CSLAYER1
  6
CONTINUOUS
 62
     7
 10
1342.461428
 20
254.250000
 11
1340.961428
 21
255.750000
  0
LINE
  8
CSLAYER1
  6
CONTINUOUS
 62
     7
 10
1342.086428
 20
254.625000
 11
1342.086428
 21
261.000000
  0
LINE
  8
CSLAYER1
  6
CONTINUOUS
 62
     7
 10
1358.961428
 20
255.750000
 11
1340.961428
 21
255.750000
  0
LINE
  8
CSLAYER1
  6
CONTINUOUS
 62
     7
 10
1365.561428
 20
275.250000
 11
1334.361428
 21
275.250000
  0
LINE
  8
CSLAYER1
  6
CONTINUOUS
 62
     7
 10
1363.461428
 20
261.000000
 11
1336.461428
 21
261.000000
  0
LINE
  8
CSLAYER1
  6
CONTINUOUS
 62
     7
 10
1363.461428
 20
261.000000
 11
1365.561428
 21
262.212436
  0
LINE
  8
CSLAYER1
  6
CONTINUOUS
 62
     7
 10
1336.461428
 20
261.000000
 11
1334.361428
 21
262.212436
  0
LINE
  8
CSLAYER1
  6
CONTINUOUS
 62
     7
 10
1365.561428
 20
275.250000
 11
1365.561428
 21
262.212436
  0
LINE
  8
CSLAYER1
  6
CONTINUOUS
 62
     7
 10
1334.361428
 20
275.250000
 11
1334.361428
 21
262.212436
  0
ARC
  8
CSLAYER1
  6
CONTINUOUS
 62
     7
 10
1362.261428
 20
266.097178
 40
5.097178
 50
229.652860
 51
310.347140
  0
ARC
  8
CSLAYER1
  6
CONTINUOUS
 62
     7
 10
1349.961428
 20
295.010055
 40
34.010055
 50
254.655173
 51
285.344827
  0
ARC
  8
CSLAYER1
  6
CONTINUOUS
 62
     7
 10
1337.661428
 20
266.097178
 40
5.097178
 50
229.652860
 51
310.347140
  0
LINE
  8
CSLAYER1
  6
CONTINUOUS
 62
     7
 10
1358.961428
 20
275.250000
 11
1358.961428
 21
262.212436
  0
LINE
  8
CSLAYER1
  6
CONTINUOUS
 62
     7
 10
1340.961428
 20
275.250000
 11
1340.961428
 21
262.212436
  0
LINE
  8
CSLAYER1
  6
CONTINUOUS
 62
     7
 10
1358.961428
 20
261.000000
 11
1358.961428
 21
255.750000
  0
LINE
  8
CSLAYER1
  6
CONTINUOUS
 62
     7
 10
1357.836428
 20
261.000000
 11
1357.836428
 21
254.625000
  0
LINE
  8
CSLAYER1
  6
CENTER
 62
     2
 10
1349.961428
 20
348.000000
 11
1349.961428
 21
246.750000
  0
LINE
  8
CSLAYER1
  6
CONTINUOUS
 62
     7
 10
1382.332825
 20
254.250000
 11
1367.332825
 21
254.250000
  0
LINE
  8
CSLAYER1
  6
CONTINUOUS
 62
     7
 10
1365.832825
 20
255.750000
 11
1365.832825
 21
261.000000
  0
LINE
  8
CSLAYER1
  6
CONTINUOUS
 62
     7
 10
1388.332825
 20
340.500000
 11
1390.432825
 21
339.287565
  0
LINE
  8
CSLAYER1
  6
CONTINUOUS
 62
     7
 10
1390.432825
 20
339.287565
 11
1390.432825
 21
329.250000
  0
LINE
  8
CSLAYER1
  6
CONTINUOUS
 62
     7
 10
1388.332825
 20
340.500000
 11
1361.332825
 21
340.500000
  0
LINE
  8
CSLAYER1
  6
CONTINUOUS
 62
     7
 10
1390.432825
 20
329.250000
 11
1359.232825
 21
329.250000
  0
ARC
  8
CSLAYER1
  6
CONTINUOUS
 62
     7
 10
1387.132825
 20
335.402822
 40
5.097178
 50
49.652860
 51
130.347140
  0
ARC
  8
CSLAYER1
  6
CONTINUOUS
 62
     7
 10
1374.832825
 20
306.489946
 40
34.010055
 50
74.655173
 51
105.344827
  0
ARC
  8
CSLAYER1
  6
CONTINUOUS
 62
     7
 10
1362.532825
 20
335.402822
 40
5.097178
 50
49.652860
 51
76.840434
  0
LINE
  8
CSLAYER1
  6
CONTINUOUS
 62
     7
 10
1383.832825
 20
339.287565
 11
1383.832825
 21
329.250000
  0
LINE
  8
CSLAYER1
  6
CONTINUOUS
 62
     7
 10
1365.832825
 20
339.287565
 11
1365.832825
 21
329.250000
  0
LINE
  8
CSLAYER1
  6
CONTINUOUS
 62
     7
 10
1383.832825
 20
255.750000
 11
1382.332825
 21
254.250000
  0
LINE
  8
CSLAYER1
  6
CONTINUOUS
 62
     7
 10
1367.332825
 20
254.250000
 11
1365.832825
 21
255.750000
  0
LINE
  8
CSLAYER1
  6
CONTINUOUS
 62
     7
 10
1366.957825
 20
254.625000
 11
1366.957825
 21
261.000000
  0
LINE
  8
CSLAYER1
  6
CONTINUOUS
 62
     7
 10
1383.832825
 20
255.750000
 11
1365.832825
 21
255.750000
  0
LINE
  8
CSLAYER1
  6
CONTINUOUS
 62
     7
 10
1390.432825
 20
275.250000
 11
1359.232825
 21
275.250000
  0
LINE
  8
CSLAYER1
  6
CONTINUOUS
 62
     7
 10
1388.332825
 20
261.000000
 11
1361.332825
 21
261.000000
  0
LINE
  8
CSLAYER1
  6
CONTINUOUS
 62
     7
 10
1388.332825
 20
261.000000
 11
1390.432825
 21
262.212436
  0
LINE
  8
CSLAYER1
  6
CONTINUOUS
 62
     7
 10
1390.432825
 20
275.250000
 11
1390.432825
 21
262.212436
  0
ARC
  8
CSLAYER1
  6
CONTINUOUS
 62
     7
 10
1387.132825
 20
266.097178
 40
5.097178
 50
229.652860
 51
310.347140
  0
ARC
  8
CSLAYER1
  6
CONTINUOUS
 62
     7
 10
1374.832825
 20
295.010055
 40
34.010055
 50
254.655173
 51
285.344827
  0
ARC
  8
CSLAYER1
  6
CONTINUOUS
 62
     7
 10
1362.532825
 20
266.097178
 40
5.097178
 50
283.159566
 51
310.347140
  0
LINE
  8
CSLAYER1
  6
CONTINUOUS
 62
     7
 10
1383.832825
 20
275.250000
 11
1383.832825
 21
262.212436
  0
LINE
  8
CSLAYER1
  6
CONTINUOUS
 62
     7
 10
1365.832825
 20
275.250000
 11
1365.832825
 21
262.212436
  0
LINE
  8
CSLAYER1
  6
CONTINUOUS
 62
     7
 10
1383.832825
 20
261.000000
 11
1383.832825
 21
255.750000
  0
LINE
  8
CSLAYER1
  6
CONTINUOUS
 62
     7
 10
1382.707825
 20
261.000000
 11
1382.707825
 21
254.625000
  0
LINE
  8
CSLAYER1
  6
CENTER
 62
     2
 10
1374.832825
 20
348.000000
 11
1374.832825
 21
246.750000
  0
LINE
  8
CSLAYER1
  6
CONTINUOUS
 62
     7
 10
1168.492766
 20
254.250000
 11
1153.492766
 21
254.250000
  0
LINE
  8
CSLAYER1
  6
CONTINUOUS
 62
     7
 10
1151.992766
 20
255.750000
 11
1151.992766
 21
261.000000
  0
LINE
  8
CSLAYER1
  6
CONTINUOUS
 62
     7
 10
1174.492766
 20
340.500000
 11
1176.592766
 21
339.287565
  0
LINE
  8
CSLAYER1
  6
CONTINUOUS
 62
     7
 10
1176.592766
 20
339.287565
 11
1176.592766
 21
329.250000
  0
LINE
  8
CSLAYER1
  6
CONTINUOUS
 62
     7
 10
1174.492766
 20
340.500000
 11
1148.240942
 21
340.500000
  0
LINE
  8
CSLAYER1
  6
CONTINUOUS
 62
     7
 10
1176.592766
 20
329.250000
 11
1151.033177
 21
329.250000
  0
ARC
  8
CSLAYER1
  6
CONTINUOUS
 62
     7
 10
1173.292766
 20
335.402822
 40
5.097178
 50
49.652860
 51
130.347140
  0
ARC
  8
CSLAYER1
  6
CONTINUOUS
 62
     7
 10
1160.992766
 20
306.489946
 40
34.010055
 50
74.655173
 51
105.344827
  0
ARC
  8
CSLAYER1
  6
CONTINUOUS
 62
     7
 10
1148.692766
 20
335.402822
 40
5.097178
 50
49.652860
 51
95.018167
  0
LINE
  8
CSLAYER1
  6
CONTINUOUS
 62
     7
 10
1169.992766
 20
339.287565
 11
1169.992766
 21
329.250000
  0
LINE
  8
CSLAYER1
  6
CONTINUOUS
 62
     7
 10
1151.992766
 20
339.287565
 11
1151.992766
 21
329.250000
  0
LINE
  8
CSLAYER1
  6
CONTINUOUS
 62
     7
 10
1169.992766
 20
255.750000
 11
1168.492766
 21
254.250000
  0
LINE
  8
CSLAYER1
  6
CONTINUOUS
 62
     7
 10
1153.492766
 20
254.250000
 11
1151.992766
 21
255.750000
  0
LINE
  8
CSLAYER1
  6
CONTINUOUS
 62
     7
 10
1153.117766
 20
254.625000
 11
1153.117766
 21
261.000000
  0
LINE
  8
CSLAYER1
  6
CONTINUOUS
 62
     7
 10
1169.992766
 20
255.750000
 11
1151.992766
 21
255.750000
  0
LINE
  8
CSLAYER1
  6
CONTINUOUS
 62
     7
 10
1176.592766
 20
275.250000
 11
1147.770981
 21
275.250000
  0
LINE
  8
CSLAYER1
  6
CONTINUOUS
 62
     7
 10
1174.492766
 20
261.000000
 11
1151.837497
 21
261.000000
  0
LINE
  8
CSLAYER1
  6
CONTINUOUS
 62
     7
 10
1174.492766
 20
261.000000
 11
1176.592766
 21
262.212436
  0
LINE
  8
CSLAYER1
  6
CONTINUOUS
 62
     7
 10
1176.592766
 20
275.250000
 11
1176.592766
 21
262.212436
  0
ARC
  8
CSLAYER1
  6
CONTINUOUS
 62
     7
 10
1173.292766
 20
266.097178
 40
5.097178
 50
229.652860
 51
310.347140
  0
ARC
  8
CSLAYER1
  6
CONTINUOUS
 62
     7
 10
1160.992766
 20
295.010055
 40
34.010055
 50
254.655173
 51
285.344827
  0
ARC
  8
CSLAYER1
  6
CONTINUOUS
 62
     7
 10
1148.692766
 20
266.097178
 40
5.097178
 50
308.094142
 51
310.347140
  0
LINE
  8
CSLAYER1
  6
CONTINUOUS
 62
     7
 10
1169.992766
 20
275.250000
 11
1169.992766
 21
262.212436
  0
LINE
  8
CSLAYER1
  6
CONTINUOUS
 62
     7
 10
1151.992766
 20
275.250000
 11
1151.992766
 21
262.212436
  0
LINE
  8
CSLAYER1
  6
CONTINUOUS
 62
     7
 10
1169.992766
 20
261.000000
 11
1169.992766
 21
255.750000
  0
LINE
  8
CSLAYER1
  6
CONTINUOUS
 62
     7
 10
1168.867766
 20
261.000000
 11
1168.867766
 21
254.625000
  0
LINE
  8
CSLAYER1
  6
CENTER
 62
     2
 10
1160.992766
 20
348.000000
 11
1160.992766
 21
246.750000
  0
LINE
  8
CSLAYER1
  6
CONTINUOUS
 62
     7
 10
1245.039055
 20
254.250000
 11
1230.039055
 21
254.250000
  0
LINE
  8
CSLAYER1
  6
CONTINUOUS
 62
     7
 10
1228.539055
 20
255.750000
 11
1228.539055
 21
261.000000
  0
LINE
  8
CSLAYER1
  6
CONTINUOUS
 62
     7
 10
1251.039055
 20
340.500000
 11
1253.139055
 21
339.287565
  0
LINE
  8
CSLAYER1
  6
CONTINUOUS
 62
     7
 10
1253.139055
 20
339.287565
 11
1253.139055
 21
329.250000
  0
LINE
  8
CSLAYER1
  6
CONTINUOUS
 62
     7
 10
1224.039055
 20
340.500000
 11
1221.939055
 21
339.287565
  0
LINE
  8
CSLAYER1
  6
CONTINUOUS
 62
     7
 10
1221.939055
 20
339.287565
 11
1221.939055
 21
329.250000
  0
LINE
  8
CSLAYER1
  6
CONTINUOUS
 62
     7
 10
1251.039055
 20
340.500000
 11
1224.039055
 21
340.500000
  0
LINE
  8
CSLAYER1
  6
CONTINUOUS
 62
     7
 10
1253.139055
 20
329.250000
 11
1221.939055
 21
329.250000
  0
ARC
  8
CSLAYER1
  6
CONTINUOUS
 62
     7
 10
1249.839055
 20
335.402822
 40
5.097178
 50
49.652860
 51
130.347140
  0
ARC
  8
CSLAYER1
  6
CONTINUOUS
 62
     7
 10
1237.539055
 20
306.489946
 40
34.010055
 50
74.655173
 51
105.344827
  0
ARC
  8
CSLAYER1
  6
CONTINUOUS
 62
     7
 10
1225.239055
 20
335.402822
 40
5.097178
 50
49.652860
 51
130.347140
  0
LINE
  8
CSLAYER1
  6
CONTINUOUS
 62
     7
 10
1246.539055
 20
339.287565
 11
1246.539055
 21
329.250000
  0
LINE
  8
CSLAYER1
  6
CONTINUOUS
 62
     7
 10
1228.539055
 20
339.287565
 11
1228.539055
 21
329.250000
  0
LINE
  8
CSLAYER1
  6
CONTINUOUS
 62
     7
 10
1246.539055
 20
255.750000
 11
1245.039055
 21
254.250000
  0
LINE
  8
CSLAYER1
  6
CONTINUOUS
 62
     7
 10
1230.039055
 20
254.250000
 11
1228.539055
 21
255.750000
  0
LINE
  8
CSLAYER1
  6
CONTINUOUS
 62
     7
 10
1229.664055
 20
254.625000
 11
1229.664055
 21
261.000000
  0
LINE
  8
CSLAYER1
  6
CONTINUOUS
 62
     7
 10
1246.539055
 20
255.750000
 11
1228.539055
 21
255.750000
  0
LINE
  8
CSLAYER1
  6
CONTINUOUS
 62
     7
 10
1253.139055
 20
275.250000
 11
1221.939055
 21
275.250000
  0
LINE
  8
CSLAYER1
  6
CONTINUOUS
 62
     7
 10
1251.039055
 20
261.000000
 11
1224.039055
 21
261.000000
  0
LINE
  8
CSLAYER1
  6
CONTINUOUS
 62
     7
 10
1251.039055
 20
261.000000
 11
1253.139055
 21
262.212436
  0
LINE
  8
CSLAYER1
  6
CONTINUOUS
 62
     7
 10
1224.039055
 20
261.000000
 11
1221.939055
 21
262.212436
  0
LINE
  8
CSLAYER1
  6
CONTINUOUS
 62
     7
 10
1253.139055
 20
275.250000
 11
1253.139055
 21
262.212436
  0
LINE
  8
CSLAYER1
  6
CONTINUOUS
 62
     7
 10
1221.939055
 20
275.250000
 11
1221.939055
 21
262.212436
  0
ARC
  8
CSLAYER1
  6
CONTINUOUS
 62
     7
 10
1249.839055
 20
266.097178
 40
5.097178
 50
229.652860
 51
310.347140
  0
ARC
  8
CSLAYER1
  6
CONTINUOUS
 62
     7
 10
1237.539055
 20
295.010055
 40
34.010055
 50
254.655173
 51
285.344827
  0
ARC
  8
CSLAYER1
  6
CONTINUOUS
 62
     7
 10
1225.239055
 20
266.097178
 40
5.097178
 50
229.652860
 51
310.347140
  0
LINE
  8
CSLAYER1
  6
CONTINUOUS
 62
     7
 10
1246.539055
 20
275.250000
 11
1246.539055
 21
262.212436
  0
LINE
  8
CSLAYER1
  6
CONTINUOUS
 62
     7
 10
1228.539055
 20
275.250000
 11
1228.539055
 21
262.212436
  0
LINE
  8
CSLAYER1
  6
CONTINUOUS
 62
     7
 10
1246.539055
 20
261.000000
 11
1246.539055
 21
255.750000
  0
LINE
  8
CSLAYER1
  6
CONTINUOUS
 62
     7
 10
1245.414055
 20
261.000000
 11
1245.414055
 21
254.625000
  0
LINE
  8
CSLAYER1
  6
CENTER
 62
     2
 10
1237.539055
 20
348.000000
 11
1237.539055
 21
246.750000
  0
LINE
  8
CSLAYER1
  6
CONTINUOUS
 62
     7
 10
888.249999
 20
587.250000
 11
888.249999
 21
585.750000
  0
LINE
  8
CSLAYER1
  6
CONTINUOUS
 62
     7
 10
1353.249999
 20
587.250000
 11
1353.249999
 21
585.750000
  0
LINE
  8
CSLAYER1
  6
CONTINUOUS
 62
     7
 10
1073.007233
 20
538.500000
 11
1088.007233
 21
538.500000
  0
LINE
  8
CSLAYER1
  6
CONTINUOUS
 62
     7
 10
1089.507233
 20
540.000000
 11
1089.507233
 21
545.250000
  0
LINE
  8
CSLAYER1
  6
CONTINUOUS
 62
     7
 10
1067.007233
 20
624.750000
 11
1064.907233
 21
623.537565
  0
LINE
  8
CSLAYER1
  6
CONTINUOUS
 62
     7
 10
1064.907233
 20
623.537565
 11
1064.907233
 21
613.500000
  0
LINE
  8
CSLAYER1
  6
CONTINUOUS
 62
     7
 10
1094.007233
 20
624.750000
 11
1096.107233
 21
623.537565
  0
LINE
  8
CSLAYER1
  6
CONTINUOUS
 62
     7
 10
1096.107233
 20
623.537565
 11
1096.107233
 21
613.500000
  0
LINE
  8
CSLAYER1
  6
CONTINUOUS
 62
     7
 10
1067.007233
 20
624.750000
 11
1094.007233
 21
624.750000
  0
LINE
  8
CSLAYER1
  6
CONTINUOUS
 62
     7
 10
1064.907233
 20
613.500000
 11
1096.107233
 21
613.500000
  0
ARC
  8
CSLAYER1
  6
CONTINUOUS
 62
     7
 10
1068.207233
 20
619.652822
 40
5.097178
 50
49.652860
 51
130.347140
  0
ARC
  8
CSLAYER1
  6
CONTINUOUS
 62
     7
 10
1080.507233
 20
590.739946
 40
34.010055
 50
74.655173
 51
105.344827
  0
ARC
  8
CSLAYER1
  6
CONTINUOUS
 62
     7
 10
1092.807233
 20
619.652822
 40
5.097178
 50
49.652860
 51
130.347140
  0
LINE
  8
CSLAYER1
  6
CONTINUOUS
 62
     7
 10
1071.507233
 20
623.537565
 11
1071.507233
 21
613.500000
  0
LINE
  8
CSLAYER1
  6
CONTINUOUS
 62
     7
 10
1089.507233
 20
623.537565
 11
1089.507233
 21
613.500000
  0
LINE
  8
CSLAYER1
  6
CONTINUOUS
 62
     7
 10
1071.507233
 20
540.000000
 11
1073.007233
 21
538.500000
  0
LINE
  8
CSLAYER1
  6
CONTINUOUS
 62
     7
 10
1088.007233
 20
538.500000
 11
1089.507233
 21
540.000000
  0
LINE
  8
CSLAYER1
  6
CONTINUOUS
 62
     7
 10
1088.382233
 20
538.875000
 11
1088.382233
 21
545.250000
  0
LINE
  8
CSLAYER1
  6
CONTINUOUS
 62
     7
 10
1071.507233
 20
540.000000
 11
1089.507233
 21
540.000000
  0
LINE
  8
CSLAYER1
  6
CONTINUOUS
 62
     7
 10
1064.907233
 20
559.500000
 11
1096.107233
 21
559.500000
  0
LINE
  8
CSLAYER1
  6
CONTINUOUS
 62
     7
 10
1067.007233
 20
545.250000
 11
1094.007233
 21
545.250000
  0
LINE
  8
CSLAYER1
  6
CONTINUOUS
 62
     7
 10
1067.007233
 20
545.250000
 11
1064.907233
 21
546.462436
  0
LINE
  8
CSLAYER1
  6
CONTINUOUS
 62
     7
 10
1094.007233
 20
545.250000
 11
1096.107233
 21
546.462436
  0
LINE
  8
CSLAYER1
  6
CONTINUOUS
 62
     7
 10
1064.907233
 20
559.500000
 11
1064.907233
 21
546.462436
  0
LINE
  8
CSLAYER1
  6
CONTINUOUS
 62
     7
 10
1096.107233
 20
559.500000
 11
1096.107233
 21
546.462436
  0
ARC
  8
CSLAYER1
  6
CONTINUOUS
 62
     7
 10
1068.207233
 20
550.347178
 40
5.097178
 50
229.652860
 51
310.347140
  0
ARC
  8
CSLAYER1
  6
CONTINUOUS
 62
     7
 10
1080.507233
 20
579.260055
 40
34.010055
 50
254.655173
 51
285.344827
  0
ARC
  8
CSLAYER1
  6
CONTINUOUS
 62
     7
 10
1092.807233
 20
550.347178
 40
5.097178
 50
229.652860
 51
310.347140
  0
LINE
  8
CSLAYER1
  6
CONTINUOUS
 62
     7
 10
1071.507233
 20
559.500000
 11
1071.507233
 21
546.462436
  0
LINE
  8
CSLAYER1
  6
CONTINUOUS
 62
     7
 10
1089.507233
 20
559.500000
 11
1089.507233
 21
546.462436
  0
LINE
  8
CSLAYER1
  6
CONTINUOUS
 62
     7
 10
1071.507233
 20
545.250000
 11
1071.507233
 21
540.000000
  0
LINE
  8
CSLAYER1
  6
CONTINUOUS
 62
     7
 10
1072.632233
 20
545.250000
 11
1072.632233
 21
538.875000
  0
LINE
  8
CSLAYER1
  6
CENTER
 62
     2
 10
1080.507233
 20
632.250000
 11
1080.507233
 21
531.000000
  0
LINE
  8
CSLAYER1
  6
CONTINUOUS
 62
     7
 10
996.460943
 20
538.500000
 11
1011.460943
 21
538.500000
  0
LINE
  8
CSLAYER1
  6
CONTINUOUS
 62
     7
 10
1012.960943
 20
540.000000
 11
1012.960943
 21
545.250000
  0
LINE
  8
CSLAYER1
  6
CONTINUOUS
 62
     7
 10
990.460943
 20
624.750000
 11
988.360943
 21
623.537565
  0
LINE
  8
CSLAYER1
  6
CONTINUOUS
 62
     7
 10
988.360943
 20
623.537565
 11
988.360943
 21
613.500000
  0
LINE
  8
CSLAYER1
  6
CONTINUOUS
 62
     7
 10
1017.460943
 20
624.750000
 11
1019.560943
 21
623.537565
  0
LINE
  8
CSLAYER1
  6
CONTINUOUS
 62
     7
 10
1019.560943
 20
623.537565
 11
1019.560943
 21
613.500000
  0
LINE
  8
CSLAYER1
  6
CONTINUOUS
 62
     7
 10
990.460943
 20
624.750000
 11
1017.460943
 21
624.750000
  0
LINE
  8
CSLAYER1
  6
CONTINUOUS
 62
     7
 10
988.360943
 20
613.500000
 11
1019.560943
 21
613.500000
  0
ARC
  8
CSLAYER1
  6
CONTINUOUS
 62
     7
 10
991.660943
 20
619.652822
 40
5.097178
 50
49.652860
 51
130.347140
  0
ARC
  8
CSLAYER1
  6
CONTINUOUS
 62
     7
 10
1003.960943
 20
590.739946
 40
34.010055
 50
74.655173
 51
105.344827
  0
ARC
  8
CSLAYER1
  6
CONTINUOUS
 62
     7
 10
1016.260943
 20
619.652822
 40
5.097178
 50
49.652860
 51
130.347140
  0
LINE
  8
CSLAYER1
  6
CONTINUOUS
 62
     7
 10
994.960943
 20
623.537565
 11
994.960943
 21
613.500000
  0
LINE
  8
CSLAYER1
  6
CONTINUOUS
 62
     7
 10
1012.960943
 20
623.537565
 11
1012.960943
 21
613.500000
  0
LINE
  8
CSLAYER1
  6
CONTINUOUS
 62
     7
 10
994.960943
 20
540.000000
 11
996.460943
 21
538.500000
  0
LINE
  8
CSLAYER1
  6
CONTINUOUS
 62
     7
 10
1011.460943
 20
538.500000
 11
1012.960943
 21
540.000000
  0
LINE
  8
CSLAYER1
  6
CONTINUOUS
 62
     7
 10
1011.835943
 20
538.875000
 11
1011.835943
 21
545.250000
  0
LINE
  8
CSLAYER1
  6
CONTINUOUS
 62
     7
 10
994.960943
 20
540.000000
 11
1012.960943
 21
540.000000
  0
LINE
  8
CSLAYER1
  6
CONTINUOUS
 62
     7
 10
988.360943
 20
559.500000
 11
1019.560943
 21
559.500000
  0
LINE
  8
CSLAYER1
  6
CONTINUOUS
 62
     7
 10
990.460943
 20
545.250000
 11
1017.460943
 21
545.250000
  0
LINE
  8
CSLAYER1
  6
CONTINUOUS
 62
     7
 10
990.460943
 20
545.250000
 11
988.360943
 21
546.462436
  0
LINE
  8
CSLAYER1
  6
CONTINUOUS
 62
     7
 10
1017.460943
 20
545.250000
 11
1019.560943
 21
546.462436
  0
LINE
  8
CSLAYER1
  6
CONTINUOUS
 62
     7
 10
988.360943
 20
559.500000
 11
988.360943
 21
546.462436
  0
LINE
  8
CSLAYER1
  6
CONTINUOUS
 62
     7
 10
1019.560943
 20
559.500000
 11
1019.560943
 21
546.462436
  0
ARC
  8
CSLAYER1
  6
CONTINUOUS
 62
     7
 10
991.660943
 20
550.347178
 40
5.097178
 50
229.652860
 51
310.347140
  0
ARC
  8
CSLAYER1
  6
CONTINUOUS
 62
     7
 10
1003.960943
 20
579.260055
 40
34.010055
 50
254.655173
 51
285.344827
  0
ARC
  8
CSLAYER1
  6
CONTINUOUS
 62
     7
 10
1016.260943
 20
550.347178
 40
5.097178
 50
229.652860
 51
310.347140
  0
LINE
  8
CSLAYER1
  6
CONTINUOUS
 62
     7
 10
994.960943
 20
559.500000
 11
994.960943
 21
546.462436
  0
LINE
  8
CSLAYER1
  6
CONTINUOUS
 62
     7
 10
1012.960943
 20
559.500000
 11
1012.960943
 21
546.462436
  0
LINE
  8
CSLAYER1
  6
CONTINUOUS
 62
     7
 10
994.960943
 20
545.250000
 11
994.960943
 21
540.000000
  0
LINE
  8
CSLAYER1
  6
CONTINUOUS
 62
     7
 10
996.085943
 20
545.250000
 11
996.085943
 21
538.875000
  0
LINE
  8
CSLAYER1
  6
CENTER
 62
     2
 10
1003.960943
 20
632.250000
 11
1003.960943
 21
531.000000
  0
LINE
  8
CSLAYER1
  6
CONTINUOUS
 62
     7
 10
931.346780
 20
538.500000
 11
946.346780
 21
538.500000
  0
LINE
  8
CSLAYER1
  6
CONTINUOUS
 62
     7
 10
947.846780
 20
540.000000
 11
947.846780
 21
545.250000
  0
LINE
  8
CSLAYER1
  6
CONTINUOUS
 62
     7
 10
925.346780
 20
624.750000
 11
923.246780
 21
623.537565
  0
LINE
  8
CSLAYER1
  6
CONTINUOUS
 62
     7
 10
923.246780
 20
623.537565
 11
923.246780
 21
613.500000
  0
LINE
  8
CSLAYER1
  6
CONTINUOUS
 62
     7
 10
952.346780
 20
624.750000
 11
954.446780
 21
623.537565
  0
LINE
  8
CSLAYER1
  6
CONTINUOUS
 62
     7
 10
954.446780
 20
623.537565
 11
954.446780
 21
613.500000
  0
LINE
  8
CSLAYER1
  6
CONTINUOUS
 62
     7
 10
925.346780
 20
624.750000
 11
952.346780
 21
624.750000
  0
LINE
  8
CSLAYER1
  6
CONTINUOUS
 62
     7
 10
923.246780
 20
613.500000
 11
954.446780
 21
613.500000
  0
ARC
  8
CSLAYER1
  6
CONTINUOUS
 62
     7
 10
926.546780
 20
619.652822
 40
5.097178
 50
49.652860
 51
130.347140
  0
ARC
  8
CSLAYER1
  6
CONTINUOUS
 62
     7
 10
938.846780
 20
590.739946
 40
34.010055
 50
74.655173
 51
105.344827
  0
ARC
  8
CSLAYER1
  6
CONTINUOUS
 62
     7
 10
951.146780
 20
619.652822
 40
5.097178
 50
49.652860
 51
130.347140
  0
LINE
  8
CSLAYER1
  6
CONTINUOUS
 62
     7
 10
929.846780
 20
623.537565
 11
929.846780
 21
613.500000
  0
LINE
  8
CSLAYER1
  6
CONTINUOUS
 62
     7
 10
947.846780
 20
623.537565
 11
947.846780
 21
613.500000
  0
LINE
  8
CSLAYER1
  6
CONTINUOUS
 62
     7
 10
929.846780
 20
540.000000
 11
931.346780
 21
538.500000
  0
LINE
  8
CSLAYER1
  6
CONTINUOUS
 62
     7
 10
946.346780
 20
538.500000
 11
947.846780
 21
540.000000
  0
LINE
  8
CSLAYER1
  6
CONTINUOUS
 62
     7
 10
946.721780
 20
538.875000
 11
946.721780
 21
545.250000
  0
LINE
  8
CSLAYER1
  6
CONTINUOUS
 62
     7
 10
929.846780
 20
540.000000
 11
947.846780
 21
540.000000
  0
LINE
  8
CSLAYER1
  6
CONTINUOUS
 62
     7
 10
923.246780
 20
559.500000
 11
954.446780
 21
559.500000
  0
LINE
  8
CSLAYER1
  6
CONTINUOUS
 62
     7
 10
925.346780
 20
545.250000
 11
952.346780
 21
545.250000
  0
LINE
  8
CSLAYER1
  6
CONTINUOUS
 62
     7
 10
925.346780
 20
545.250000
 11
923.246780
 21
546.462436
  0
LINE
  8
CSLAYER1
  6
CONTINUOUS
 62
     7
 10
952.346780
 20
545.250000
 11
954.446780
 21
546.462436
  0
LINE
  8
CSLAYER1
  6
CONTINUOUS
 62
     7
 10
923.246780
 20
559.500000
 11
923.246780
 21
546.462436
  0
LINE
  8
CSLAYER1
  6
CONTINUOUS
 62
     7
 10
954.446780
 20
559.500000
 11
954.446780
 21
546.462436
  0
ARC
  8
CSLAYER1
  6
CONTINUOUS
 62
     7
 10
926.546780
 20
550.347178
 40
5.097178
 50
229.652860
 51
310.347140
  0
ARC
  8
CSLAYER1
  6
CONTINUOUS
 62
     7
 10
938.846780
 20
579.260055
 40
34.010055
 50
254.655173
 51
285.344827
  0
ARC
  8
CSLAYER1
  6
CONTINUOUS
 62
     7
 10
951.146780
 20
550.347178
 40
5.097178
 50
229.652860
 51
310.347140
  0
LINE
  8
CSLAYER1
  6
CONTINUOUS
 62
     7
 10
929.846780
 20
559.500000
 11
929.846780
 21
546.462436
  0
LINE
  8
CSLAYER1
  6
CONTINUOUS
 62
     7
 10
947.846780
 20
559.500000
 11
947.846780
 21
546.462436
  0
LINE
  8
CSLAYER1
  6
CONTINUOUS
 62
     7
 10
929.846780
 20
545.250000
 11
929.846780
 21
540.000000
  0
LINE
  8
CSLAYER1
  6
CONTINUOUS
 62
     7
 10
930.971780
 20
545.250000
 11
930.971780
 21
538.875000
  0
LINE
  8
CSLAYER1
  6
CENTER
 62
     2
 10
938.846780
 20
632.250000
 11
938.846780
 21
531.000000
  0
LINE
  8
CSLAYER1
  6
CONTINUOUS
 62
     7
 10
884.038571
 20
538.500000
 11
899.038571
 21
538.500000
  0
LINE
  8
CSLAYER1
  6
CONTINUOUS
 62
     7
 10
900.538571
 20
540.000000
 11
900.538571
 21
545.250000
  0
LINE
  8
CSLAYER1
  6
CONTINUOUS
 62
     7
 10
878.038571
 20
624.750000
 11
875.938571
 21
623.537565
  0
LINE
  8
CSLAYER1
  6
CONTINUOUS
 62
     7
 10
875.938571
 20
623.537565
 11
875.938571
 21
613.500000
  0
LINE
  8
CSLAYER1
  6
CONTINUOUS
 62
     7
 10
905.038571
 20
624.750000
 11
907.138571
 21
623.537565
  0
LINE
  8
CSLAYER1
  6
CONTINUOUS
 62
     7
 10
907.138571
 20
623.537565
 11
907.138571
 21
613.500000
  0
LINE
  8
CSLAYER1
  6
CONTINUOUS
 62
     7
 10
878.038571
 20
624.750000
 11
905.038571
 21
624.750000
  0
LINE
  8
CSLAYER1
  6
CONTINUOUS
 62
     7
 10
875.938571
 20
613.500000
 11
907.138571
 21
613.500000
  0
ARC
  8
CSLAYER1
  6
CONTINUOUS
 62
     7
 10
879.238571
 20
619.652822
 40
5.097178
 50
49.652860
 51
130.347140
  0
ARC
  8
CSLAYER1
  6
CONTINUOUS
 62
     7
 10
891.538571
 20
590.739946
 40
34.010055
 50
74.655173
 51
105.344827
  0
ARC
  8
CSLAYER1
  6
CONTINUOUS
 62
     7
 10
903.838571
 20
619.652822
 40
5.097178
 50
49.652860
 51
130.347140
  0
LINE
  8
CSLAYER1
  6
CONTINUOUS
 62
     7
 10
882.538571
 20
623.537565
 11
882.538571
 21
613.500000
  0
LINE
  8
CSLAYER1
  6
CONTINUOUS
 62
     7
 10
900.538571
 20
623.537565
 11
900.538571
 21
613.500000
  0
LINE
  8
CSLAYER1
  6
CONTINUOUS
 62
     7
 10
882.538571
 20
540.000000
 11
884.038571
 21
538.500000
  0
LINE
  8
CSLAYER1
  6
CONTINUOUS
 62
     7
 10
899.038571
 20
538.500000
 11
900.538571
 21
540.000000
  0
LINE
  8
CSLAYER1
  6
CONTINUOUS
 62
     7
 10
899.413571
 20
538.875000
 11
899.413571
 21
545.250000
  0
LINE
  8
CSLAYER1
  6
CONTINUOUS
 62
     7
 10
882.538571
 20
540.000000
 11
900.538571
 21
540.000000
  0
LINE
  8
CSLAYER1
  6
CONTINUOUS
 62
     7
 10
875.938571
 20
559.500000
 11
907.138571
 21
559.500000
  0
LINE
  8
CSLAYER1
  6
CONTINUOUS
 62
     7
 10
878.038571
 20
545.250000
 11
905.038571
 21
545.250000
  0
LINE
  8
CSLAYER1
  6
CONTINUOUS
 62
     7
 10
878.038571
 20
545.250000
 11
875.938571
 21
546.462436
  0
LINE
  8
CSLAYER1
  6
CONTINUOUS
 62
     7
 10
905.038571
 20
545.250000
 11
907.138571
 21
546.462436
  0
LINE
  8
CSLAYER1
  6
CONTINUOUS
 62
     7
 10
875.938571
 20
559.500000
 11
875.938571
 21
546.462436
  0
LINE
  8
CSLAYER1
  6
CONTINUOUS
 62
     7
 10
907.138571
 20
559.500000
 11
907.138571
 21
546.462436
  0
ARC
  8
CSLAYER1
  6
CONTINUOUS
 62
     7
 10
879.238571
 20
550.347178
 40
5.097178
 50
229.652860
 51
310.347140
  0
ARC
  8
CSLAYER1
  6
CONTINUOUS
 62
     7
 10
891.538571
 20
579.260055
 40
34.010055
 50
254.655173
 51
285.344827
  0
ARC
  8
CSLAYER1
  6
CONTINUOUS
 62
     7
 10
903.838571
 20
550.347178
 40
5.097178
 50
229.652860
 51
310.347140
  0
LINE
  8
CSLAYER1
  6
CONTINUOUS
 62
     7
 10
882.538571
 20
559.500000
 11
882.538571
 21
546.462436
  0
LINE
  8
CSLAYER1
  6
CONTINUOUS
 62
     7
 10
900.538571
 20
559.500000
 11
900.538571
 21
546.462436
  0
LINE
  8
CSLAYER1
  6
CONTINUOUS
 62
     7
 10
882.538571
 20
545.250000
 11
882.538571
 21
540.000000
  0
LINE
  8
CSLAYER1
  6
CONTINUOUS
 62
     7
 10
883.663571
 20
545.250000
 11
883.663571
 21
538.875000
  0
LINE
  8
CSLAYER1
  6
CENTER
 62
     2
 10
891.538571
 20
632.250000
 11
891.538571
 21
531.000000
  0
LINE
  8
CSLAYER1
  6
CONTINUOUS
 62
     7
 10
859.167174
 20
538.500000
 11
874.167174
 21
538.500000
  0
LINE
  8
CSLAYER1
  6
CONTINUOUS
 62
     7
 10
875.667174
 20
540.000000
 11
875.667174
 21
545.250000
  0
LINE
  8
CSLAYER1
  6
CONTINUOUS
 62
     7
 10
853.167174
 20
624.750000
 11
851.067174
 21
623.537565
  0
LINE
  8
CSLAYER1
  6
CONTINUOUS
 62
     7
 10
851.067174
 20
623.537565
 11
851.067174
 21
613.500000
  0
LINE
  8
CSLAYER1
  6
CONTINUOUS
 62
     7
 10
853.167174
 20
624.750000
 11
880.167174
 21
624.750000
  0
LINE
  8
CSLAYER1
  6
CONTINUOUS
 62
     7
 10
851.067174
 20
613.500000
 11
882.267174
 21
613.500000
  0
ARC
  8
CSLAYER1
  6
CONTINUOUS
 62
     7
 10
854.367174
 20
619.652822
 40
5.097178
 50
49.652860
 51
130.347140
  0
ARC
  8
CSLAYER1
  6
CONTINUOUS
 62
     7
 10
866.667174
 20
590.739946
 40
34.010055
 50
74.655173
 51
105.344827
  0
ARC
  8
CSLAYER1
  6
CONTINUOUS
 62
     7
 10
878.967174
 20
619.652822
 40
5.097178
 50
103.159566
 51
130.347140
  0
LINE
  8
CSLAYER1
  6
CONTINUOUS
 62
     7
 10
857.667174
 20
623.537565
 11
857.667174
 21
613.500000
  0
LINE
  8
CSLAYER1
  6
CONTINUOUS
 62
     7
 10
875.667174
 20
623.537565
 11
875.667174
 21
613.500000
  0
LINE
  8
CSLAYER1
  6
CONTINUOUS
 62
     7
 10
857.667174
 20
540.000000
 11
859.167174
 21
538.500000
  0
LINE
  8
CSLAYER1
  6
CONTINUOUS
 62
     7
 10
874.167174
 20
538.500000
 11
875.667174
 21
540.000000
  0
LINE
  8
CSLAYER1
  6
CONTINUOUS
 62
     7
 10
874.542174
 20
538.875000
 11
874.542174
 21
545.250000
  0
LINE
  8
CSLAYER1
  6
CONTINUOUS
 62
     7
 10
857.667174
 20
540.000000
 11
875.667174
 21
540.000000
  0
LINE
  8
CSLAYER1
  6
CONTINUOUS
 62
     7
 10
851.067174
 20
559.500000
 11
882.267174
 21
559.500000
  0
LINE
  8
CSLAYER1
  6
CONTINUOUS
 62
     7
 10
853.167174
 20
545.250000
 11
880.167174
 21
545.250000
  0
LINE
  8
CSLAYER1
  6
CONTINUOUS
 62
     7
 10
853.167174
 20
545.250000
 11
851.067174
 21
546.462436
  0
LINE
  8
CSLAYER1
  6
CONTINUOUS
 62
     7
 10
851.067174
 20
559.500000
 11
851.067174
 21
546.462436
  0
ARC
  8
CSLAYER1
  6
CONTINUOUS
 62
     7
 10
854.367174
 20
550.347178
 40
5.097178
 50
229.652860
 51
310.347140
  0
ARC
  8
CSLAYER1
  6
CONTINUOUS
 62
     7
 10
866.667174
 20
579.260055
 40
34.010055
 50
254.655173
 51
285.344827
  0
ARC
  8
CSLAYER1
  6
CONTINUOUS
 62
     7
 10
878.967174
 20
550.347178
 40
5.097178
 50
229.652860
 51
256.840434
  0
LINE
  8
CSLAYER1
  6
CONTINUOUS
 62
     7
 10
857.667174
 20
559.500000
 11
857.667174
 21
546.462436
  0
LINE
  8
CSLAYER1
  6
CONTINUOUS
 62
     7
 10
875.667174
 20
559.500000
 11
875.667174
 21
546.462436
  0
LINE
  8
CSLAYER1
  6
CONTINUOUS
 62
     7
 10
857.667174
 20
545.250000
 11
857.667174
 21
540.000000
  0
LINE
  8
CSLAYER1
  6
CONTINUOUS
 62
     7
 10
858.792174
 20
545.250000
 11
858.792174
 21
538.875000
  0
LINE
  8
CSLAYER1
  6
CENTER
 62
     2
 10
866.667174
 20
632.250000
 11
866.667174
 21
531.000000
  0
LINE
  8
CSLAYER1
  6
CONTINUOUS
 62
     7
 10
1353.249999
 20
587.250000
 11
1353.249999
 21
585.750000
  0
LINE
  8
CSLAYER1
  6
CONTINUOUS
 62
     7
 10
1168.492766
 20
538.500000
 11
1153.492766
 21
538.500000
  0
LINE
  8
CSLAYER1
  6
CONTINUOUS
 62
     7
 10
1151.992766
 20
540.000000
 11
1151.992766
 21
545.250000
  0
LINE
  8
CSLAYER1
  6
CONTINUOUS
 62
     7
 10
1174.492766
 20
624.750000
 11
1176.592766
 21
623.537565
  0
LINE
  8
CSLAYER1
  6
CONTINUOUS
 62
     7
 10
1176.592766
 20
623.537565
 11
1176.592766
 21
613.500000
  0
LINE
  8
CSLAYER1
  6
CONTINUOUS
 62
     7
 10
1147.492766
 20
624.750000
 11
1145.392766
 21
623.537565
  0
LINE
  8
CSLAYER1
  6
CONTINUOUS
 62
     7
 10
1145.392766
 20
623.537565
 11
1145.392766
 21
613.500000
  0
LINE
  8
CSLAYER1
  6
CONTINUOUS
 62
     7
 10
1174.492766
 20
624.750000
 11
1147.492766
 21
624.750000
  0
LINE
  8
CSLAYER1
  6
CONTINUOUS
 62
     7
 10
1176.592766
 20
613.500000
 11
1145.392766
 21
613.500000
  0
ARC
  8
CSLAYER1
  6
CONTINUOUS
 62
     7
 10
1173.292766
 20
619.652822
 40
5.097178
 50
49.652860
 51
130.347140
  0
ARC
  8
CSLAYER1
  6
CONTINUOUS
 62
     7
 10
1160.992766
 20
590.739946
 40
34.010055
 50
74.655173
 51
105.344827
  0
ARC
  8
CSLAYER1
  6
CONTINUOUS
 62
     7
 10
1148.692766
 20
619.652822
 40
5.097178
 50
49.652860
 51
130.347140
  0
LINE
  8
CSLAYER1
  6
CONTINUOUS
 62
     7
 10
1169.992766
 20
623.537565
 11
1169.992766
 21
613.500000
  0
LINE
  8
CSLAYER1
  6
CONTINUOUS
 62
     7
 10
1151.992766
 20
623.537565
 11
1151.992766
 21
613.500000
  0
LINE
  8
CSLAYER1
  6
CONTINUOUS
 62
     7
 10
1169.992766
 20
540.000000
 11
1168.492766
 21
538.500000
  0
LINE
  8
CSLAYER1
  6
CONTINUOUS
 62
     7
 10
1153.492766
 20
538.500000
 11
1151.992766
 21
540.000000
  0
LINE
  8
CSLAYER1
  6
CONTINUOUS
 62
     7
 10
1153.117766
 20
538.875000
 11
1153.117766
 21
545.250000
  0
LINE
  8
CSLAYER1
  6
CONTINUOUS
 62
     7
 10
1169.992766
 20
540.000000
 11
1151.992766
 21
540.000000
  0
LINE
  8
CSLAYER1
  6
CONTINUOUS
 62
     7
 10
1176.592766
 20
559.500000
 11
1145.392766
 21
559.500000
  0
LINE
  8
CSLAYER1
  6
CONTINUOUS
 62
     7
 10
1174.492766
 20
545.250000
 11
1147.492766
 21
545.250000
  0
LINE
  8
CSLAYER1
  6
CONTINUOUS
 62
     7
 10
1174.492766
 20
545.250000
 11
1176.592766
 21
546.462436
  0
LINE
  8
CSLAYER1
  6
CONTINUOUS
 62
     7
 10
1147.492766
 20
545.250000
 11
1145.392766
 21
546.462436
  0
LINE
  8
CSLAYER1
  6
CONTINUOUS
 62
     7
 10
1176.592766
 20
559.500000
 11
1176.592766
 21
546.462436
  0
LINE
  8
CSLAYER1
  6
CONTINUOUS
 62
     7
 10
1145.392766
 20
559.500000
 11
1145.392766
 21
546.462436
  0
ARC
  8
CSLAYER1
  6
CONTINUOUS
 62
     7
 10
1173.292766
 20
550.347178
 40
5.097178
 50
229.652860
 51
310.347140
  0
ARC
  8
CSLAYER1
  6
CONTINUOUS
 62
     7
 10
1160.992766
 20
579.260055
 40
34.010055
 50
254.655173
 51
285.344827
  0
ARC
  8
CSLAYER1
  6
CONTINUOUS
 62
     7
 10
1148.692766
 20
550.347178
 40
5.097178
 50
229.652860
 51
310.347140
  0
LINE
  8
CSLAYER1
  6
CONTINUOUS
 62
     7
 10
1169.992766
 20
559.500000
 11
1169.992766
 21
546.462436
  0
LINE
  8
CSLAYER1
  6
CONTINUOUS
 62
     7
 10
1151.992766
 20
559.500000
 11
1151.992766
 21
546.462436
  0
LINE
  8
CSLAYER1
  6
CONTINUOUS
 62
     7
 10
1169.992766
 20
545.250000
 11
1169.992766
 21
540.000000
  0
LINE
  8
CSLAYER1
  6
CONTINUOUS
 62
     7
 10
1168.867766
 20
545.250000
 11
1168.867766
 21
538.875000
  0
LINE
  8
CSLAYER1
  6
CENTER
 62
     2
 10
1160.992766
 20
632.250000
 11
1160.992766
 21
531.000000
  0
LINE
  8
CSLAYER1
  6
CONTINUOUS
 62
     7
 10
1245.039055
 20
538.500000
 11
1230.039055
 21
538.500000
  0
LINE
  8
CSLAYER1
  6
CONTINUOUS
 62
     7
 10
1228.539055
 20
540.000000
 11
1228.539055
 21
545.250000
  0
LINE
  8
CSLAYER1
  6
CONTINUOUS
 62
     7
 10
1251.039055
 20
624.750000
 11
1253.139055
 21
623.537565
  0
LINE
  8
CSLAYER1
  6
CONTINUOUS
 62
     7
 10
1253.139055
 20
623.537565
 11
1253.139055
 21
613.500000
  0
LINE
  8
CSLAYER1
  6
CONTINUOUS
 62
     7
 10
1224.039055
 20
624.750000
 11
1221.939055
 21
623.537565
  0
LINE
  8
CSLAYER1
  6
CONTINUOUS
 62
     7
 10
1221.939055
 20
623.537565
 11
1221.939055
 21
613.500000
  0
LINE
  8
CSLAYER1
  6
CONTINUOUS
 62
     7
 10
1251.039055
 20
624.750000
 11
1224.039055
 21
624.750000
  0
LINE
  8
CSLAYER1
  6
CONTINUOUS
 62
     7
 10
1253.139055
 20
613.500000
 11
1221.939055
 21
613.500000
  0
ARC
  8
CSLAYER1
  6
CONTINUOUS
 62
     7
 10
1249.839055
 20
619.652822
 40
5.097178
 50
49.652860
 51
130.347140
  0
ARC
  8
CSLAYER1
  6
CONTINUOUS
 62
     7
 10
1237.539055
 20
590.739946
 40
34.010055
 50
74.655173
 51
105.344827
  0
ARC
  8
CSLAYER1
  6
CONTINUOUS
 62
     7
 10
1225.239055
 20
619.652822
 40
5.097178
 50
49.652860
 51
130.347140
  0
LINE
  8
CSLAYER1
  6
CONTINUOUS
 62
     7
 10
1246.539055
 20
623.537565
 11
1246.539055
 21
613.500000
  0
LINE
  8
CSLAYER1
  6
CONTINUOUS
 62
     7
 10
1228.539055
 20
623.537565
 11
1228.539055
 21
613.500000
  0
LINE
  8
CSLAYER1
  6
CONTINUOUS
 62
     7
 10
1246.539055
 20
540.000000
 11
1245.039055
 21
538.500000
  0
LINE
  8
CSLAYER1
  6
CONTINUOUS
 62
     7
 10
1230.039055
 20
538.500000
 11
1228.539055
 21
540.000000
  0
LINE
  8
CSLAYER1
  6
CONTINUOUS
 62
     7
 10
1229.664055
 20
538.875000
 11
1229.664055
 21
545.250000
  0
LINE
  8
CSLAYER1
  6
CONTINUOUS
 62
     7
 10
1246.539055
 20
540.000000
 11
1228.539055
 21
540.000000
  0
LINE
  8
CSLAYER1
  6
CONTINUOUS
 62
     7
 10
1253.139055
 20
559.500000
 11
1221.939055
 21
559.500000
  0
LINE
  8
CSLAYER1
  6
CONTINUOUS
 62
     7
 10
1251.039055
 20
545.250000
 11
1224.039055
 21
545.250000
  0
LINE
  8
CSLAYER1
  6
CONTINUOUS
 62
     7
 10
1251.039055
 20
545.250000
 11
1253.139055
 21
546.462436
  0
LINE
  8
CSLAYER1
  6
CONTINUOUS
 62
     7
 10
1224.039055
 20
545.250000
 11
1221.939055
 21
546.462436
  0
LINE
  8
CSLAYER1
  6
CONTINUOUS
 62
     7
 10
1253.139055
 20
559.500000
 11
1253.139055
 21
546.462436
  0
LINE
  8
CSLAYER1
  6
CONTINUOUS
 62
     7
 10
1221.939055
 20
559.500000
 11
1221.939055
 21
546.462436
  0
ARC
  8
CSLAYER1
  6
CONTINUOUS
 62
     7
 10
1249.839055
 20
550.347178
 40
5.097178
 50
229.652860
 51
310.347140
  0
ARC
  8
CSLAYER1
  6
CONTINUOUS
 62
     7
 10
1237.539055
 20
579.260055
 40
34.010055
 50
254.655173
 51
285.344827
  0
ARC
  8
CSLAYER1
  6
CONTINUOUS
 62
     7
 10
1225.239055
 20
550.347178
 40
5.097178
 50
229.652860
 51
310.347140
  0
LINE
  8
CSLAYER1
  6
CONTINUOUS
 62
     7
 10
1246.539055
 20
559.500000
 11
1246.539055
 21
546.462436
  0
LINE
  8
CSLAYER1
  6
CONTINUOUS
 62
     7
 10
1228.539055
 20
559.500000
 11
1228.539055
 21
546.462436
  0
LINE
  8
CSLAYER1
  6
CONTINUOUS
 62
     7
 10
1246.539055
 20
545.250000
 11
1246.539055
 21
540.000000
  0
LINE
  8
CSLAYER1
  6
CONTINUOUS
 62
     7
 10
1245.414055
 20
545.250000
 11
1245.414055
 21
538.875000
  0
LINE
  8
CSLAYER1
  6
CENTER
 62
     2
 10
1237.539055
 20
632.250000
 11
1237.539055
 21
531.000000
  0
LINE
  8
CSLAYER1
  6
CONTINUOUS
 62
     7
 10
1310.153219
 20
538.500000
 11
1295.153219
 21
538.500000
  0
LINE
  8
CSLAYER1
  6
CONTINUOUS
 62
     7
 10
1293.653219
 20
540.000000
 11
1293.653219
 21
545.250000
  0
LINE
  8
CSLAYER1
  6
CONTINUOUS
 62
     7
 10
1316.153219
 20
624.750000
 11
1318.253219
 21
623.537565
  0
LINE
  8
CSLAYER1
  6
CONTINUOUS
 62
     7
 10
1318.253219
 20
623.537565
 11
1318.253219
 21
613.500000
  0
LINE
  8
CSLAYER1
  6
CONTINUOUS
 62
     7
 10
1289.153219
 20
624.750000
 11
1287.053219
 21
623.537565
  0
LINE
  8
CSLAYER1
  6
CONTINUOUS
 62
     7
 10
1287.053219
 20
623.537565
 11
1287.053219
 21
613.500000
  0
LINE
  8
CSLAYER1
  6
CONTINUOUS
 62
     7
 10
1316.153219
 20
624.750000
 11
1289.153219
 21
624.750000
  0
LINE
  8
CSLAYER1
  6
CONTINUOUS
 62
     7
 10
1318.253219
 20
613.500000
 11
1287.053219
 21
613.500000
  0
ARC
  8
CSLAYER1
  6
CONTINUOUS
 62
     7
 10
1314.953219
 20
619.652822
 40
5.097178
 50
49.652860
 51
130.347140
  0
ARC
  8
CSLAYER1
  6
CONTINUOUS
 62
     7
 10
1302.653219
 20
590.739946
 40
34.010055
 50
74.655173
 51
105.344827
  0
ARC
  8
CSLAYER1
  6
CONTINUOUS
 62
     7
 10
1290.353219
 20
619.652822
 40
5.097178
 50
49.652860
 51
130.347140
  0
LINE
  8
CSLAYER1
  6
CONTINUOUS
 62
     7
 10
1311.653219
 20
623.537565
 11
1311.653219
 21
613.500000
  0
LINE
  8
CSLAYER1
  6
CONTINUOUS
 62
     7
 10
1293.653219
 20
623.537565
 11
1293.653219
 21
613.500000
  0
LINE
  8
CSLAYER1
  6
CONTINUOUS
 62
     7
 10
1311.653219
 20
540.000000
 11
1310.153219
 21
538.500000
  0
LINE
  8
CSLAYER1
  6
CONTINUOUS
 62
     7
 10
1295.153219
 20
538.500000
 11
1293.653219
 21
540.000000
  0
LINE
  8
CSLAYER1
  6
CONTINUOUS
 62
     7
 10
1294.778219
 20
538.875000
 11
1294.778219
 21
545.250000
  0
LINE
  8
CSLAYER1
  6
CONTINUOUS
 62
     7
 10
1311.653219
 20
540.000000
 11
1293.653219
 21
540.000000
  0
LINE
  8
CSLAYER1
  6
CONTINUOUS
 62
     7
 10
1318.253219
 20
559.500000
 11
1287.053219
 21
559.500000
  0
LINE
  8
CSLAYER1
  6
CONTINUOUS
 62
     7
 10
1316.153219
 20
545.250000
 11
1289.153219
 21
545.250000
  0
LINE
  8
CSLAYER1
  6
CONTINUOUS
 62
     7
 10
1316.153219
 20
545.250000
 11
1318.253219
 21
546.462436
  0
LINE
  8
CSLAYER1
  6
CONTINUOUS
 62
     7
 10
1289.153219
 20
545.250000
 11
1287.053219
 21
546.462436
  0
LINE
  8
CSLAYER1
  6
CONTINUOUS
 62
     7
 10
1318.253219
 20
559.500000
 11
1318.253219
 21
546.462436
  0
LINE
  8
CSLAYER1
  6
CONTINUOUS
 62
     7
 10
1287.053219
 20
559.500000
 11
1287.053219
 21
546.462436
  0
ARC
  8
CSLAYER1
  6
CONTINUOUS
 62
     7
 10
1314.953219
 20
550.347178
 40
5.097178
 50
229.652860
 51
310.347140
  0
ARC
  8
CSLAYER1
  6
CONTINUOUS
 62
     7
 10
1302.653219
 20
579.260055
 40
34.010055
 50
254.655173
 51
285.344827
  0
ARC
  8
CSLAYER1
  6
CONTINUOUS
 62
     7
 10
1290.353219
 20
550.347178
 40
5.097178
 50
229.652860
 51
310.347140
  0
LINE
  8
CSLAYER1
  6
CONTINUOUS
 62
     7
 10
1311.653219
 20
559.500000
 11
1311.653219
 21
546.462436
  0
LINE
  8
CSLAYER1
  6
CONTINUOUS
 62
     7
 10
1293.653219
 20
559.500000
 11
1293.653219
 21
546.462436
  0
LINE
  8
CSLAYER1
  6
CONTINUOUS
 62
     7
 10
1311.653219
 20
545.250000
 11
1311.653219
 21
540.000000
  0
LINE
  8
CSLAYER1
  6
CONTINUOUS
 62
     7
 10
1310.528219
 20
545.250000
 11
1310.528219
 21
538.875000
  0
LINE
  8
CSLAYER1
  6
CENTER
 62
     2
 10
1302.653219
 20
632.250000
 11
1302.653219
 21
531.000000
  0
LINE
  8
CSLAYER1
  6
CONTINUOUS
 62
     7
 10
1357.461428
 20
538.500000
 11
1342.461428
 21
538.500000
  0
LINE
  8
CSLAYER1
  6
CONTINUOUS
 62
     7
 10
1340.961428
 20
540.000000
 11
1340.961428
 21
545.250000
  0
LINE
  8
CSLAYER1
  6
CONTINUOUS
 62
     7
 10
1363.461428
 20
624.750000
 11
1365.561428
 21
623.537565
  0
LINE
  8
CSLAYER1
  6
CONTINUOUS
 62
     7
 10
1365.561428
 20
623.537565
 11
1365.561428
 21
613.500000
  0
LINE
  8
CSLAYER1
  6
CONTINUOUS
 62
     7
 10
1336.461428
 20
624.750000
 11
1334.361428
 21
623.537565
  0
LINE
  8
CSLAYER1
  6
CONTINUOUS
 62
     7
 10
1334.361428
 20
623.537565
 11
1334.361428
 21
613.500000
  0
LINE
  8
CSLAYER1
  6
CONTINUOUS
 62
     7
 10
1363.461428
 20
624.750000
 11
1336.461428
 21
624.750000
  0
LINE
  8
CSLAYER1
  6
CONTINUOUS
 62
     7
 10
1365.561428
 20
613.500000
 11
1334.361428
 21
613.500000
  0
ARC
  8
CSLAYER1
  6
CONTINUOUS
 62
     7
 10
1362.261428
 20
619.652822
 40
5.097178
 50
49.652860
 51
130.347140
  0
ARC
  8
CSLAYER1
  6
CONTINUOUS
 62
     7
 10
1349.961428
 20
590.739946
 40
34.010055
 50
74.655173
 51
105.344827
  0
ARC
  8
CSLAYER1
  6
CONTINUOUS
 62
     7
 10
1337.661428
 20
619.652822
 40
5.097178
 50
49.652860
 51
130.347140
  0
LINE
  8
CSLAYER1
  6
CONTINUOUS
 62
     7
 10
1358.961428
 20
623.537565
 11
1358.961428
 21
613.500000
  0
LINE
  8
CSLAYER1
  6
CONTINUOUS
 62
     7
 10
1340.961428
 20
623.537565
 11
1340.961428
 21
613.500000
  0
LINE
  8
CSLAYER1
  6
CONTINUOUS
 62
     7
 10
1358.961428
 20
540.000000
 11
1357.461428
 21
538.500000
  0
LINE
  8
CSLAYER1
  6
CONTINUOUS
 62
     7
 10
1342.461428
 20
538.500000
 11
1340.961428
 21
540.000000
  0
LINE
  8
CSLAYER1
  6
CONTINUOUS
 62
     7
 10
1342.086428
 20
538.875000
 11
1342.086428
 21
545.250000
  0
LINE
  8
CSLAYER1
  6
CONTINUOUS
 62
     7
 10
1358.961428
 20
540.000000
 11
1340.961428
 21
540.000000
  0
LINE
  8
CSLAYER1
  6
CONTINUOUS
 62
     7
 10
1365.561428
 20
559.500000
 11
1334.361428
 21
559.500000
  0
LINE
  8
CSLAYER1
  6
CONTINUOUS
 62
     7
 10
1363.461428
 20
545.250000
 11
1336.461428
 21
545.250000
  0
LINE
  8
CSLAYER1
  6
CONTINUOUS
 62
     7
 10
1363.461428
 20
545.250000
 11
1365.561428
 21
546.462436
  0
LINE
  8
CSLAYER1
  6
CONTINUOUS
 62
     7
 10
1336.461428
 20
545.250000
 11
1334.361428
 21
546.462436
  0
LINE
  8
CSLAYER1
  6
CONTINUOUS
 62
     7
 10
1365.561428
 20
559.500000
 11
1365.561428
 21
546.462436
  0
LINE
  8
CSLAYER1
  6
CONTINUOUS
 62
     7
 10
1334.361428
 20
559.500000
 11
1334.361428
 21
546.462436
  0
ARC
  8
CSLAYER1
  6
CONTINUOUS
 62
     7
 10
1362.261428
 20
550.347178
 40
5.097178
 50
229.652860
 51
310.347140
  0
ARC
  8
CSLAYER1
  6
CONTINUOUS
 62
     7
 10
1349.961428
 20
579.260055
 40
34.010055
 50
254.655173
 51
285.344827
  0
ARC
  8
CSLAYER1
  6
CONTINUOUS
 62
     7
 10
1337.661428
 20
550.347178
 40
5.097178
 50
229.652860
 51
310.347140
  0
LINE
  8
CSLAYER1
  6
CONTINUOUS
 62
     7
 10
1358.961428
 20
559.500000
 11
1358.961428
 21
546.462436
  0
LINE
  8
CSLAYER1
  6
CONTINUOUS
 62
     7
 10
1340.961428
 20
559.500000
 11
1340.961428
 21
546.462436
  0
LINE
  8
CSLAYER1
  6
CONTINUOUS
 62
     7
 10
1358.961428
 20
545.250000
 11
1358.961428
 21
540.000000
  0
LINE
  8
CSLAYER1
  6
CONTINUOUS
 62
     7
 10
1357.836428
 20
545.250000
 11
1357.836428
 21
538.875000
  0
LINE
  8
CSLAYER1
  6
CENTER
 62
     2
 10
1349.961428
 20
632.250000
 11
1349.961428
 21
531.000000
  0
LINE
  8
CSLAYER1
  6
CONTINUOUS
 62
     7
 10
1382.332825
 20
538.500000
 11
1367.332825
 21
538.500000
  0
LINE
  8
CSLAYER1
  6
CONTINUOUS
 62
     7
 10
1365.832825
 20
540.000000
 11
1365.832825
 21
545.250000
  0
LINE
  8
CSLAYER1
  6
CONTINUOUS
 62
     7
 10
1388.332825
 20
624.750000
 11
1390.432825
 21
623.537565
  0
LINE
  8
CSLAYER1
  6
CONTINUOUS
 62
     7
 10
1390.432825
 20
623.537565
 11
1390.432825
 21
613.500000
  0
LINE
  8
CSLAYER1
  6
CONTINUOUS
 62
     7
 10
1388.332825
 20
624.750000
 11
1361.332825
 21
624.750000
  0
LINE
  8
CSLAYER1
  6
CONTINUOUS
 62
     7
 10
1390.432825
 20
613.500000
 11
1359.232825
 21
613.500000
  0
ARC
  8
CSLAYER1
  6
CONTINUOUS
 62
     7
 10
1387.132825
 20
619.652822
 40
5.097178
 50
49.652860
 51
130.347140
  0
ARC
  8
CSLAYER1
  6
CONTINUOUS
 62
     7
 10
1374.832825
 20
590.739946
 40
34.010055
 50
74.655173
 51
105.344827
  0
ARC
  8
CSLAYER1
  6
CONTINUOUS
 62
     7
 10
1362.532825
 20
619.652822
 40
5.097178
 50
49.652860
 51
76.840434
  0
LINE
  8
CSLAYER1
  6
CONTINUOUS
 62
     7
 10
1383.832825
 20
623.537565
 11
1383.832825
 21
613.500000
  0
LINE
  8
CSLAYER1
  6
CONTINUOUS
 62
     7
 10
1365.832825
 20
623.537565
 11
1365.832825
 21
613.500000
  0
LINE
  8
CSLAYER1
  6
CONTINUOUS
 62
     7
 10
1383.832825
 20
540.000000
 11
1382.332825
 21
538.500000
  0
LINE
  8
CSLAYER1
  6
CONTINUOUS
 62
     7
 10
1367.332825
 20
538.500000
 11
1365.832825
 21
540.000000
  0
LINE
  8
CSLAYER1
  6
CONTINUOUS
 62
     7
 10
1366.957825
 20
538.875000
 11
1366.957825
 21
545.250000
  0
LINE
  8
CSLAYER1
  6
CONTINUOUS
 62
     7
 10
1383.832825
 20
540.000000
 11
1365.832825
 21
540.000000
  0
LINE
  8
CSLAYER1
  6
CONTINUOUS
 62
     7
 10
1390.432825
 20
559.500000
 11
1359.232825
 21
559.500000
  0
LINE
  8
CSLAYER1
  6
CONTINUOUS
 62
     7
 10
1388.332825
 20
545.250000
 11
1361.332825
 21
545.250000
  0
LINE
  8
CSLAYER1
  6
CONTINUOUS
 62
     7
 10
1388.332825
 20
545.250000
 11
1390.432825
 21
546.462436
  0
LINE
  8
CSLAYER1
  6
CONTINUOUS
 62
     7
 10
1390.432825
 20
559.500000
 11
1390.432825
 21
546.462436
  0
ARC
  8
CSLAYER1
  6
CONTINUOUS
 62
     7
 10
1387.132825
 20
550.347178
 40
5.097178
 50
229.652860
 51
310.347140
  0
ARC
  8
CSLAYER1
  6
CONTINUOUS
 62
     7
 10
1374.832825
 20
579.260055
 40
34.010055
 50
254.655173
 51
285.344827
  0
ARC
  8
CSLAYER1
  6
CONTINUOUS
 62
     7
 10
1362.532825
 20
550.347178
 40
5.097178
 50
283.159566
 51
310.347140
  0
LINE
  8
CSLAYER1
  6
CONTINUOUS
 62
     7
 10
1383.832825
 20
559.500000
 11
1383.832825
 21
546.462436
  0
LINE
  8
CSLAYER1
  6
CONTINUOUS
 62
     7
 10
1365.832825
 20
559.500000
 11
1365.832825
 21
546.462436
  0
LINE
  8
CSLAYER1
  6
CONTINUOUS
 62
     7
 10
1383.832825
 20
545.250000
 11
1383.832825
 21
540.000000
  0
LINE
  8
CSLAYER1
  6
CONTINUOUS
 62
     7
 10
1382.707825
 20
545.250000
 11
1382.707825
 21
538.875000
  0
LINE
  8
CSLAYER1
  6
CENTER
 62
     2
 10
1374.832825
 20
632.250000
 11
1374.832825
 21
531.000000
  0
LINE
  8
CSLAYER1
  6
CONTINUOUS
 62
     7
 10
234.899989
 20
396.041669
 11
234.899989
 21
494.115744
  0
LINE
  8
CSLAYER1
  6
CONTINUOUS
 62
     7
 10
241.566656
 20
396.041669
 11
241.566656
 21
456.782410
  0
LINE
  8
CSLAYER1
  6
CONTINUOUS
 62
     7
 10
234.899989
 20
494.115744
 11
246.566656
 21
456.782410
  0
LINE
  8
CSLAYER1
  6
CONTINUOUS
 62
     7
 10
241.566656
 20
456.782410
 11
246.566656
 21
456.782410
  0
LINE
  8
CSLAYER1
  6
CONTINUOUS
 62
     7
 10
264.816639
 20
389.375003
 11
268.566640
 21
389.375003
  0
LINE
  8
CSLAYER1
  6
CONTINUOUS
 62
     7
 10
264.816639
 20
419.375010
 11
268.566640
 21
419.375010
  0
LINE
  8
CSLAYER1
  6
CONTINUOUS
 62
     7
 10
264.816639
 20
419.375010
 11
264.816639
 21
389.375003
  0
LINE
  8
CSLAYER1
  6
CONTINUOUS
 62
     7
 10
268.566640
 20
419.375010
 11
268.566640
 21
389.375003
  0
LINE
  8
CSLAYER1
  6
CONTINUOUS
 62
     7
 10
273.066641
 20
414.375009
 11
273.066641
 21
408.615055
  0
LINE
  8
CSLAYER1
  6
CONTINUOUS
 62
     7
 10
290.566646
 20
414.375009
 11
290.566646
 21
412.500009
  0
LINE
  8
CSLAYER1
  6
CONTINUOUS
 62
     7
 10
276.816642
 20
413.125009
 11
276.816642
 21
409.574214
  0
LINE
  8
CSLAYER1
  6
CONTINUOUS
 62
     7
 10
295.066647
 20
419.375010
 11
295.066647
 21
389.375003
  0
LINE
  8
CSLAYER1
  6
CONTINUOUS
 62
     7
 10
298.816648
 20
419.375010
 11
298.816648
 21
406.250007
  0
LINE
  8
CSLAYER1
  6
CONTINUOUS
 62
     7
 10
308.816650
 20
419.375010
 11
308.816650
 21
406.250007
  0
LINE
  8
CSLAYER1
  6
CONTINUOUS
 62
     7
 10
312.566651
 20
419.375010
 11
312.566651
 21
389.375003
  0
LINE
  8
CSLAYER1
  6
CONTINUOUS
 62
     7
 10
298.816648
 20
406.250007
 11
308.816650
 21
406.250007
  0
LINE
  8
CSLAYER1
  6
CONTINUOUS
 62
     7
 10
298.816648
 20
402.500006
 11
308.816650
 21
402.500006
  0
LINE
  8
CSLAYER1
  6
CONTINUOUS
 62
     7
 10
317.066652
 20
419.375010
 11
317.066652
 21
389.375003
  0
LINE
  8
CSLAYER1
  6
CONTINUOUS
 62
     7
 10
320.816653
 20
419.375010
 11
320.816653
 21
389.375003
  0
LINE
  8
CSLAYER1
  6
CONTINUOUS
 62
     7
 10
325.316655
 20
419.375010
 11
325.316655
 21
415.625009
  0
LINE
  8
CSLAYER1
  6
CONTINUOUS
 62
     7
 10
342.816659
 20
419.375010
 11
342.816659
 21
415.000009
  0
LINE
  8
CSLAYER1
  6
CONTINUOUS
 62
     7
 10
325.316655
 20
415.625009
 11
338.184305
 21
415.625009
  0
LINE
  8
CSLAYER1
  6
CONTINUOUS
 62
     7
 10
329.949009
 20
393.125004
 11
342.816659
 21
393.125004
  0
LINE
  8
CSLAYER1
  6
CONTINUOUS
 62
     7
 10
338.184305
 20
415.625009
 11
325.316655
 21
393.750004
  0
LINE
  8
CSLAYER1
  6
CONTINUOUS
 62
     7
 10
329.949009
 20
393.125004
 11
342.816659
 21
415.000009
  0
LINE
  8
CSLAYER1
  6
CONTINUOUS
 62
     7
 10
342.816659
 20
393.125004
 11
342.816659
 21
389.375003
  0
LINE
  8
CSLAYER1
  6
CONTINUOUS
 62
     7
 10
325.316655
 20
393.750004
 11
325.316655
 21
389.375003
  0
LINE
  8
CSLAYER1
  6
CONTINUOUS
 62
     7
 10
354.229705
 20
419.375010
 11
346.403616
 21
389.375003
  0
LINE
  8
CSLAYER1
  6
CONTINUOUS
 62
     7
 10
358.903619
 20
419.375010
 11
366.729708
 21
389.375003
  0
LINE
  8
CSLAYER1
  6
CONTINUOUS
 62
     7
 10
356.566662
 20
413.477262
 11
360.408555
 21
398.750005
  0
LINE
  8
CSLAYER1
  6
CONTINUOUS
 62
     7
 10
356.566662
 20
413.477262
 11
352.724769
 21
398.750005
  0
LINE
  8
CSLAYER1
  6
CONTINUOUS
 62
     7
 10
351.746508
 20
395.000004
 11
361.386816
 21
395.000004
  0
LINE
  8
CSLAYER1
  6
CONTINUOUS
 62
     7
 10
352.724769
 20
398.750005
 11
360.408555
 21
398.750005
  0
LINE
  8
CSLAYER1
  6
CONTINUOUS
 62
     7
 10
351.746508
 20
395.000004
 11
350.279117
 21
389.375003
  0
LINE
  8
CSLAYER1
  6
CONTINUOUS
 62
     7
 10
361.386816
 20
395.000004
 11
362.854208
 21
389.375003
  0
LINE
  8
CSLAYER1
  6
CONTINUOUS
 62
     7
 10
370.316666
 20
419.375010
 11
370.316666
 21
389.375003
  0
LINE
  8
CSLAYER1
  6
CONTINUOUS
 62
     7
 10
374.066667
 20
419.375010
 11
374.066667
 21
408.750008
  0
LINE
  8
CSLAYER1
  6
CONTINUOUS
 62
     7
 10
383.363544
 20
419.375010
 11
374.066667
 21
408.750008
  0
LINE
  8
CSLAYER1
  6
CONTINUOUS
 62
     7
 10
388.346426
 20
419.375010
 11
380.909984
 21
410.876219
  0
LINE
  8
CSLAYER1
  6
CONTINUOUS
 62
     7
 10
380.909984
 20
410.876219
 11
388.023445
 21
389.375003
  0
LINE
  8
CSLAYER1
  6
CONTINUOUS
 62
     7
 10
378.043796
 20
407.600576
 11
384.073544
 21
389.375003
  0
LINE
  8
CSLAYER1
  6
CONTINUOUS
 62
     7
 10
374.066667
 20
403.055285
 11
374.066667
 21
389.375003
  0
LINE
  8
CSLAYER1
  6
CONTINUOUS
 62
     7
 10
378.043796
 20
407.600576
 11
374.066667
 21
403.055285
  0
LINE
  8
CSLAYER1
  6
CONTINUOUS
 62
     7
 10
392.316671
 20
419.375010
 11
392.316671
 21
389.375003
  0
LINE
  8
CSLAYER1
  6
CONTINUOUS
 62
     7
 10
396.066672
 20
419.375010
 11
396.066672
 21
389.375003
  0
LINE
  8
CSLAYER1
  6
CONTINUOUS
 62
     7
 10
279.316643
 20
415.625009
 11
284.316644
 21
415.625009
  0
LINE
  8
CSLAYER1
  6
CONTINUOUS
 62
     7
 10
279.316643
 20
393.125004
 11
284.316644
 21
393.125004
  0
LINE
  8
CSLAYER1
  6
CONTINUOUS
 62
     7
 10
286.816645
 20
412.500009
 11
290.566646
 21
412.500009
  0
LINE
  8
CSLAYER1
  6
CONTINUOUS
 62
     7
 10
273.066641
 20
396.250004
 11
276.816642
 21
396.250004
  0
LINE
  8
CSLAYER1
  6
CONTINUOUS
 62
     7
 10
273.066641
 20
396.250004
 11
273.066641
 21
394.375004
  0
LINE
  8
CSLAYER1
  6
CONTINUOUS
 62
     7
 10
286.816645
 20
399.175799
 11
286.816645
 21
395.625004
  0
LINE
  8
CSLAYER1
  6
CONTINUOUS
 62
     7
 10
278.669595
 20
407.159399
 11
286.860740
 21
404.964588
  0
LINE
  8
CSLAYER1
  6
CONTINUOUS
 62
     7
 10
276.772547
 20
403.785425
 11
284.963692
 21
401.590614
  0
ARC
  8
CSLAYER1
  6
CONTINUOUS
 62
     7
 10
279.316643
 20
413.125009
 40
2.500001
 50
90.000000
 51
180.000000
  0
ARC
  8
CSLAYER1
  6
CONTINUOUS
 62
     7
 10
284.316644
 20
413.125009
 40
2.500001
 50
0.000000
 51
90.000000
  0
ARC
  8
CSLAYER1
  6
CONTINUOUS
 62
     7
 10
279.316643
 20
409.574214
 40
2.500001
 50
180.000000
 51
255.000000
  0
ARC
  8
CSLAYER1
  6
CONTINUOUS
 62
     7
 10
284.316644
 20
399.175799
 40
2.500001
 50
0.000000
 51
75.000000
  0
ARC
  8
CSLAYER1
  6
CONTINUOUS
 62
     7
 10
284.316644
 20
395.625004
 40
2.500001
 50
270.000000
 51
360.000000
  0
ARC
  8
CSLAYER1
  6
CONTINUOUS
 62
     7
 10
279.316643
 20
395.625004
 40
2.500001
 50
180.000000
 51
270.000000
  0
LINE
  8
CSLAYER1
  6
CONTINUOUS
 62
     7
 10
278.066643
 20
419.375010
 11
285.566645
 21
419.375010
  0
LINE
  8
CSLAYER1
  6
CONTINUOUS
 62
     7
 10
278.066643
 20
389.375003
 11
285.566645
 21
389.375003
  0
LINE
  8
CSLAYER1
  6
CONTINUOUS
 62
     7
 10
295.066647
 20
419.375010
 11
298.816648
 21
419.375010
  0
LINE
  8
CSLAYER1
  6
CONTINUOUS
 62
     7
 10
295.066647
 20
389.375003
 11
298.816648
 21
389.375003
  0
LINE
  8
CSLAYER1
  6
CONTINUOUS
 62
     7
 10
317.066652
 20
389.375003
 11
320.816653
 21
389.375003
  0
LINE
  8
CSLAYER1
  6
CONTINUOUS
 62
     7
 10
317.066652
 20
419.375010
 11
320.816653
 21
419.375010
  0
LINE
  8
CSLAYER1
  6
CONTINUOUS
 62
     7
 10
308.816650
 20
419.375010
 11
312.566651
 21
419.375010
  0
LINE
  8
CSLAYER1
  6
CONTINUOUS
 62
     7
 10
308.816650
 20
389.375003
 11
312.566651
 21
389.375003
  0
LINE
  8
CSLAYER1
  6
CONTINUOUS
 62
     7
 10
325.316655
 20
419.375010
 11
342.816659
 21
419.375010
  0
LINE
  8
CSLAYER1
  6
CONTINUOUS
 62
     7
 10
325.316655
 20
389.375003
 11
342.816659
 21
389.375003
  0
LINE
  8
CSLAYER1
  6
CONTINUOUS
 62
     7
 10
354.066662
 20
419.375010
 11
359.066663
 21
419.375010
  0
LINE
  8
CSLAYER1
  6
CONTINUOUS
 62
     7
 10
346.403616
 20
389.375003
 11
350.279117
 21
389.375003
  0
LINE
  8
CSLAYER1
  6
CONTINUOUS
 62
     7
 10
362.854208
 20
389.375003
 11
366.729708
 21
389.375003
  0
LINE
  8
CSLAYER1
  6
CONTINUOUS
 62
     7
 10
370.316666
 20
389.375003
 11
374.066667
 21
389.375003
  0
LINE
  8
CSLAYER1
  6
CONTINUOUS
 62
     7
 10
384.073544
 20
389.375003
 11
388.023445
 21
389.375003
  0
LINE
  8
CSLAYER1
  6
CONTINUOUS
 62
     7
 10
392.316671
 20
389.375003
 11
396.066672
 21
389.375003
  0
LINE
  8
CSLAYER1
  6
CONTINUOUS
 62
     7
 10
392.316671
 20
419.375010
 11
396.066672
 21
419.375010
  0
LINE
  8
CSLAYER1
  6
CONTINUOUS
 62
     7
 10
383.363544
 20
419.375010
 11
388.346426
 21
419.375010
  0
LINE
  8
CSLAYER1
  6
CONTINUOUS
 62
     7
 10
370.316666
 20
419.375010
 11
374.066667
 21
419.375010
  0
ARC
  8
CSLAYER1
  6
CONTINUOUS
 62
     7
 10
278.066643
 20
414.375009
 40
5.000001
 50
90.000000
 51
180.000000
  0
ARC
  8
CSLAYER1
  6
CONTINUOUS
 62
     7
 10
285.566645
 20
414.375009
 40
5.000001
 50
0.000000
 51
90.000000
  0
ARC
  8
CSLAYER1
  6
CONTINUOUS
 62
     7
 10
278.066643
 20
408.615055
 40
5.000001
 50
180.000000
 51
255.000000
  0
ARC
  8
CSLAYER1
  6
CONTINUOUS
 62
     7
 10
285.566645
 20
400.134958
 40
5.000001
 50
0.000000
 51
75.000000
  0
ARC
  8
CSLAYER1
  6
CONTINUOUS
 62
     7
 10
285.566645
 20
394.375004
 40
5.000001
 50
270.000000
 51
360.000000
  0
ARC
  8
CSLAYER1
  6
CONTINUOUS
 62
     7
 10
278.066643
 20
394.375004
 40
5.000001
 50
180.000000
 51
270.000000
  0
LINE
  8
CSLAYER1
  6
CONTINUOUS
 62
     7
 10
298.816648
 20
402.500006
 11
298.816648
 21
389.375003
  0
LINE
  8
CSLAYER1
  6
CONTINUOUS
 62
     7
 10
308.816650
 20
402.500006
 11
308.816650
 21
389.375003
  0
LINE
  8
CSLAYER1
  6
CONTINUOUS
 62
     7
 10
290.566646
 20
400.134958
 11
290.566646
 21
394.375004
  0
LINE
  8
CSLAYER1
  6
CONTINUOUS
 62
     7
 10
286.816645
 20
412.500009
 11
286.816645
 21
413.125009
  0
LINE
  8
CSLAYER1
  6
CONTINUOUS
 62
     7
 10
276.816642
 20
395.625004
 11
276.816642
 21
396.250004
  0
LINE
  8
CSLAYER1
  6
CONTINUOUS
 62
     7
 10
276.934559
 20
429.375003
 11
280.684559
 21
429.375003
  0
LINE
  8
CSLAYER1
  6
CONTINUOUS
 62
     7
 10
276.934559
 20
459.375000
 11
280.684559
 21
459.375000
  0
LINE
  8
CSLAYER1
  6
CONTINUOUS
 62
     7
 10
276.934559
 20
454.157609
 11
276.934559
 21
429.375003
  0
LINE
  8
CSLAYER1
  6
CONTINUOUS
 62
     7
 10
307.184565
 20
459.375000
 11
307.184565
 21
439.809785
  0
LINE
  8
CSLAYER1
  6
CONTINUOUS
 62
     7
 10
309.793261
 20
459.375000
 11
309.793261
 21
452.853262
  0
LINE
  8
CSLAYER1
  6
CONTINUOUS
 62
     7
 10
322.836738
 20
459.375000
 11
322.836738
 21
458.964196
  0
LINE
  8
CSLAYER1
  6
CONTINUOUS
 62
     7
 10
307.184565
 20
439.809785
 11
309.793261
 21
439.809785
  0
LINE
  8
CSLAYER1
  6
CONTINUOUS
 62
     7
 10
291.661830
 20
459.375000
 11
296.207294
 21
459.375000
  0
LINE
  8
CSLAYER1
  6
CONTINUOUS
 62
     7
 10
307.184565
 20
459.375000
 11
309.793261
 21
459.375000
  0
LINE
  8
CSLAYER1
  6
CONTINUOUS
 62
     7
 10
307.184565
 20
431.983698
 11
322.836738
 21
431.983698
  0
LINE
  8
CSLAYER1
  6
CONTINUOUS
 62
     7
 10
307.184565
 20
434.592394
 11
322.836738
 21
434.592394
  0
LINE
  8
CSLAYER1
  6
CONTINUOUS
 62
     7
 10
307.184565
 20
434.592394
 11
307.184565
 21
431.983698
  0
LINE
  8
CSLAYER1
  6
CONTINUOUS
 62
     7
 10
322.836738
 20
434.592394
 11
322.836738
 21
431.983698
  0
LINE
  8
CSLAYER1
  6
CONTINUOUS
 62
     7
 10
318.923695
 20
459.375000
 11
309.793261
 21
452.853262
  0
LINE
  8
CSLAYER1
  6
CONTINUOUS
 62
     7
 10
322.836738
 20
458.964196
 11
314.281430
 21
452.853262
  0
LINE
  8
CSLAYER1
  6
CONTINUOUS
 62
     7
 10
314.281430
 20
452.853262
 11
322.836738
 21
439.809785
  0
LINE
  8
CSLAYER1
  6
CONTINUOUS
 62
     7
 10
312.156971
 20
451.335791
 11
319.716959
 21
439.809785
  0
LINE
  8
CSLAYER1
  6
CONTINUOUS
 62
     7
 10
318.923695
 20
459.375000
 11
322.836738
 21
459.375000
  0
LINE
  8
CSLAYER1
  6
CONTINUOUS
 62
     7
 10
319.716959
 20
439.809785
 11
322.836738
 21
439.809785
  0
LINE
  8
CSLAYER1
  6
CONTINUOUS
 62
     7
 10
309.793261
 20
449.647426
 11
309.793261
 21
439.809785
  0
LINE
  8
CSLAYER1
  6
CONTINUOUS
 62
     7
 10
312.156971
 20
451.335791
 11
309.793261
 21
449.647426
  0
LINE
  8
CSLAYER1
  6
CONTINUOUS
 62
     7
 10
275.630211
 20
454.157609
 11
276.934559
 21
454.157609
  0
LINE
  8
CSLAYER1
  6
CONTINUOUS
 62
     7
 10
276.934559
 20
459.375000
 11
275.630211
 21
454.157609
  0
LINE
  8
CSLAYER1
  6
CONTINUOUS
 62
     7
 10
285.184558
 20
452.853262
 11
285.184558
 21
435.896741
  0
LINE
  8
CSLAYER1
  6
CONTINUOUS
 62
     7
 10
288.934558
 20
452.897728
 11
288.934558
 21
435.896741
  0
LINE
  8
CSLAYER1
  6
CONTINUOUS
 62
     7
 10
291.661830
 20
455.625001
 11
296.207294
 21
455.625001
  0
ARC
  8
CSLAYER1
  6
CONTINUOUS
 62
     7
 10
291.661830
 20
452.897728
 40
2.727273
 50
90.000000
 51
180.000000
  0
ARC
  8
CSLAYER1
  6
CONTINUOUS
 62
     7
 10
291.661830
 20
452.897728
 40
6.477272
 50
90.000000
 51
180.000000
  0
ARC
  8
CSLAYER1
  6
CONTINUOUS
 62
     7
 10
291.661830
 20
435.852275
 40
2.727273
 50
180.000000
 51
270.000000
  0
ARC
  8
CSLAYER1
  6
CONTINUOUS
 62
     7
 10
291.661830
 20
435.852275
 40
6.477272
 50
180.000000
 51
270.000000
  0
LINE
  8
CSLAYER1
  6
CONTINUOUS
 62
     7
 10
302.684566
 20
452.853262
 11
302.684566
 21
435.896741
  0
LINE
  8
CSLAYER1
  6
CONTINUOUS
 62
     7
 10
298.934566
 20
452.897728
 11
298.934566
 21
435.896741
  0
ARC
  8
CSLAYER1
  6
CONTINUOUS
 62
     7
 10
296.207294
 20
452.897728
 40
2.727273
 50
0.000000
 51
90.000000
  0
ARC
  8
CSLAYER1
  6
CONTINUOUS
 62
     7
 10
296.207294
 20
452.897728
 40
6.477272
 50
0.000000
 51
90.000000
  0
ARC
  8
CSLAYER1
  6
CONTINUOUS
 62
     7
 10
296.207294
 20
435.852275
 40
2.727273
 50
270.000000
 51
360.000000
  0
ARC
  8
CSLAYER1
  6
CONTINUOUS
 62
     7
 10
296.207294
 20
435.852275
 40
6.477272
 50
270.000000
 51
360.000000
  0
LINE
  8
CSLAYER1
  6
CONTINUOUS
 62
     7
 10
291.661830
 20
433.125002
 11
296.207294
 21
433.125002
  0
LINE
  8
CSLAYER1
  6
CONTINUOUS
 62
     7
 10
291.661830
 20
429.375003
 11
296.207294
 21
429.375003
  0
LINE
  8
CSLAYER1
  6
CONTINUOUS
 62
     7
 10
280.684559
 20
459.375000
 11
280.684559
 21
429.375003
  0
LINE
  8
CSLAYER1
  6
CONTINUOUS
 62
     7
 10
329.229699
 20
499.375010
 11
321.403610
 21
469.375003
  0
LINE
  8
CSLAYER1
  6
CONTINUOUS
 62
     7
 10
333.903613
 20
499.375010
 11
341.729702
 21
469.375003
  0
LINE
  8
CSLAYER1
  6
CONTINUOUS
 62
     7
 10
331.566656
 20
493.477262
 11
335.408549
 21
478.750005
  0
LINE
  8
CSLAYER1
  6
CONTINUOUS
 62
     7
 10
331.566656
 20
493.477262
 11
327.724763
 21
478.750005
  0
LINE
  8
CSLAYER1
  6
CONTINUOUS
 62
     7
 10
326.746502
 20
475.000004
 11
336.386810
 21
475.000004
  0
LINE
  8
CSLAYER1
  6
CONTINUOUS
 62
     7
 10
327.724763
 20
478.750005
 11
335.408549
 21
478.750005
  0
LINE
  8
CSLAYER1
  6
CONTINUOUS
 62
     7
 10
326.746502
 20
475.000004
 11
325.279110
 21
469.375003
  0
LINE
  8
CSLAYER1
  6
CONTINUOUS
 62
     7
 10
336.386810
 20
475.000004
 11
337.854202
 21
469.375003
  0
LINE
  8
CSLAYER1
  6
CONTINUOUS
 62
     7
 10
329.066655
 20
499.375010
 11
334.066657
 21
499.375010
  0
LINE
  8
CSLAYER1
  6
CONTINUOUS
 62
     7
 10
321.403610
 20
469.375003
 11
325.279110
 21
469.375003
  0
LINE
  8
CSLAYER1
  6
CONTINUOUS
 62
     7
 10
337.854202
 20
469.375003
 11
341.729702
 21
469.375003
  0
LINE
  8
CSLAYER1
  6
CONTINUOUS
 62
     7
 10
299.403606
 20
499.375010
 11
299.403606
 21
469.375003
  0
LINE
  8
CSLAYER1
  6
CONTINUOUS
 62
     7
 10
316.903610
 20
494.375009
 11
316.903610
 21
492.500009
  0
LINE
  8
CSLAYER1
  6
CONTINUOUS
 62
     7
 10
303.153607
 20
486.250003
 11
303.153607
 21
495.625009
  0
LINE
  8
CSLAYER1
  6
CONTINUOUS
 62
     7
 10
303.153607
 20
495.625009
 11
310.653609
 21
495.625009
  0
ARC
  8
CSLAYER1
  6
CONTINUOUS
 62
     7
 10
310.653609
 20
493.125009
 40
2.500001
 50
0.000000
 51
90.000000
  0
LINE
  8
CSLAYER1
  6
CONTINUOUS
 62
     7
 10
299.403606
 20
499.375010
 11
311.903609
 21
499.375010
  0
ARC
  8
CSLAYER1
  6
CONTINUOUS
 62
     7
 10
311.903609
 20
494.375009
 40
5.000001
 50
0.000000
 51
90.000000
  0
LINE
  8
CSLAYER1
  6
CONTINUOUS
 62
     7
 10
313.153609
 20
492.500009
 11
313.153609
 21
493.125009
  0
LINE
  8
CSLAYER1
  6
CONTINUOUS
 62
     7
 10
299.403606
 20
469.375003
 11
303.153607
 21
469.375003
  0
LINE
  8
CSLAYER1
  6
CONTINUOUS
 62
     7
 10
313.153609
 20
492.500009
 11
313.153609
 21
488.750003
  0
LINE
  8
CSLAYER1
  6
CONTINUOUS
 62
     7
 10
316.903610
 20
492.500009
 11
316.903610
 21
487.500003
  0
ARC
  8
CSLAYER1
  6
CONTINUOUS
 62
     7
 10
310.653609
 20
488.750003
 40
2.500001
 50
270.000000
 51
360.000000
  0
ARC
  8
CSLAYER1
  6
CONTINUOUS
 62
     7
 10
311.903609
 20
487.500003
 40
5.000001
 50
270.000000
 51
360.000000
  0
LINE
  8
CSLAYER1
  6
CONTINUOUS
 62
     7
 10
310.653609
 20
486.250003
 11
303.153607
 21
486.250003
  0
LINE
  8
CSLAYER1
  6
CONTINUOUS
 62
     7
 10
311.903609
 20
482.500002
 11
303.153607
 21
482.500002
  0
LINE
  8
CSLAYER1
  6
CONTINUOUS
 62
     7
 10
303.153607
 20
482.500002
 11
303.153607
 21
469.375003
  0
LINE
  8
CSLAYER1
  6
CONTINUOUS
 62
     7
 10
346.229702
 20
499.375010
 11
346.229702
 21
495.625009
  0
LINE
  8
CSLAYER1
  6
CONTINUOUS
 62
     7
 10
363.729706
 20
499.375010
 11
363.729706
 21
495.625009
  0
LINE
  8
CSLAYER1
  6
CONTINUOUS
 62
     7
 10
346.229702
 20
499.375010
 11
363.729706
 21
499.375010
  0
LINE
  8
CSLAYER1
  6
CONTINUOUS
 62
     7
 10
353.104706
 20
495.625009
 11
353.104706
 21
469.375003
  0
LINE
  8
CSLAYER1
  6
CONTINUOUS
 62
     7
 10
356.854707
 20
495.625009
 11
356.854707
 21
469.375003
  0
LINE
  8
CSLAYER1
  6
CONTINUOUS
 62
     7
 10
353.104706
 20
469.375003
 11
356.854707
 21
469.375003
  0
LINE
  8
CSLAYER1
  6
CONTINUOUS
 62
     7
 10
353.104706
 20
499.375010
 11
356.854707
 21
499.375010
  0
LINE
  8
CSLAYER1
  6
CONTINUOUS
 62
     7
 10
346.229702
 20
495.625009
 11
353.104706
 21
495.625009
  0
LINE
  8
CSLAYER1
  6
CONTINUOUS
 62
     7
 10
356.854707
 20
495.625009
 11
363.729706
 21
495.625009
  0
LINE
  8
CSLAYER1
  6
CONTINUOUS
 62
     7
 10
353.104706
 20
469.375003
 11
356.854707
 21
469.375003
  0
LINE
  8
CSLAYER1
  6
CONTINUOUS
 62
     7
 10
376.479476
 20
459.375000
 11
381.024939
 21
459.375000
  0
LINE
  8
CSLAYER1
  6
CONTINUOUS
 62
     7
 10
370.002204
 20
452.853262
 11
370.002204
 21
435.896741
  0
LINE
  8
CSLAYER1
  6
CONTINUOUS
 62
     7
 10
373.752204
 20
452.897728
 11
373.752204
 21
435.896741
  0
LINE
  8
CSLAYER1
  6
CONTINUOUS
 62
     7
 10
376.479476
 20
455.625001
 11
381.024939
 21
455.625001
  0
ARC
  8
CSLAYER1
  6
CONTINUOUS
 62
     7
 10
376.479476
 20
452.897728
 40
2.727273
 50
90.000000
 51
180.000000
  0
ARC
  8
CSLAYER1
  6
CONTINUOUS
 62
     7
 10
376.479476
 20
452.897728
 40
6.477272
 50
90.000000
 51
180.000000
  0
ARC
  8
CSLAYER1
  6
CONTINUOUS
 62
     7
 10
376.479476
 20
435.852275
 40
2.727273
 50
180.000000
 51
270.000000
  0
ARC
  8
CSLAYER1
  6
CONTINUOUS
 62
     7
 10
376.479476
 20
435.852275
 40
6.477272
 50
180.000000
 51
270.000000
  0
LINE
  8
CSLAYER1
  6
CONTINUOUS
 62
     7
 10
387.502212
 20
452.853262
 11
387.502212
 21
435.896741
  0
LINE
  8
CSLAYER1
  6
CONTINUOUS
 62
     7
 10
383.752212
 20
452.897728
 11
383.752212
 21
435.896741
  0
ARC
  8
CSLAYER1
  6
CONTINUOUS
 62
     7
 10
381.024939
 20
452.897728
 40
2.727273
 50
0.000000
 51
90.000000
  0
ARC
  8
CSLAYER1
  6
CONTINUOUS
 62
     7
 10
381.024939
 20
452.897728
 40
6.477272
 50
0.000000
 51
90.000000
  0
ARC
  8
CSLAYER1
  6
CONTINUOUS
 62
     7
 10
381.024939
 20
435.852275
 40
2.727273
 50
270.000000
 51
360.000000
  0
ARC
  8
CSLAYER1
  6
CONTINUOUS
 62
     7
 10
381.024939
 20
435.852275
 40
6.477272
 50
270.000000
 51
360.000000
  0
LINE
  8
CSLAYER1
  6
CONTINUOUS
 62
     7
 10
376.479476
 20
433.125002
 11
381.024939
 21
433.125002
  0
LINE
  8
CSLAYER1
  6
CONTINUOUS
 62
     7
 10
376.479476
 20
429.375003
 11
381.024939
 21
429.375003
  0
LINE
  8
CSLAYER1
  6
CONTINUOUS
 62
     7
 10
234.899989
 20
396.041669
 11
241.566656
 21
396.041669
  0
LINE
  8
CSLAYER1
  6
CONTINUOUS
 62
     7
 10
336.382926
 20
459.375003
 11
340.049592
 21
459.375003
  0
LINE
  8
CSLAYER1
  6
CONTINUOUS
 62
     7
 10
336.382926
 20
429.375003
 11
340.049592
 21
429.375003
  0
LINE
  8
CSLAYER1
  6
CONTINUOUS
 62
     7
 10
343.716259
 20
440.375003
 11
343.716259
 21
436.708336
  0
LINE
  8
CSLAYER1
  6
CONTINUOUS
 62
     7
 10
330.728850
 20
440.375003
 11
336.382926
 21
440.375003
  0
LINE
  8
CSLAYER1
  6
CONTINUOUS
 62
     7
 10
340.049592
 20
459.375003
 11
340.049592
 21
440.375003
  0
LINE
  8
CSLAYER1
  6
CONTINUOUS
 62
     7
 10
340.049592
 20
440.375003
 11
343.716259
 21
440.375003
  0
LINE
  8
CSLAYER1
  6
CONTINUOUS
 62
     7
 10
336.382926
 20
436.708336
 11
336.382926
 21
429.375003
  0
LINE
  8
CSLAYER1
  6
CONTINUOUS
 62
     7
 10
340.049592
 20
436.708336
 11
340.049592
 21
429.375003
  0
LINE
  8
CSLAYER1
  6
CONTINUOUS
 62
     7
 10
340.049592
 20
436.708336
 11
343.716259
 21
436.708336
  0
LINE
  8
CSLAYER1
  6
CONTINUOUS
 62
     7
 10
326.605139
 20
436.708336
 11
336.382926
 21
436.708336
  0
LINE
  8
CSLAYER1
  6
CONTINUOUS
 62
     7
 10
336.382926
 20
459.375003
 11
326.605139
 21
440.375003
  0
LINE
  8
CSLAYER1
  6
CONTINUOUS
 62
     7
 10
326.605139
 20
440.375003
 11
326.605139
 21
436.708336
  0
LINE
  8
CSLAYER1
  6
CONTINUOUS
 62
     7
 10
336.382926
 20
440.375003
 11
336.382926
 21
451.507096
  0
LINE
  8
CSLAYER1
  6
CONTINUOUS
 62
     7
 10
336.382926
 20
451.361890
 11
330.728850
 21
440.375003
  0
LINE
  8
CSLAYER1
  6
CONTINUOUS
 62
     7
 10
354.479469
 20
459.375000
 11
359.024932
 21
459.375000
  0
LINE
  8
CSLAYER1
  6
CONTINUOUS
 62
     7
 10
348.002196
 20
452.853262
 11
348.002196
 21
435.896741
  0
LINE
  8
CSLAYER1
  6
CONTINUOUS
 62
     7
 10
351.752196
 20
452.897728
 11
351.752196
 21
435.896741
  0
LINE
  8
CSLAYER1
  6
CONTINUOUS
 62
     7
 10
354.479469
 20
455.625001
 11
359.024932
 21
455.625001
  0
ARC
  8
CSLAYER1
  6
CONTINUOUS
 62
     7
 10
354.479469
 20
452.897728
 40
2.727273
 50
90.000000
 51
180.000000
  0
ARC
  8
CSLAYER1
  6
CONTINUOUS
 62
     7
 10
354.479469
 20
452.897728
 40
6.477272
 50
90.000000
 51
180.000000
  0
ARC
  8
CSLAYER1
  6
CONTINUOUS
 62
     7
 10
354.479469
 20
435.852275
 40
2.727273
 50
180.000000
 51
270.000000
  0
ARC
  8
CSLAYER1
  6
CONTINUOUS
 62
     7
 10
354.479469
 20
435.852275
 40
6.477272
 50
180.000000
 51
270.000000
  0
LINE
  8
CSLAYER1
  6
CONTINUOUS
 62
     7
 10
365.502204
 20
452.853262
 11
365.502204
 21
435.896741
  0
LINE
  8
CSLAYER1
  6
CONTINUOUS
 62
     7
 10
361.752204
 20
452.897728
 11
361.752204
 21
435.896741
  0
ARC
  8
CSLAYER1
  6
CONTINUOUS
 62
     7
 10
359.024932
 20
452.897728
 40
2.727273
 50
0.000000
 51
90.000000
  0
ARC
  8
CSLAYER1
  6
CONTINUOUS
 62
     7
 10
359.024932
 20
452.897728
 40
6.477272
 50
0.000000
 51
90.000000
  0
ARC
  8
CSLAYER1
  6
CONTINUOUS
 62
     7
 10
359.024932
 20
435.852275
 40
2.727273
 50
270.000000
 51
360.000000
  0
ARC
  8
CSLAYER1
  6
CONTINUOUS
 62
     7
 10
359.024932
 20
435.852275
 40
6.477272
 50
270.000000
 51
360.000000
  0
LINE
  8
CSLAYER1
  6
CONTINUOUS
 62
     7
 10
354.479469
 20
433.125002
 11
359.024932
 21
433.125002
  0
LINE
  8
CSLAYER1
  6
CONTINUOUS
 62
     7
 10
354.479469
 20
429.375003
 11
359.024932
 21
429.375003
  0
INSERT
  8
CSLAYER1
  2
BLKF0001
 10
0.0
 20
0.0
 30
0.0
  0
INSERT
  8
CSLAYER1
  2
BLKF0002
 10
0.0
 20
0.0
 30
0.0
  0
INSERT
  8
CSLAYER1
  2
BLKF0003
 10
0.0
 20
0.0
 30
0.0
  0
INSERT
  8
CSLAYER1
  2
BLKF0004
 10
0.0
 20
0.0
 30
0.0
  0
TEXT
  8
CSLAYER1
 62
     7
 10
1218.584106
 20
1299.274536
 40
12.000000
 41
0.846774
  1
SMOLENSKY CHECK VALVE
 50
0.000000
 51
0.000000
  7
EASYDRAW_FONT
 72
     5
 11
1428.584106
 21
1299.274536
  0
TEXT
  8
CSLAYER1
 62
     7
 10
1218.750366
 20
1259.274536
 40
12.000000
 41
0.865385
  1
株式会社　イシザキ
 50
0.000000
 51
0.000000
  7
EASYDRAW_FONT
 72
     5
 11
1308.750366
 21
1259.274536
  0
TEXT
  8
CSLAYER1
 62
     7
 10
1218.602417
 20
1279.274536
 40
12.000000
 41
0.859375
  1
SM 10K 400A
 50
0.000000
 51
0.000000
  7
EASYDRAW_FONT
 72
     5
 11
1328.602417
 21
1279.274536
  0
TEXT
  8
CSLAYER1
 62
     7
 10
1362.789429
 20
1239.155640
 40
12.000000
 41
0.882353
  1
縮尺　３／４
 50
0.000000
 51
0.000000
  7
EASYDRAW_FONT
 72
     5
 11
1422.789429
 21
1239.155640
  0
ENDSEC
  0
EOF
