  0
SECTION
  2
HEADER
  9
$ACADVER
  1
AC1006
  9
$INSBASE
 10
0.000000
 20
0.000000
 30
0.0
  9
$EXTMIN
 10
0.000000
 20
0.000000
  9
$EXTMAX
 10
512.499978
 20
446.500000
  9
$LIMMIN
 10
0.000000
 20
0.000000
  9
$LIMMAX
 10
512.499978
 20
446.500000
  9
$VIEWCTR
 10
256.249989
 20
223.250000
  9
$VIEWSIZE
 40
446.500000
  9
$SNAPMODE
 70
     0
  9
$SNAPUNIT
 10
1.0
 20
1.0
  9
$SNAPBASE
 10
0.0
 20
0.0
  9
$SNAPANG
 50
0.0
  9
$SNAPSTYLE
 70
     0
  9
$SNAPISOPAIR
 70
     0
  9
$GRIDMODE
 70
     0
  9
$GRIDUNIT
 10
0.0
 20
0.0
  9
$ORTHOMODE
 70
     0
  9
$REGENMODE
 70
     1
  9
$FILLMODE
 70
     1
  9
$QTEXTMODE
 70
     0
  9
$DRAGMODE
 70
     2
  9
$LTSCALE
 40
15.000000
  9
$OSMODE
 70
     0
  9
$ATTMODE
 70
     1
  9
$TEXTSIZE
 40
0.2
  9
$TRACEWID
 40
0.05
  9
$TEXTSTYLE
  7
STANDARD
  9
$CLAYER
  8
CSLAYER1
  9
$CELTYPE
  6
BYLAYER
  9
$CECOLOR
 62
   256
  9
$DIMSCALE
 40
1.0
  9
$DIMASZ
 40
0.18
  9
$DIMEXO
 40
0.0625
  9
$DIMDLI
 40
0.38
  9
$DIMRND
 40
0.0
  9
$DIMDLE
 40
0.0
  9
$DIMEXE
 40
0.18
  9
$DIMTP
 40
0.0
  9
$DIMTM
 40
0.0
  9
$DIMTXT
 40
0.18
  9
$DIMCEN
 40
0.09
  9
$DIMTSZ
 40
0.0
  9
$DIMTOL
 70
     0
  9
$DIMLIM
 70
     0
  9
$DIMTIH
 70
     1
  9
$DIMTOH
 70
     1
  9
$DIMSE1
 70
     0
  9
$DIMSE2
 70
     0
  9
$DIMTAD
 70
     0
  9
$DIMZIN
 70
     0
  9
$DIMBLK
  1

  9
$LUNITS
 70
     2
  9
$LUPREC
 70
     4
  9
$AXISMODE
 70
     0
  9
$AXISUNIT
 10
0.0
 20
0.0
  9
$SKETCHINC
 40
0.1
  9
$FILLETRAD
 40
0.0
  9
$AUNITS
 70
     0
  9
$AUPREC
 70
     0
  9
$MENU
  1
ACAD
  9
$ELEVATION
 40
0.0
  9
$THICKNESS
 40
0.0
  9
$VIEWDIR
 10
0.0
 20
0.0
 30
1.0
  9
$LIMCHECK
 70
     0
  9
$BLIPMODE
 70
     1
  9
$CHAMFERA
 40
0.0
  9
$CHAMFERB
 40
0.0
  9
$FASTZOOM
 70
     1
  9
$SKPOLY
 70
     0
  9
$TDCREATE
 40
2456637.000000
  9
$TDUPDATE
 40
2456637.000000
  9
$TDINDWG
 40
0.0
  9
$TDUSRTIMER
 40
0.0
  9
$USRTIMER
 70
     1
  9
$ANGBASE
 50
0.0
  9
$ANGDIR
 70
     0
  9
$PDMODE
 70
     0
  9
$PDSIZE
 40
0.0
  9
$PLINEWID
 40
0.0
  9
$COORDS
 70
     0
  9
$USERI1
 70
     0
  9
$USERI2
 70
     0
  9
$USERI3
 70
     0
  9
$USERI4
 70
     0
  9
$USERI5
 70
     0
  9
$USERR1
 40
0.0
  9
$USERR2
 40
0.0
  9
$USERR3
 40
0.0
  9
$USERR4
 40
0.0
  9
$USERR5
 40
0.0
  0
ENDSEC
  0
SECTION
  2
TABLES
  0
TABLE
  2
LTYPE
 70
     9
  0
LTYPE
  2
CONTINUOUS
 70
    64
  3
Solid line
 72
    65
 73
     0
 40
0.0
  0
LTYPE
  2
DASHED
 70
    64
  3
__ __ __ __ __ __ __ __ __ __ __ __ __ __ __
 72
    65
 73
     2
 40
0.75
 49
0.5
 49
-0.25
  0
LTYPE
  2
HIDDEN
 70
    64
  3
_ _ _ _ _ _ _ _ _ _ _ _ _ _ _ _ _ _ _ _ _ _ _
 72
    65
 73
     2
 40
0.375
 49
0.25
 49
-0.125
  0
LTYPE
  2
DOT
 70
    64
  3
...............................................
 72
    65
 73
     2
 40
0.25
 49
0.0
 49
-0.25
  0
LTYPE
  2
DASHDOT
 70
    64
  3
__ . __ . __ . __ . __ . __ . __ . __ . __ . __
 72
    65
 73
     4
 40
1.0
 49
0.5
 49
-0.25
 49
0.0
 49
-0.25
  0
LTYPE
  2
DIVIDE
 70
    64
  3
__ . . __ . . __ . . __ . . __ . . __ . . __
 72
    65
 73
     6
 40
1.25
 49
0.5
 49
-0.25
 49
0.0
 49
-0.25
 49
0.0
 49
-0.25
  0
LTYPE
  2
CENTER
 70
    64
  3
____ _ ____ _ ____ _ ____ _ ____ _ ____ _ ____ 
 72
    65
 73
     4
 40
2.0
 49
1.25
 49
-0.25
 49
0.25
 49
-0.25
  0
LTYPE
  2
PHANTOM
 70
    64
  3
______  __  __  ______  __  __  ______  __  __ 
 72
    65
 73
     6
 40
2.5
 49
1.25
 49
-0.25
 49
0.25
 49
-0.25
 49
0.25
 49
-0.25
  0
LTYPE
  2
BORDER
 70
    64
  3
__ __ . __ __ . __ __ . __ __ . __ __ . __ __ .
 72
    65
 73
     6
 40
1.75
 49
0.5
 49
-0.25
 49
0.5
 49
-0.25
 49
0.0
 49
-0.25
  0
ENDTAB
  0
TABLE
  2
LAYER
 70
    16
  0
LAYER
  2
CSLAYER1
 70
    64
 62
     7
  6
CONTINUOUS
  0
LAYER
  2
CSLAYER2
 70
    64
 62
     7
  6
CONTINUOUS
  0
LAYER
  2
CSLAYER3
 70
    64
 62
     7
  6
CONTINUOUS
  0
LAYER
  2
CSLAYER4
 70
    64
 62
     7
  6
CONTINUOUS
  0
LAYER
  2
CSLAYER5
 70
    64
 62
     7
  6
CONTINUOUS
  0
LAYER
  2
CSLAYER6
 70
    64
 62
     7
  6
CONTINUOUS
  0
LAYER
  2
CSLAYER7
 70
    64
 62
     7
  6
CONTINUOUS
  0
LAYER
  2
CSLAYER8
 70
    64
 62
     7
  6
CONTINUOUS
  0
LAYER
  2
CSLAYER9
 70
    64
 62
     7
  6
CONTINUOUS
  0
LAYER
  2
CSLAYER10
 70
    64
 62
     7
  6
CONTINUOUS
  0
LAYER
  2
CSLAYER11
 70
    64
 62
     7
  6
CONTINUOUS
  0
LAYER
  2
CSLAYER12
 70
    64
 62
     7
  6
CONTINUOUS
  0
LAYER
  2
CSLAYER13
 70
    64
 62
     7
  6
CONTINUOUS
  0
LAYER
  2
CSLAYER14
 70
    64
 62
     7
  6
CONTINUOUS
  0
LAYER
  2
CSLAYER15
 70
    64
 62
     7
  6
CONTINUOUS
  0
LAYER
  2
CSLAYER16
 70
    64
 62
     7
  6
CONTINUOUS
  0
ENDTAB
  0
TABLE
  2
STYLE
 70
     1
  0
STYLE
  2
EASYDRAW_FONT
 70
     0
 40
1.0
 41
1.0
 50
0.0
 71
     0
 42
1.0
  3
monotxt
  4
bigfont
  0
ENDTAB
  0
TABLE
  2
VIEW
 70
     0
  0
ENDTAB
  0
ENDSEC
  0
SECTION
  2
BLOCKS
  0
BLOCK
  8
CSLAYER1
  2
BLKF0000
 70
   64
 10
0.0
 20
0.0
 30
0.0
  0
LINE
  8
CSLAYER1
  6
CONTINUOUS
 62
     7
 10
49.749978
 20
85.250000
 11
60.249978
 21
95.750000
  0
LINE
  8
CSLAYER1
  6
CONTINUOUS
 62
     7
 10
49.749978
 20
86.310660
 11
59.189318
 21
95.750000
  0
LINE
  8
CSLAYER1
  6
CONTINUOUS
 62
     7
 10
49.749978
 20
87.371320
 11
58.128658
 21
95.750000
  0
LINE
  8
CSLAYER1
  6
CONTINUOUS
 62
     7
 10
49.749978
 20
88.431980
 11
57.067998
 21
95.750000
  0
LINE
  8
CSLAYER1
  6
CONTINUOUS
 62
     7
 10
49.749978
 20
89.492640
 11
56.007338
 21
95.750000
  0
LINE
  8
CSLAYER1
  6
CONTINUOUS
 62
     7
 10
49.749978
 20
90.553301
 11
54.946678
 21
95.750000
  0
LINE
  8
CSLAYER1
  6
CONTINUOUS
 62
     7
 10
49.749978
 20
91.613961
 11
53.886017
 21
95.750000
  0
LINE
  8
CSLAYER1
  6
CONTINUOUS
 62
     7
 10
49.749978
 20
92.674621
 11
52.825357
 21
95.750000
  0
LINE
  8
CSLAYER1
  6
CONTINUOUS
 62
     7
 10
49.749978
 20
93.735281
 11
51.764697
 21
95.750000
  0
LINE
  8
CSLAYER1
  6
CONTINUOUS
 62
     7
 10
49.749978
 20
94.795941
 11
50.704037
 21
95.750000
  0
LINE
  8
CSLAYER1
  6
CONTINUOUS
 62
     7
 10
49.763786
 20
84.203147
 11
60.249978
 21
94.689340
  0
LINE
  8
CSLAYER1
  6
CONTINUOUS
 62
     7
 10
49.820578
 20
83.199279
 11
60.249978
 21
93.628679
  0
LINE
  8
CSLAYER1
  6
CONTINUOUS
 62
     7
 10
49.916803
 20
82.234844
 11
60.249978
 21
92.568019
  0
LINE
  8
CSLAYER1
  6
CONTINUOUS
 62
     7
 10
50.048569
 20
81.305950
 11
60.249978
 21
91.507359
  0
LINE
  8
CSLAYER1
  6
CONTINUOUS
 62
     7
 10
50.212743
 20
80.409463
 11
60.249978
 21
90.446699
  0
LINE
  8
CSLAYER1
  6
CONTINUOUS
 62
     7
 10
50.406764
 20
79.542824
 11
60.249978
 21
89.386039
  0
LINE
  8
CSLAYER1
  6
CONTINUOUS
 62
     7
 10
50.628512
 20
78.703912
 11
60.249978
 21
88.325379
  0
LINE
  8
CSLAYER1
  6
CONTINUOUS
 62
     7
 10
50.876216
 20
77.890956
 11
60.249978
 21
87.264718
  0
LINE
  8
CSLAYER1
  6
CONTINUOUS
 62
     7
 10
51.148383
 20
77.102463
 11
60.249978
 21
86.204058
  0
LINE
  8
CSLAYER1
  6
CONTINUOUS
 62
     7
 10
51.443750
 20
76.337169
 11
60.249978
 21
85.143398
  0
LINE
  8
CSLAYER1
  6
CONTINUOUS
 62
     7
 10
51.761240
 20
75.593999
 11
60.281406
 21
84.114165
  0
LINE
  8
CSLAYER1
  6
CONTINUOUS
 62
     7
 10
52.099935
 20
74.872034
 11
60.386372
 21
83.158471
  0
LINE
  8
CSLAYER1
  6
CONTINUOUS
 62
     7
 10
52.459051
 20
74.170490
 11
60.552986
 21
82.264425
  0
LINE
  8
CSLAYER1
  6
CONTINUOUS
 62
     7
 10
52.837922
 20
73.488701
 11
60.772594
 21
81.423373
  0
LINE
  8
CSLAYER1
  6
CONTINUOUS
 62
     7
 10
53.235980
 20
72.826099
 11
61.039050
 21
80.629169
  0
LINE
  8
CSLAYER1
  6
CONTINUOUS
 62
     7
 10
53.652749
 20
72.182207
 11
61.347865
 21
79.877324
  0
LINE
  8
CSLAYER1
  6
CONTINUOUS
 62
     7
 10
54.087830
 20
71.556629
 11
61.695704
 21
79.164503
  0
LINE
  8
CSLAYER1
  6
CONTINUOUS
 62
     7
 10
54.540901
 20
70.949039
 11
62.080081
 21
78.488219
  0
LINE
  8
CSLAYER1
  6
CONTINUOUS
 62
     7
 10
55.011703
 20
70.359181
 11
62.499156
 21
77.846634
  0
LINE
  8
CSLAYER1
  6
CONTINUOUS
 62
     7
 10
55.500041
 20
69.786859
 11
62.951611
 21
77.238428
  0
LINE
  8
CSLAYER1
  6
CONTINUOUS
 62
     7
 10
56.005779
 20
69.231937
 11
63.436561
 21
76.662719
  0
LINE
  8
CSLAYER1
  6
CONTINUOUS
 62
     7
 10
56.528839
 20
68.694337
 11
63.953507
 21
76.119004
  0
LINE
  8
CSLAYER1
  6
CONTINUOUS
 62
     7
 10
57.069197
 20
68.174035
 11
64.502302
 21
75.607139
  0
LINE
  8
CSLAYER1
  6
CONTINUOUS
 62
     7
 10
57.626885
 20
67.671063
 11
65.083148
 21
75.127325
  0
LINE
  8
CSLAYER1
  6
CONTINUOUS
 62
     7
 10
58.201992
 20
67.185509
 11
65.696604
 21
74.680121
  0
LINE
  8
CSLAYER1
  6
CONTINUOUS
 62
     7
 10
58.794661
 20
66.717518
 11
66.343618
 21
74.266475
  0
LINE
  8
CSLAYER1
  6
CONTINUOUS
 62
     7
 10
59.405099
 20
66.267296
 11
67.025587
 21
73.887784
  0
LINE
  8
CSLAYER1
  6
CONTINUOUS
 62
     7
 10
60.033573
 20
65.835109
 11
67.744442
 21
73.545978
  0
LINE
  8
CSLAYER1
  6
CONTINUOUS
 62
     7
 10
60.680418
 20
65.421294
 11
68.502790
 21
73.243666
  0
LINE
  8
CSLAYER1
  6
CONTINUOUS
 62
     7
 10
61.346044
 20
65.026260
 11
69.304124
 21
72.984340
  0
LINE
  8
CSLAYER1
  6
CONTINUOUS
 62
     7
 10
62.030941
 20
64.650497
 11
70.153158
 21
72.772714
  0
LINE
  8
CSLAYER1
  6
CONTINUOUS
 62
     7
 10
62.735692
 20
64.294588
 11
71.056368
 21
72.615264
  0
LINE
  8
CSLAYER1
  6
CONTINUOUS
 62
     7
 10
63.460981
 20
63.959217
 11
72.022926
 21
72.521162
  0
LINE
  8
CSLAYER1
  6
CONTINUOUS
 62
     7
 10
64.207613
 20
63.645188
 11
73.062424
 21
72.500000
  0
LINE
  8
CSLAYER1
  6
CONTINUOUS
 62
     7
 10
64.976527
 20
63.353442
 11
74.123084
 21
72.500000
  0
LINE
  8
CSLAYER1
  6
CONTINUOUS
 62
     7
 10
65.768829
 20
63.085084
 11
75.183745
 21
72.500000
  0
LINE
  8
CSLAYER1
  6
CONTINUOUS
 62
     7
 10
66.585815
 20
62.841410
 11
76.244405
 21
72.500000
  0
LINE
  8
CSLAYER1
  6
CONTINUOUS
 62
     7
 10
67.429020
 20
62.623955
 11
77.305065
 21
72.500000
  0
LINE
  8
CSLAYER1
  6
CONTINUOUS
 62
     7
 10
68.300264
 20
62.434538
 11
78.365725
 21
72.500000
  0
LINE
  8
CSLAYER1
  6
CONTINUOUS
 62
     7
 10
69.201730
 20
62.275345
 11
79.426385
 21
72.500000
  0
LINE
  8
CSLAYER1
  6
CONTINUOUS
 62
     7
 10
70.136062
 20
62.149016
 11
80.487045
 21
72.500000
  0
LINE
  8
CSLAYER1
  6
CONTINUOUS
 62
     7
 10
71.106499
 20
62.058793
 11
81.547706
 21
72.500000
  0
LINE
  8
CSLAYER1
  6
CONTINUOUS
 62
     7
 10
72.117075
 20
62.008709
 11
82.608366
 21
72.500000
  0
LINE
  8
CSLAYER1
  6
CONTINUOUS
 62
     7
 10
73.169026
 20
62.000000
 11
83.374978
 21
72.205952
  0
LINE
  8
CSLAYER1
  6
CONTINUOUS
 62
     7
 10
74.229686
 20
62.000000
 11
83.374978
 21
71.145292
  0
LINE
  8
CSLAYER1
  6
CONTINUOUS
 62
     7
 10
75.290346
 20
62.000000
 11
83.374978
 21
70.084632
  0
LINE
  8
CSLAYER1
  6
CONTINUOUS
 62
     7
 10
76.351007
 20
62.000000
 11
83.374978
 21
69.023972
  0
LINE
  8
CSLAYER1
  6
CONTINUOUS
 62
     7
 10
77.411667
 20
62.000000
 11
83.374978
 21
67.963311
  0
LINE
  8
CSLAYER1
  6
CONTINUOUS
 62
     7
 10
78.472327
 20
62.000000
 11
83.374978
 21
66.902651
  0
LINE
  8
CSLAYER1
  6
CONTINUOUS
 62
     7
 10
79.532987
 20
62.000000
 11
83.374978
 21
65.841991
  0
LINE
  8
CSLAYER1
  6
CONTINUOUS
 62
     7
 10
80.593647
 20
62.000000
 11
83.374978
 21
64.781331
  0
LINE
  8
CSLAYER1
  6
CONTINUOUS
 62
     7
 10
81.654307
 20
62.000000
 11
83.374978
 21
63.720671
  0
LINE
  8
CSLAYER1
  6
CONTINUOUS
 62
     7
 10
82.714968
 20
62.000000
 11
83.374978
 21
62.660011
  0
LINE
  8
CSLAYER1
  6
CONTINUOUS
 62
     7
 10
83.374978
 20
71.564340
 11
82.439318
 21
72.500000
  0
LINE
  8
CSLAYER1
  6
CONTINUOUS
 62
     7
 10
60.249978
 20
94.689340
 11
59.189318
 21
95.750000
  0
LINE
  8
CSLAYER1
  6
CONTINUOUS
 62
     7
 10
83.374978
 20
70.503679
 11
81.378658
 21
72.500000
  0
LINE
  8
CSLAYER1
  6
CONTINUOUS
 62
     7
 10
60.249978
 20
93.628679
 11
58.128658
 21
95.750000
  0
LINE
  8
CSLAYER1
  6
CONTINUOUS
 62
     7
 10
83.374978
 20
69.443019
 11
80.317998
 21
72.500000
  0
LINE
  8
CSLAYER1
  6
CONTINUOUS
 62
     7
 10
60.249978
 20
92.568019
 11
57.067998
 21
95.750000
  0
LINE
  8
CSLAYER1
  6
CONTINUOUS
 62
     7
 10
83.374978
 20
68.382359
 11
79.257338
 21
72.500000
  0
LINE
  8
CSLAYER1
  6
CONTINUOUS
 62
     7
 10
60.249978
 20
91.507359
 11
56.007338
 21
95.750000
  0
LINE
  8
CSLAYER1
  6
CONTINUOUS
 62
     7
 10
83.374978
 20
67.321699
 11
78.196678
 21
72.500000
  0
LINE
  8
CSLAYER1
  6
CONTINUOUS
 62
     7
 10
60.249978
 20
90.446699
 11
54.946678
 21
95.750000
  0
LINE
  8
CSLAYER1
  6
CONTINUOUS
 62
     7
 10
83.374978
 20
66.261039
 11
77.136017
 21
72.500000
  0
LINE
  8
CSLAYER1
  6
CONTINUOUS
 62
     7
 10
60.249978
 20
89.386039
 11
53.886017
 21
95.750000
  0
LINE
  8
CSLAYER1
  6
CONTINUOUS
 62
     7
 10
83.374978
 20
65.200379
 11
76.075357
 21
72.500000
  0
LINE
  8
CSLAYER1
  6
CONTINUOUS
 62
     7
 10
60.249978
 20
88.325379
 11
52.825357
 21
95.750000
  0
LINE
  8
CSLAYER1
  6
CONTINUOUS
 62
     7
 10
83.374978
 20
64.139718
 11
75.014697
 21
72.500000
  0
LINE
  8
CSLAYER1
  6
CONTINUOUS
 62
     7
 10
60.249978
 20
87.264718
 11
51.764697
 21
95.750000
  0
LINE
  8
CSLAYER1
  6
CONTINUOUS
 62
     7
 10
83.374978
 20
63.079058
 11
73.954037
 21
72.500000
  0
LINE
  8
CSLAYER1
  6
CONTINUOUS
 62
     7
 10
60.249978
 20
86.204058
 11
50.704037
 21
95.750000
  0
LINE
  8
CSLAYER1
  6
CONTINUOUS
 62
     7
 10
83.374978
 20
62.018398
 11
72.893377
 21
72.500000
  0
LINE
  8
CSLAYER1
  6
CONTINUOUS
 62
     7
 10
60.249978
 20
85.143398
 11
49.749978
 21
95.643398
  0
LINE
  8
CSLAYER1
  6
CONTINUOUS
 62
     7
 10
82.332717
 20
62.000000
 11
71.796282
 21
72.536434
  0
LINE
  8
CSLAYER1
  6
CONTINUOUS
 62
     7
 10
60.286413
 20
84.046303
 11
49.749978
 21
94.582738
  0
LINE
  8
CSLAYER1
  6
CONTINUOUS
 62
     7
 10
81.272056
 20
62.000000
 11
70.582747
 21
72.689309
  0
LINE
  8
CSLAYER1
  6
CONTINUOUS
 62
     7
 10
60.439288
 20
82.832768
 11
49.749978
 21
93.522078
  0
LINE
  8
CSLAYER1
  6
CONTINUOUS
 62
     7
 10
80.211396
 20
62.000000
 11
69.195318
 21
73.016077
  0
LINE
  8
CSLAYER1
  6
CONTINUOUS
 62
     7
 10
60.766056
 20
81.445340
 11
49.749978
 21
92.461417
  0
LINE
  8
CSLAYER1
  6
CONTINUOUS
 62
     7
 10
79.150736
 20
62.000000
 11
67.490306
 21
73.660430
  0
LINE
  8
CSLAYER1
  6
CONTINUOUS
 62
     7
 10
61.410409
 20
79.740327
 11
49.749978
 21
91.400757
  0
LINE
  8
CSLAYER1
  6
CONTINUOUS
 62
     7
 10
78.090076
 20
62.000000
 11
64.316209
 21
75.773866
  0
LINE
  8
CSLAYER1
  6
CONTINUOUS
 62
     7
 10
63.523845
 20
76.566231
 11
49.749978
 21
90.340097
  0
LINE
  8
CSLAYER1
  6
CONTINUOUS
 62
     7
 10
77.029416
 20
62.000000
 11
49.749978
 21
89.279437
  0
LINE
  8
CSLAYER1
  6
CONTINUOUS
 62
     7
 10
75.968756
 20
62.000000
 11
49.749978
 21
88.218777
  0
LINE
  8
CSLAYER1
  6
CONTINUOUS
 62
     7
 10
74.908095
 20
62.000000
 11
49.749978
 21
87.158117
  0
LINE
  8
CSLAYER1
  6
CONTINUOUS
 62
     7
 10
73.847435
 20
62.000000
 11
49.749978
 21
86.097456
  0
LINE
  8
CSLAYER1
  6
CONTINUOUS
 62
     7
 10
72.786775
 20
62.000000
 11
49.749978
 21
85.036796
  0
LINE
  8
CSLAYER1
  6
CONTINUOUS
 62
     7
 10
71.702238
 20
62.023876
 11
49.773855
 21
83.952259
  0
LINE
  8
CSLAYER1
  6
CONTINUOUS
 62
     7
 10
70.561057
 20
62.104397
 11
49.854376
 21
82.811079
  0
LINE
  8
CSLAYER1
  6
CONTINUOUS
 62
     7
 10
69.352475
 20
62.252319
 11
50.002298
 21
81.602496
  0
LINE
  8
CSLAYER1
  6
CONTINUOUS
 62
     7
 10
68.061119
 20
62.483015
 11
50.232994
 21
80.311140
  0
LINE
  8
CSLAYER1
  6
CONTINUOUS
 62
     7
 10
66.663538
 20
62.819936
 11
50.569914
 21
78.913560
  0
LINE
  8
CSLAYER1
  6
CONTINUOUS
 62
     7
 10
65.120553
 20
63.302261
 11
51.052240
 21
77.370574
  0
LINE
  8
CSLAYER1
  6
CONTINUOUS
 62
     7
 10
63.356500
 20
64.005654
 11
51.755633
 21
75.606521
  0
LINE
  8
CSLAYER1
  6
CONTINUOUS
 62
     7
 10
61.178831
 20
65.122662
 11
52.872641
 21
73.428853
  0
LINE
  8
CSLAYER1
  6
CONTINUOUS
 62
     7
 10
57.032875
 20
68.207958
 11
55.957937
 21
69.282896
  0
ENDBLK
  8
0
  0
BLOCK
  8
CSLAYER1
  2
BLKF0001
 70
   64
 10
0.0
 20
0.0
 30
0.0
  0
LINE
  8
CSLAYER1
  6
CONTINUOUS
 62
     7
 10
372.874978
 20
90.500000
 11
378.124978
 21
95.750000
  0
LINE
  8
CSLAYER1
  6
CONTINUOUS
 62
     7
 10
372.874978
 20
91.560660
 11
377.064318
 21
95.750000
  0
LINE
  8
CSLAYER1
  6
CONTINUOUS
 62
     7
 10
372.874978
 20
92.621320
 11
376.003658
 21
95.750000
  0
LINE
  8
CSLAYER1
  6
CONTINUOUS
 62
     7
 10
372.874978
 20
93.681980
 11
374.942998
 21
95.750000
  0
LINE
  8
CSLAYER1
  6
CONTINUOUS
 62
     7
 10
372.874978
 20
94.742640
 11
373.882338
 21
95.750000
  0
LINE
  8
CSLAYER1
  6
CONTINUOUS
 62
     7
 10
372.874978
 20
89.439340
 11
379.185639
 21
95.750000
  0
LINE
  8
CSLAYER1
  6
CONTINUOUS
 62
     7
 10
372.874978
 20
88.378679
 11
380.246299
 21
95.750000
  0
LINE
  8
CSLAYER1
  6
CONTINUOUS
 62
     7
 10
372.874978
 20
87.318019
 11
381.306959
 21
95.750000
  0
LINE
  8
CSLAYER1
  6
CONTINUOUS
 62
     7
 10
372.874978
 20
86.257359
 11
382.367619
 21
95.750000
  0
LINE
  8
CSLAYER1
  6
CONTINUOUS
 62
     7
 10
372.874978
 20
85.196699
 11
383.374978
 21
95.696699
  0
LINE
  8
CSLAYER1
  6
CONTINUOUS
 62
     7
 10
372.874978
 20
84.136039
 11
383.374978
 21
94.636039
  0
LINE
  8
CSLAYER1
  6
CONTINUOUS
 62
     7
 10
372.874978
 20
83.075379
 11
383.374978
 21
93.575379
  0
LINE
  8
CSLAYER1
  6
CONTINUOUS
 62
     7
 10
372.874978
 20
82.014718
 11
383.374978
 21
92.514718
  0
LINE
  8
CSLAYER1
  6
CONTINUOUS
 62
     7
 10
372.874978
 20
80.954058
 11
383.374978
 21
91.454058
  0
LINE
  8
CSLAYER1
  6
CONTINUOUS
 62
     7
 10
372.874978
 20
79.893398
 11
383.374978
 21
90.393398
  0
LINE
  8
CSLAYER1
  6
CONTINUOUS
 62
     7
 10
372.874978
 20
78.832738
 11
383.374978
 21
89.332738
  0
LINE
  8
CSLAYER1
  6
CONTINUOUS
 62
     7
 10
372.874978
 20
77.772078
 11
383.374978
 21
88.272078
  0
LINE
  8
CSLAYER1
  6
CONTINUOUS
 62
     7
 10
372.874978
 20
76.711417
 11
383.374978
 21
87.211417
  0
LINE
  8
CSLAYER1
  6
CONTINUOUS
 62
     7
 10
372.874978
 20
75.650757
 11
383.374978
 21
86.150757
  0
LINE
  8
CSLAYER1
  6
CONTINUOUS
 62
     7
 10
372.874978
 20
74.590097
 11
383.374978
 21
85.090097
  0
LINE
  8
CSLAYER1
  6
CONTINUOUS
 62
     7
 10
372.874978
 20
73.529437
 11
383.374978
 21
84.029437
  0
LINE
  8
CSLAYER1
  6
CONTINUOUS
 62
     7
 10
372.874978
 20
72.468777
 11
383.374978
 21
82.968777
  0
LINE
  8
CSLAYER1
  6
CONTINUOUS
 62
     7
 10
372.874978
 20
71.408117
 11
383.374978
 21
81.908117
  0
LINE
  8
CSLAYER1
  6
CONTINUOUS
 62
     7
 10
372.874978
 20
70.347456
 11
383.374978
 21
80.847456
  0
LINE
  8
CSLAYER1
  6
CONTINUOUS
 62
     7
 10
372.874978
 20
69.286796
 11
383.374978
 21
79.786796
  0
LINE
  8
CSLAYER1
  6
CONTINUOUS
 62
     7
 10
372.874978
 20
68.226136
 11
383.374978
 21
78.726136
  0
LINE
  8
CSLAYER1
  6
CONTINUOUS
 62
     7
 10
372.875648
 20
67.166146
 11
383.374978
 21
77.665476
  0
LINE
  8
CSLAYER1
  6
CONTINUOUS
 62
     7
 10
372.979211
 20
66.209049
 11
383.374978
 21
76.604816
  0
LINE
  8
CSLAYER1
  6
CONTINUOUS
 62
     7
 10
373.216969
 20
65.386147
 11
383.374978
 21
75.544156
  0
LINE
  8
CSLAYER1
  6
CONTINUOUS
 62
     7
 10
373.555845
 20
64.664362
 11
383.374978
 21
74.483495
  0
LINE
  8
CSLAYER1
  6
CONTINUOUS
 62
     7
 10
373.980037
 20
64.027894
 11
383.374978
 21
73.422835
  0
LINE
  8
CSLAYER1
  6
CONTINUOUS
 62
     7
 10
374.482220
 20
63.469416
 11
383.374978
 21
72.362175
  0
LINE
  8
CSLAYER1
  6
CONTINUOUS
 62
     7
 10
375.060594
 20
62.987131
 11
383.374978
 21
71.301515
  0
LINE
  8
CSLAYER1
  6
CONTINUOUS
 62
     7
 10
375.718265
 20
62.584142
 11
383.374978
 21
70.240855
  0
LINE
  8
CSLAYER1
  6
CONTINUOUS
 62
     7
 10
376.464343
 20
62.269559
 11
383.374978
 21
69.180195
  0
LINE
  8
CSLAYER1
  6
CONTINUOUS
 62
     7
 10
377.317857
 20
62.062413
 11
383.374978
 21
68.119534
  0
LINE
  8
CSLAYER1
  6
CONTINUOUS
 62
     7
 10
378.319717
 20
62.003613
 11
383.371365
 21
67.055261
  0
LINE
  8
CSLAYER1
  6
CONTINUOUS
 62
     7
 10
379.583402
 20
62.206638
 11
383.168340
 21
65.791576
  0
LINE
  8
CSLAYER1
  6
CONTINUOUS
 62
     7
 10
383.374978
 20
90.500000
 11
378.124978
 21
95.750000
  0
LINE
  8
CSLAYER1
  6
CONTINUOUS
 62
     7
 10
383.374978
 20
89.439340
 11
377.064318
 21
95.750000
  0
LINE
  8
CSLAYER1
  6
CONTINUOUS
 62
     7
 10
383.374978
 20
88.378679
 11
376.003658
 21
95.750000
  0
LINE
  8
CSLAYER1
  6
CONTINUOUS
 62
     7
 10
383.374978
 20
87.318019
 11
374.942998
 21
95.750000
  0
LINE
  8
CSLAYER1
  6
CONTINUOUS
 62
     7
 10
383.374978
 20
86.257359
 11
373.882338
 21
95.750000
  0
LINE
  8
CSLAYER1
  6
CONTINUOUS
 62
     7
 10
383.374978
 20
85.196699
 11
372.874978
 21
95.696699
  0
LINE
  8
CSLAYER1
  6
CONTINUOUS
 62
     7
 10
383.374978
 20
84.136039
 11
372.874978
 21
94.636039
  0
LINE
  8
CSLAYER1
  6
CONTINUOUS
 62
     7
 10
383.374978
 20
83.075379
 11
372.874978
 21
93.575379
  0
LINE
  8
CSLAYER1
  6
CONTINUOUS
 62
     7
 10
383.374978
 20
82.014718
 11
372.874978
 21
92.514718
  0
LINE
  8
CSLAYER1
  6
CONTINUOUS
 62
     7
 10
383.374978
 20
80.954058
 11
372.874978
 21
91.454058
  0
LINE
  8
CSLAYER1
  6
CONTINUOUS
 62
     7
 10
383.374978
 20
79.893398
 11
372.874978
 21
90.393398
  0
LINE
  8
CSLAYER1
  6
CONTINUOUS
 62
     7
 10
383.374978
 20
78.832738
 11
372.874978
 21
89.332738
  0
LINE
  8
CSLAYER1
  6
CONTINUOUS
 62
     7
 10
383.374978
 20
77.772078
 11
372.874978
 21
88.272078
  0
LINE
  8
CSLAYER1
  6
CONTINUOUS
 62
     7
 10
383.374978
 20
76.711417
 11
372.874978
 21
87.211417
  0
LINE
  8
CSLAYER1
  6
CONTINUOUS
 62
     7
 10
383.374978
 20
75.650757
 11
372.874978
 21
86.150757
  0
LINE
  8
CSLAYER1
  6
CONTINUOUS
 62
     7
 10
383.374978
 20
74.590097
 11
372.874978
 21
85.090097
  0
LINE
  8
CSLAYER1
  6
CONTINUOUS
 62
     7
 10
383.374978
 20
73.529437
 11
372.874978
 21
84.029437
  0
LINE
  8
CSLAYER1
  6
CONTINUOUS
 62
     7
 10
383.374978
 20
72.468777
 11
372.874978
 21
82.968777
  0
LINE
  8
CSLAYER1
  6
CONTINUOUS
 62
     7
 10
383.374978
 20
71.408117
 11
372.874978
 21
81.908117
  0
LINE
  8
CSLAYER1
  6
CONTINUOUS
 62
     7
 10
383.374978
 20
70.347456
 11
372.874978
 21
80.847456
  0
LINE
  8
CSLAYER1
  6
CONTINUOUS
 62
     7
 10
383.374978
 20
69.286796
 11
372.874978
 21
79.786796
  0
LINE
  8
CSLAYER1
  6
CONTINUOUS
 62
     7
 10
383.374978
 20
68.226136
 11
372.874978
 21
78.726136
  0
LINE
  8
CSLAYER1
  6
CONTINUOUS
 62
     7
 10
383.374309
 20
67.166146
 11
372.874978
 21
77.665476
  0
LINE
  8
CSLAYER1
  6
CONTINUOUS
 62
     7
 10
383.270746
 20
66.209049
 11
372.874978
 21
76.604816
  0
LINE
  8
CSLAYER1
  6
CONTINUOUS
 62
     7
 10
383.032987
 20
65.386147
 11
372.874978
 21
75.544156
  0
LINE
  8
CSLAYER1
  6
CONTINUOUS
 62
     7
 10
382.694112
 20
64.664362
 11
372.874978
 21
74.483495
  0
LINE
  8
CSLAYER1
  6
CONTINUOUS
 62
     7
 10
382.269919
 20
64.027894
 11
372.874978
 21
73.422835
  0
LINE
  8
CSLAYER1
  6
CONTINUOUS
 62
     7
 10
381.767737
 20
63.469416
 11
372.874978
 21
72.362175
  0
LINE
  8
CSLAYER1
  6
CONTINUOUS
 62
     7
 10
381.189362
 20
62.987131
 11
372.874978
 21
71.301515
  0
LINE
  8
CSLAYER1
  6
CONTINUOUS
 62
     7
 10
380.531692
 20
62.584142
 11
372.874978
 21
70.240855
  0
LINE
  8
CSLAYER1
  6
CONTINUOUS
 62
     7
 10
379.785614
 20
62.269559
 11
372.874978
 21
69.180195
  0
LINE
  8
CSLAYER1
  6
CONTINUOUS
 62
     7
 10
378.932100
 20
62.062413
 11
372.874978
 21
68.119534
  0
LINE
  8
CSLAYER1
  6
CONTINUOUS
 62
     7
 10
377.930240
 20
62.003613
 11
372.878591
 21
67.055261
  0
LINE
  8
CSLAYER1
  6
CONTINUOUS
 62
     7
 10
376.666555
 20
62.206638
 11
373.081616
 21
65.791576
  0
LINE
  8
CSLAYER1
  6
CONTINUOUS
 62
     7
 10
383.374978
 20
91.560660
 11
379.185639
 21
95.750000
  0
LINE
  8
CSLAYER1
  6
CONTINUOUS
 62
     7
 10
383.374978
 20
92.621320
 11
380.246299
 21
95.750000
  0
LINE
  8
CSLAYER1
  6
CONTINUOUS
 62
     7
 10
383.374978
 20
93.681980
 11
381.306959
 21
95.750000
  0
LINE
  8
CSLAYER1
  6
CONTINUOUS
 62
     7
 10
383.374978
 20
94.742640
 11
382.367619
 21
95.750000
  0
ENDBLK
  8
0
  0
BLOCK
  8
CSLAYER1
  2
BLKF0002
 70
   64
 10
0.0
 20
0.0
 30
0.0
  0
LINE
  8
CSLAYER1
  6
CONTINUOUS
 62
     5
 10
99.499978
 20
36.000000
 11
23.999978
 21
36.000000
  0
LINE
  8
CSLAYER1
  6
CONTINUOUS
 62
     5
 10
99.499978
 20
244.750000
 11
23.999978
 21
244.750000
  0
LINE
  8
CSLAYER1
  6
CONTINUOUS
 62
     5
 10
24.999978
 20
36.000000
 11
24.999978
 21
244.750000
  0
LINE
  8
CSLAYER1
  6
CONTINUOUS
 62
     5
 10
24.999978
 20
36.000000
 11
24.482340
 21
37.931851
  0
LINE
  8
CSLAYER1
  6
CONTINUOUS
 62
     5
 10
24.999978
 20
36.000000
 11
25.517617
 21
37.931851
  0
LINE
  8
CSLAYER1
  6
CONTINUOUS
 62
     5
 10
24.999978
 20
244.750000
 11
24.482340
 21
242.818148
  0
LINE
  8
CSLAYER1
  6
CONTINUOUS
 62
     5
 10
24.999978
 20
244.750000
 11
25.517617
 21
242.818148
  0
TEXT
  8
CSLAYER1
 62
     7
 10
24.000000
 20
135.875000
 40
4.000000
 41
0.843750
  1
835
 50
90.000000
 51
0.000000
  7
EASYDRAW_FONT
 72
     5
 11
24.000000
 21
144.875000
  0
ENDBLK
  8
0
  0
BLOCK
  8
CSLAYER1
  2
BLKF0003
 70
   64
 10
0.0
 20
0.0
 30
0.0
  0
LINE
  8
CSLAYER1
  6
CONTINUOUS
 62
     5
 10
439.999978
 20
36.000000
 11
492.499978
 21
36.000000
  0
LINE
  8
CSLAYER1
  6
CONTINUOUS
 62
     5
 10
419.624978
 20
142.875000
 11
492.499978
 21
142.875000
  0
LINE
  8
CSLAYER1
  6
CONTINUOUS
 62
     5
 10
491.499978
 20
36.000000
 11
491.499978
 21
142.875000
  0
LINE
  8
CSLAYER1
  6
CONTINUOUS
 62
     5
 10
491.499978
 20
36.000000
 11
490.982340
 21
37.931851
  0
LINE
  8
CSLAYER1
  6
CONTINUOUS
 62
     5
 10
491.499978
 20
36.000000
 11
492.017617
 21
37.931851
  0
LINE
  8
CSLAYER1
  6
CONTINUOUS
 62
     5
 10
491.499978
 20
142.875000
 11
490.982340
 21
140.943148
  0
LINE
  8
CSLAYER1
  6
CONTINUOUS
 62
     5
 10
491.499978
 20
142.875000
 11
492.017617
 21
140.943148
  0
TEXT
  8
CSLAYER1
 62
     7
 10
490.500000
 20
84.937500
 40
4.000000
 41
0.843750
  1
427
 50
90.000000
 51
0.000000
  7
EASYDRAW_FONT
 72
     5
 11
490.500000
 21
93.937500
  0
ENDBLK
  8
0
  0
BLOCK
  8
CSLAYER1
  2
BLKF0004
 70
   64
 10
0.0
 20
0.0
 30
0.0
  0
LINE
  8
CSLAYER1
  6
CONTINUOUS
 62
     5
 10
439.999978
 20
244.750000
 11
492.499978
 21
244.750000
  0
LINE
  8
CSLAYER1
  6
CONTINUOUS
 62
     5
 10
491.499978
 20
142.875000
 11
491.499978
 21
244.750000
  0
LINE
  8
CSLAYER1
  6
CONTINUOUS
 62
     5
 10
491.499978
 20
142.875000
 11
490.982340
 21
144.806851
  0
LINE
  8
CSLAYER1
  6
CONTINUOUS
 62
     5
 10
491.499978
 20
142.875000
 11
492.017617
 21
144.806851
  0
LINE
  8
CSLAYER1
  6
CONTINUOUS
 62
     5
 10
491.499978
 20
244.750000
 11
490.982340
 21
242.818148
  0
LINE
  8
CSLAYER1
  6
CONTINUOUS
 62
     5
 10
491.499978
 20
244.750000
 11
492.017617
 21
242.818148
  0
TEXT
  8
CSLAYER1
 62
     7
 10
490.500000
 20
189.312500
 40
4.000000
 41
0.843750
  1
408
 50
90.000000
 51
0.000000
  7
EASYDRAW_FONT
 72
     5
 11
490.500000
 21
198.312500
  0
ENDBLK
  8
0
  0
BLOCK
  8
CSLAYER1
  2
BLKF0005
 70
   64
 10
0.0
 20
0.0
 30
0.0
  0
LINE
  8
CSLAYER1
  6
CONTINUOUS
 62
     5
 10
54.999978
 20
84.090097
 11
54.999978
 21
20.000000
  0
LINE
  8
CSLAYER1
  6
CONTINUOUS
 62
     5
 10
161.374978
 20
27.250000
 11
161.374978
 21
20.000000
  0
LINE
  8
CSLAYER1
  6
CONTINUOUS
 62
     5
 10
54.999978
 20
21.000000
 11
161.374978
 21
21.000000
  0
LINE
  8
CSLAYER1
  6
CONTINUOUS
 62
     5
 10
54.999978
 20
21.000000
 11
56.931830
 21
21.517638
  0
LINE
  8
CSLAYER1
  6
CONTINUOUS
 62
     5
 10
54.999978
 20
21.000000
 11
56.931830
 21
20.482362
  0
LINE
  8
CSLAYER1
  6
CONTINUOUS
 62
     5
 10
161.374978
 20
21.000000
 11
159.443127
 21
21.517638
  0
LINE
  8
CSLAYER1
  6
CONTINUOUS
 62
     5
 10
161.374978
 20
21.000000
 11
159.443127
 21
20.482362
  0
TEXT
  8
CSLAYER1
 62
     7
 10
103.687477
 20
22.000000
 40
4.000000
 41
0.843750
  1
425
 50
0.000000
 51
0.000000
  7
EASYDRAW_FONT
 72
     5
 11
112.687477
 21
22.000000
  0
ENDBLK
  8
0
  0
ENDSEC
  0
SECTION
  2
ENTITIES
  0
TEXT
  8
CSLAYER1
 62
     7
 10
333.762939
 20
391.040649
 40
6.000000
 41
0.846774
  1
SMOLENSKY CHECK VALVE
 50
0.000000
 51
0.000000
  7
EASYDRAW_FONT
 72
     5
 11
438.762939
 21
391.040649
  0
TEXT
  8
CSLAYER1
 62
     7
 10
333.846100
 20
371.040649
 40
6.000000
 41
0.865385
  1
株式会社　イシザキ
 50
0.000000
 51
0.000000
  7
EASYDRAW_FONT
 72
     5
 11
378.846100
 21
371.040649
  0
TEXT
  8
CSLAYER1
 62
     7
 10
333.834961
 20
381.040649
 40
6.000000
 41
0.850000
  1
SM ・ SMC 10K 350A
 50
0.000000
 51
0.000000
  7
EASYDRAW_FONT
 72
     5
 11
418.834961
 21
381.040649
  0
TEXT
  8
CSLAYER1
 62
     7
 10
405.865601
 20
360.981262
 40
6.000000
 41
0.882353
  1
縮尺　１／４
 50
0.000000
 51
0.000000
  7
EASYDRAW_FONT
 72
     5
 11
435.865601
 21
360.981262
  0
LINE
  8
CSLAYER1
  6
CENTER
 62
     2
 10
161.374978
 20
249.750000
 11
161.374978
 21
28.250000
  0
LINE
  8
CSLAYER1
  6
CONTINUOUS
 62
     7
 10
216.374978
 20
213.750000
 11
161.374978
 21
213.750000
  0
LINE
  8
CSLAYER1
  6
CONTINUOUS
 62
     7
 10
161.374978
 20
244.750000
 11
222.249978
 21
244.750000
  0
LINE
  8
CSLAYER1
  6
CONTINUOUS
 62
     7
 10
222.624978
 20
244.375000
 11
222.624978
 21
236.250000
  0
LINE
  8
CSLAYER1
  6
CONTINUOUS
 62
     7
 10
222.124978
 20
235.750000
 11
161.374978
 21
235.750000
  0
LINE
  8
CSLAYER1
  6
CONTINUOUS
 62
     7
 10
210.124978
 20
233.750000
 11
210.124978
 21
216.250000
  0
ARC
  8
CSLAYER1
  6
CONTINUOUS
 62
     7
 10
212.124978
 20
233.750000
 40
2.000000
 50
90.000000
 51
180.000000
  0
ARC
  8
CSLAYER1
  6
CONTINUOUS
 62
     7
 10
212.624978
 20
216.250000
 40
2.500000
 50
180.000000
 51
270.000000
  0
ARC
  8
CSLAYER1
  6
CONTINUOUS
 62
     7
 10
216.374978
 20
201.250000
 40
12.500000
 50
0.000000
 51
90.000000
  0
LINE
  8
CSLAYER1
  6
CENTER
 62
     2
 10
216.999978
 20
249.750000
 11
216.999978
 21
230.750000
  0
LINE
  8
CSLAYER1
  6
CONTINUOUS
 62
     7
 10
228.874978
 20
153.531250
 11
228.874978
 21
201.250000
  0
LINE
  8
CSLAYER1
  6
CONTINUOUS
 62
     7
 10
222.624978
 20
236.250000
 11
222.124978
 21
235.750000
  0
LINE
  8
CSLAYER1
  6
CONTINUOUS
 62
     7
 10
222.249978
 20
244.750000
 11
222.624978
 21
244.375000
  0
LINE
  8
CSLAYER1
  6
CONTINUOUS
 62
     7
 10
228.499978
 20
122.500000
 11
228.499978
 21
97.500000
  0
LINE
  8
CSLAYER1
  6
CONTINUOUS
 62
     7
 10
161.374978
 20
36.000000
 11
222.249978
 21
36.000000
  0
LINE
  8
CSLAYER1
  6
CONTINUOUS
 62
     7
 10
222.624978
 20
36.375000
 11
222.624978
 21
44.500000
  0
LINE
  8
CSLAYER1
  6
CONTINUOUS
 62
     7
 10
222.124978
 20
45.000000
 11
161.374978
 21
45.000000
  0
LINE
  8
CSLAYER1
  6
CENTER
 62
     2
 10
216.999978
 20
31.000000
 11
216.999978
 21
50.000000
  0
ARC
  8
CSLAYER1
  6
CONTINUOUS
 62
     7
 10
212.499978
 20
47.000000
 40
2.000000
 50
180.000000
 51
270.000000
  0
LINE
  8
CSLAYER1
  6
CONTINUOUS
 62
     7
 10
215.999978
 20
85.000000
 11
161.374978
 21
85.000000
  0
ARC
  8
CSLAYER1
  6
CONTINUOUS
 62
     7
 10
215.999978
 20
97.500000
 40
12.500000
 50
270.000000
 51
360.000000
  0
ARC
  8
CSLAYER1
  6
CONTINUOUS
 62
     7
 10
213.999978
 20
81.500000
 40
3.500000
 50
90.000000
 51
180.000000
  0
LINE
  8
CSLAYER1
  6
CONTINUOUS
 62
     7
 10
210.499978
 20
47.000000
 11
210.499978
 21
81.500000
  0
LINE
  8
CSLAYER1
  6
CONTINUOUS
 62
     7
 10
222.124978
 20
45.000000
 11
222.624978
 21
44.500000
  0
LINE
  8
CSLAYER1
  6
CONTINUOUS
 62
     7
 10
222.624978
 20
36.375000
 11
222.249978
 21
36.000000
  0
LINE
  8
CSLAYER1
  6
CONTINUOUS
 62
     7
 10
161.374978
 20
150.000000
 11
244.249978
 21
150.000000
  0
LINE
  8
CSLAYER1
  6
CONTINUOUS
 62
     7
 10
244.749978
 20
149.500000
 11
244.749978
 21
140.375000
  0
LINE
  8
CSLAYER1
  6
CONTINUOUS
 62
     7
 10
244.374978
 20
140.000000
 11
161.374978
 21
140.000000
  0
LINE
  8
CSLAYER1
  6
CONTINUOUS
 62
     7
 10
233.062478
 20
140.000000
 11
233.062478
 21
139.500000
  0
LINE
  8
CSLAYER1
  6
CONTINUOUS
 62
     7
 10
161.374978
 20
130.000000
 11
244.249978
 21
130.000000
  0
LINE
  8
CSLAYER1
  6
CONTINUOUS
 62
     7
 10
244.749978
 20
130.500000
 11
244.749978
 21
139.125000
  0
LINE
  8
CSLAYER1
  6
CONTINUOUS
 62
     7
 10
244.374978
 20
139.500000
 11
161.374978
 21
139.500000
  0
LINE
  8
CSLAYER1
  6
CONTINUOUS
 62
     7
 10
244.749978
 20
130.500000
 11
244.249978
 21
130.000000
  0
LINE
  8
CSLAYER1
  6
CONTINUOUS
 62
     7
 10
244.374978
 20
139.500000
 11
244.749978
 21
139.125000
  0
LINE
  8
CSLAYER1
  6
CONTINUOUS
 62
     7
 10
244.249978
 20
150.000000
 11
244.749978
 21
149.500000
  0
LINE
  8
CSLAYER1
  6
CONTINUOUS
 62
     7
 10
244.749978
 20
140.375000
 11
244.374978
 21
140.000000
  0
LINE
  8
CSLAYER1
  6
CONTINUOUS
 62
     7
 10
161.374978
 20
244.750000
 11
100.499978
 21
244.750000
  0
LINE
  8
CSLAYER1
  6
CONTINUOUS
 62
     7
 10
100.124978
 20
244.375000
 11
100.124978
 21
236.250000
  0
LINE
  8
CSLAYER1
  6
CONTINUOUS
 62
     7
 10
100.624978
 20
235.750000
 11
161.374978
 21
235.750000
  0
LINE
  8
CSLAYER1
  6
CONTINUOUS
 62
     7
 10
112.624978
 20
233.750000
 11
112.624978
 21
216.250000
  0
ARC
  8
CSLAYER1
  6
CONTINUOUS
 62
     7
 10
110.624978
 20
233.750000
 40
2.000000
 50
0.000000
 51
90.000000
  0
LINE
  8
CSLAYER1
  6
CENTER
 62
     2
 10
105.749978
 20
249.750000
 11
105.749978
 21
230.750000
  0
LINE
  8
CSLAYER1
  6
CONTINUOUS
 62
     7
 10
100.124978
 20
236.250000
 11
100.624978
 21
235.750000
  0
LINE
  8
CSLAYER1
  6
CONTINUOUS
 62
     7
 10
100.499978
 20
244.750000
 11
100.124978
 21
244.375000
  0
LINE
  8
CSLAYER1
  6
CENTER
 62
     2
 10
378.124978
 20
249.750000
 11
378.124978
 21
28.250000
  0
LINE
  8
CSLAYER1
  6
CONTINUOUS
 62
     7
 10
371.240341
 20
150.000000
 11
295.249978
 21
150.000000
  0
LINE
  8
CSLAYER1
  6
CONTINUOUS
 62
     7
 10
295.124978
 20
140.000000
 11
370.408654
 21
140.000000
  0
LINE
  8
CSLAYER1
  6
CONTINUOUS
 62
     7
 10
370.562478
 20
130.000000
 11
295.249978
 21
130.000000
  0
LINE
  8
CSLAYER1
  6
CONTINUOUS
 62
     7
 10
295.124978
 20
139.500000
 11
370.468898
 21
139.500000
  0
LINE
  8
CSLAYER1
  6
CONTINUOUS
 62
     7
 10
378.124978
 20
36.000000
 11
317.249978
 21
36.000000
  0
LINE
  8
CSLAYER1
  6
CONTINUOUS
 62
     7
 10
317.374978
 20
45.000000
 11
378.124978
 21
45.000000
  0
LINE
  8
CSLAYER1
  6
CONTINUOUS
 62
     7
 10
323.499978
 20
85.000000
 11
372.874978
 21
85.000000
  0
LINE
  8
CSLAYER1
  6
CONTINUOUS
 62
     7
 10
310.624978
 20
153.531250
 11
310.624978
 21
201.250000
  0
LINE
  8
CSLAYER1
  6
CONTINUOUS
 62
     7
 10
433.124978
 20
213.750000
 11
378.124978
 21
213.750000
  0
LINE
  8
CSLAYER1
  6
CONTINUOUS
 62
     7
 10
378.124978
 20
244.750000
 11
438.999978
 21
244.750000
  0
LINE
  8
CSLAYER1
  6
CONTINUOUS
 62
     7
 10
439.374978
 20
244.375000
 11
439.374978
 21
236.250000
  0
LINE
  8
CSLAYER1
  6
CONTINUOUS
 62
     7
 10
438.874978
 20
235.750000
 11
378.124978
 21
235.750000
  0
LINE
  8
CSLAYER1
  6
CONTINUOUS
 62
     7
 10
426.874978
 20
233.750000
 11
426.874978
 21
216.250000
  0
ARC
  8
CSLAYER1
  6
CONTINUOUS
 62
     7
 10
428.874978
 20
233.750000
 40
2.000000
 50
90.000000
 51
180.000000
  0
ARC
  8
CSLAYER1
  6
CONTINUOUS
 62
     7
 10
429.374978
 20
216.250000
 40
2.500000
 50
180.000000
 51
270.000000
  0
ARC
  8
CSLAYER1
  6
CONTINUOUS
 62
     7
 10
433.124978
 20
201.250000
 40
12.500000
 50
0.000000
 51
90.000000
  0
LINE
  8
CSLAYER1
  6
CENTER
 62
     2
 10
433.749978
 20
249.750000
 11
433.749978
 21
230.750000
  0
LINE
  8
CSLAYER1
  6
CONTINUOUS
 62
     7
 10
445.624978
 20
153.531250
 11
445.624978
 21
201.250000
  0
LINE
  8
CSLAYER1
  6
CONTINUOUS
 62
     7
 10
439.374978
 20
236.250000
 11
438.874978
 21
235.750000
  0
LINE
  8
CSLAYER1
  6
CONTINUOUS
 62
     7
 10
438.999978
 20
244.750000
 11
439.374978
 21
244.375000
  0
LINE
  8
CSLAYER1
  6
CONTINUOUS
 62
     7
 10
445.249978
 20
122.500000
 11
445.249978
 21
97.500000
  0
LINE
  8
CSLAYER1
  6
CONTINUOUS
 62
     7
 10
378.124978
 20
36.000000
 11
438.999978
 21
36.000000
  0
LINE
  8
CSLAYER1
  6
CONTINUOUS
 62
     7
 10
439.374978
 20
36.375000
 11
439.374978
 21
44.500000
  0
LINE
  8
CSLAYER1
  6
CONTINUOUS
 62
     7
 10
438.874978
 20
45.000000
 11
378.124978
 21
45.000000
  0
LINE
  8
CSLAYER1
  6
CENTER
 62
     2
 10
433.749978
 20
31.000000
 11
433.749978
 21
50.000000
  0
ARC
  8
CSLAYER1
  6
CONTINUOUS
 62
     7
 10
429.249978
 20
47.000000
 40
2.000000
 50
180.000000
 51
270.000000
  0
LINE
  8
CSLAYER1
  6
CONTINUOUS
 62
     7
 10
432.749978
 20
85.000000
 11
383.374978
 21
85.000000
  0
ARC
  8
CSLAYER1
  6
CONTINUOUS
 62
     7
 10
432.749978
 20
97.500000
 40
12.500000
 50
270.000000
 51
360.000000
  0
ARC
  8
CSLAYER1
  6
CONTINUOUS
 62
     7
 10
430.749978
 20
81.500000
 40
3.500000
 50
90.000000
 51
180.000000
  0
LINE
  8
CSLAYER1
  6
CONTINUOUS
 62
     7
 10
427.249978
 20
47.000000
 11
427.249978
 21
81.500000
  0
LINE
  8
CSLAYER1
  6
CONTINUOUS
 62
     7
 10
438.874978
 20
45.000000
 11
439.374978
 21
44.500000
  0
LINE
  8
CSLAYER1
  6
CONTINUOUS
 62
     7
 10
439.374978
 20
36.375000
 11
438.999978
 21
36.000000
  0
LINE
  8
CSLAYER1
  6
CONTINUOUS
 62
     7
 10
385.009616
 20
150.000000
 11
408.858231
 21
150.000000
  0
LINE
  8
CSLAYER1
  6
CONTINUOUS
 62
     7
 10
461.499978
 20
149.500000
 11
461.499978
 21
140.375000
  0
LINE
  8
CSLAYER1
  6
CONTINUOUS
 62
     7
 10
461.124978
 20
140.000000
 11
412.608231
 21
140.000000
  0
LINE
  8
CSLAYER1
  6
CONTINUOUS
 62
     7
 10
449.812478
 20
140.000000
 11
449.812478
 21
139.500000
  0
LINE
  8
CSLAYER1
  6
CONTINUOUS
 62
     7
 10
385.687478
 20
130.000000
 11
460.999978
 21
130.000000
  0
LINE
  8
CSLAYER1
  6
CONTINUOUS
 62
     7
 10
461.499978
 20
130.500000
 11
461.499978
 21
139.125000
  0
LINE
  8
CSLAYER1
  6
CONTINUOUS
 62
     7
 10
461.124978
 20
139.500000
 11
412.608231
 21
139.500000
  0
LINE
  8
CSLAYER1
  6
CONTINUOUS
 62
     7
 10
461.499978
 20
130.500000
 11
460.999978
 21
130.000000
  0
LINE
  8
CSLAYER1
  6
CONTINUOUS
 62
     7
 10
461.124978
 20
139.500000
 11
461.499978
 21
139.125000
  0
LINE
  8
CSLAYER1
  6
CONTINUOUS
 62
     7
 10
460.999978
 20
150.000000
 11
461.499978
 21
149.500000
  0
LINE
  8
CSLAYER1
  6
CONTINUOUS
 62
     7
 10
461.499978
 20
140.375000
 11
461.124978
 21
140.000000
  0
LINE
  8
CSLAYER1
  6
CONTINUOUS
 62
     7
 10
323.124978
 20
213.750000
 11
378.124978
 21
213.750000
  0
LINE
  8
CSLAYER1
  6
CONTINUOUS
 62
     7
 10
378.124978
 20
244.750000
 11
317.249978
 21
244.750000
  0
LINE
  8
CSLAYER1
  6
CONTINUOUS
 62
     7
 10
316.874978
 20
244.375000
 11
316.874978
 21
236.250000
  0
LINE
  8
CSLAYER1
  6
CONTINUOUS
 62
     7
 10
317.374978
 20
235.750000
 11
378.124978
 21
235.750000
  0
LINE
  8
CSLAYER1
  6
CONTINUOUS
 62
     7
 10
329.374978
 20
233.750000
 11
329.374978
 21
216.250000
  0
ARC
  8
CSLAYER1
  6
CONTINUOUS
 62
     7
 10
327.374978
 20
233.750000
 40
2.000000
 50
0.000000
 51
90.000000
  0
ARC
  8
CSLAYER1
  6
CONTINUOUS
 62
     7
 10
326.874978
 20
216.250000
 40
2.500000
 50
270.000000
 51
360.000000
  0
ARC
  8
CSLAYER1
  6
CONTINUOUS
 62
     7
 10
323.124978
 20
201.250000
 40
12.500000
 50
90.000000
 51
180.000000
  0
LINE
  8
CSLAYER1
  6
CENTER
 62
     2
 10
322.499978
 20
249.750000
 11
322.499978
 21
230.750000
  0
LINE
  8
CSLAYER1
  6
CONTINUOUS
 62
     7
 10
316.874978
 20
236.250000
 11
317.374978
 21
235.750000
  0
LINE
  8
CSLAYER1
  6
CONTINUOUS
 62
     7
 10
317.249978
 20
244.750000
 11
316.874978
 21
244.375000
  0
LINE
  8
CSLAYER1
  6
CENTER
 62
     2
 10
397.374978
 20
173.500000
 11
358.874978
 21
173.500000
  0
LINE
  8
CSLAYER1
  6
CONTINUOUS
 62
     7
 10
372.956541
 20
111.250000
 11
372.886228
 21
113.500000
  0
LINE
  8
CSLAYER1
  6
CONTINUOUS
 62
     7
 10
373.253635
 20
111.250000
 11
373.200323
 21
112.955972
  0
LINE
  8
CSLAYER1
  6
CONTINUOUS
 62
     7
 10
372.886228
 20
113.500000
 11
372.886228
 21
127.500000
  0
LINE
  8
CSLAYER1
  6
CONTINUOUS
 62
     7
 10
372.886228
 20
113.500000
 11
373.200323
 21
112.955972
  0
LINE
  8
CSLAYER1
  6
CONTINUOUS
 62
     7
 10
378.124978
 20
112.955972
 11
372.903229
 21
112.955972
  0
LINE
  8
CSLAYER1
  6
CONTINUOUS
 62
     7
 10
383.293416
 20
111.250000
 11
383.363728
 21
113.500000
  0
LINE
  8
CSLAYER1
  6
CONTINUOUS
 62
     7
 10
382.996322
 20
111.250000
 11
383.049634
 21
112.955972
  0
LINE
  8
CSLAYER1
  6
CONTINUOUS
 62
     7
 10
383.363728
 20
113.500000
 11
383.049634
 21
112.955972
  0
LINE
  8
CSLAYER1
  6
CONTINUOUS
 62
     7
 10
378.124978
 20
112.955972
 11
383.346728
 21
112.955972
  0
LINE
  8
CSLAYER1
  6
CONTINUOUS
 62
     7
 10
383.363728
 20
113.500000
 11
383.363728
 21
127.500000
  0
LINE
  8
CSLAYER1
  6
CONTINUOUS
 62
     7
 10
371.499978
 20
162.000000
 11
384.749978
 21
162.000000
  0
LINE
  8
CSLAYER1
  6
CONTINUOUS
 62
     7
 10
371.499978
 20
163.825000
 11
371.499978
 21
162.000000
  0
LINE
  8
CSLAYER1
  6
CONTINUOUS
 62
     7
 10
384.749978
 20
163.825000
 11
384.749978
 21
162.000000
  0
LINE
  8
CSLAYER1
  6
CONTINUOUS
 62
     7
 10
384.374978
 20
173.500000
 11
384.374978
 21
164.175000
  0
LINE
  8
CSLAYER1
  6
CONTINUOUS
 62
     3
 10
384.549978
 20
164.000000
 11
384.574978
 21
164.000000
  0
ARC
  8
CSLAYER1
  6
CONTINUOUS
 62
     7
 10
384.549978
 20
164.175000
 40
0.175000
 50
180.000000
 51
270.000000
  0
ARC
  8
CSLAYER1
  6
CONTINUOUS
 62
     7
 10
384.574978
 20
163.825000
 40
0.175000
 50
0.000000
 51
90.000000
  0
LINE
  8
CSLAYER1
  6
CONTINUOUS
 62
     3
 10
371.674978
 20
164.000000
 11
371.699978
 21
164.000000
  0
ARC
  8
CSLAYER1
  6
CONTINUOUS
 62
     7
 10
371.699978
 20
164.175000
 40
0.175000
 50
270.000000
 51
360.000000
  0
ARC
  8
CSLAYER1
  6
CONTINUOUS
 62
     7
 10
371.674978
 20
163.825000
 40
0.175000
 50
90.000000
 51
180.000000
  0
LINE
  8
CSLAYER1
  6
CONTINUOUS
 62
     7
 10
372.956541
 20
129.750000
 11
372.886228
 21
127.500000
  0
LINE
  8
CSLAYER1
  6
CONTINUOUS
 62
     7
 10
373.253635
 20
129.750000
 11
373.200323
 21
128.044028
  0
LINE
  8
CSLAYER1
  6
CONTINUOUS
 62
     7
 10
372.886228
 20
127.500000
 11
373.200323
 21
128.044028
  0
LINE
  8
CSLAYER1
  6
CONTINUOUS
 62
     7
 10
378.124978
 20
128.044028
 11
372.903229
 21
128.044028
  0
LINE
  8
CSLAYER1
  6
CONTINUOUS
 62
     7
 10
383.293416
 20
129.750000
 11
383.363728
 21
127.500000
  0
LINE
  8
CSLAYER1
  6
CONTINUOUS
 62
     7
 10
382.996322
 20
129.750000
 11
383.049634
 21
128.044028
  0
LINE
  8
CSLAYER1
  6
CONTINUOUS
 62
     7
 10
383.363728
 20
127.500000
 11
383.049634
 21
128.044028
  0
LINE
  8
CSLAYER1
  6
CONTINUOUS
 62
     7
 10
378.124978
 20
128.044028
 11
383.346728
 21
128.044028
  0
LINE
  8
CSLAYER1
  6
CONTINUOUS
 62
     7
 10
371.769846
 20
111.250000
 11
384.480111
 21
111.250000
  0
LINE
  8
CSLAYER1
  6
CONTINUOUS
 62
     7
 10
371.553340
 20
111.125000
 11
371.553340
 21
106.500000
  0
LINE
  8
CSLAYER1
  6
CONTINUOUS
 62
     7
 10
372.808411
 20
111.125000
 11
372.808411
 21
106.500000
  0
LINE
  8
CSLAYER1
  6
CONTINUOUS
 62
     7
 10
376.094230
 20
111.125000
 11
376.094230
 21
106.500000
  0
ARC
  8
CSLAYER1
  6
CONTINUOUS
 62
     7
 10
378.124978
 20
94.691748
 40
16.558251
 50
82.955357
 51
97.044643
  0
ARC
  8
CSLAYER1
  6
CONTINUOUS
 62
     7
 10
374.451321
 20
100.390890
 40
10.859109
 50
81.298122
 51
98.701878
  0
ARC
  8
CSLAYER1
  6
CONTINUOUS
 62
     7
 10
372.180875
 20
109.612296
 40
1.637704
 50
67.469193
 51
112.530807
  0
LINE
  8
CSLAYER1
  6
CONTINUOUS
 62
     7
 10
371.553340
 20
111.125000
 11
371.769846
 21
111.250000
  0
LINE
  8
CSLAYER1
  6
CONTINUOUS
 62
     7
 10
384.696617
 20
111.125000
 11
384.696617
 21
106.500000
  0
LINE
  8
CSLAYER1
  6
CONTINUOUS
 62
     7
 10
383.441546
 20
111.125000
 11
383.441546
 21
106.500000
  0
LINE
  8
CSLAYER1
  6
CONTINUOUS
 62
     7
 10
380.155727
 20
111.125000
 11
380.155727
 21
106.500000
  0
ARC
  8
CSLAYER1
  6
CONTINUOUS
 62
     7
 10
381.798636
 20
100.390890
 40
10.859109
 50
81.298122
 51
98.701878
  0
ARC
  8
CSLAYER1
  6
CONTINUOUS
 62
     7
 10
384.069082
 20
109.612296
 40
1.637704
 50
67.469193
 51
112.530807
  0
LINE
  8
CSLAYER1
  6
CONTINUOUS
 62
     7
 10
384.696617
 20
111.125000
 11
384.480111
 21
111.250000
  0
LINE
  8
CSLAYER1
  6
CONTINUOUS
 62
     7
 10
375.281931
 20
100.875000
 11
375.281931
 21
106.125000
  0
LINE
  8
CSLAYER1
  6
CONTINUOUS
 62
     7
 10
370.681784
 20
106.125000
 11
370.681784
 21
100.875000
  0
LINE
  8
CSLAYER1
  6
CONTINUOUS
 62
     7
 10
368.924684
 20
106.125000
 11
368.924684
 21
100.875000
  0
LINE
  8
CSLAYER1
  6
CONTINUOUS
 62
     7
 10
380.968026
 20
100.875000
 11
380.968026
 21
106.125000
  0
ARC
  8
CSLAYER1
  6
CONTINUOUS
 62
     7
 10
369.803234
 20
103.100100
 40
3.149900
 50
73.804625
 51
106.195375
  0
ARC
  8
CSLAYER1
  6
CONTINUOUS
 62
     7
 10
372.981857
 20
85.026145
 40
21.223855
 50
83.778517
 51
96.221483
  0
ARC
  8
CSLAYER1
  6
CONTINUOUS
 62
     7
 10
378.124978
 20
73.855827
 40
32.394173
 50
84.965006
 51
95.034994
  0
ARC
  8
CSLAYER1
  6
CONTINUOUS
 62
     7
 10
369.803234
 20
103.899900
 40
3.149900
 50
253.804625
 51
286.195375
  0
ARC
  8
CSLAYER1
  6
CONTINUOUS
 62
     7
 10
372.981857
 20
121.973854
 40
21.223855
 50
263.778517
 51
276.221483
  0
ARC
  8
CSLAYER1
  6
CONTINUOUS
 62
     7
 10
378.124978
 20
133.144172
 40
32.394173
 50
264.965006
 51
275.034994
  0
LINE
  8
CSLAYER1
  6
CONTINUOUS
 62
     7
 10
368.924684
 20
106.125000
 11
369.141190
 21
106.250000
  0
LINE
  8
CSLAYER1
  6
CONTINUOUS
 62
     7
 10
369.141190
 20
106.250000
 11
378.124978
 21
106.250000
  0
LINE
  8
CSLAYER1
  6
CONTINUOUS
 62
     7
 10
368.924684
 20
100.875000
 11
369.141190
 21
100.750000
  0
LINE
  8
CSLAYER1
  6
CONTINUOUS
 62
     7
 10
369.141190
 20
100.750000
 11
378.124978
 21
100.750000
  0
LINE
  8
CSLAYER1
  6
CONTINUOUS
 62
     7
 10
385.568173
 20
106.125000
 11
385.568173
 21
100.875000
  0
LINE
  8
CSLAYER1
  6
CONTINUOUS
 62
     7
 10
387.325273
 20
106.125000
 11
387.325273
 21
100.875000
  0
ARC
  8
CSLAYER1
  6
CONTINUOUS
 62
     7
 10
386.446723
 20
103.100100
 40
3.149900
 50
73.804625
 51
106.195375
  0
ARC
  8
CSLAYER1
  6
CONTINUOUS
 62
     7
 10
383.268099
 20
85.026145
 40
21.223855
 50
83.778517
 51
96.221483
  0
ARC
  8
CSLAYER1
  6
CONTINUOUS
 62
     7
 10
386.446723
 20
103.899900
 40
3.149900
 50
253.804625
 51
286.195375
  0
ARC
  8
CSLAYER1
  6
CONTINUOUS
 62
     7
 10
383.268099
 20
121.973854
 40
21.223855
 50
263.778517
 51
276.221483
  0
LINE
  8
CSLAYER1
  6
CONTINUOUS
 62
     7
 10
387.325273
 20
106.125000
 11
387.108767
 21
106.250000
  0
LINE
  8
CSLAYER1
  6
CONTINUOUS
 62
     7
 10
387.108767
 20
106.250000
 11
378.124978
 21
106.250000
  0
LINE
  8
CSLAYER1
  6
CONTINUOUS
 62
     7
 10
387.325273
 20
100.875000
 11
387.108767
 21
100.750000
  0
LINE
  8
CSLAYER1
  6
CONTINUOUS
 62
     7
 10
387.108767
 20
100.750000
 11
378.124978
 21
100.750000
  0
LINE
  8
CSLAYER1
  6
CONTINUOUS
 62
     7
 10
371.624978
 20
100.750000
 11
371.743885
 21
95.993752
  0
LINE
  8
CSLAYER1
  6
CONTINUOUS
 62
     7
 10
371.993807
 20
95.750000
 11
378.124978
 21
95.750000
  0
LINE
  8
CSLAYER1
  6
CONTINUOUS
 62
     7
 10
384.624978
 20
100.750000
 11
384.506072
 21
95.993752
  0
LINE
  8
CSLAYER1
  6
CONTINUOUS
 62
     7
 10
384.256150
 20
95.750000
 11
378.124978
 21
95.750000
  0
ARC
  8
CSLAYER1
  6
CONTINUOUS
 62
     7
 10
371.303340
 20
106.500000
 40
0.250000
 50
270.000000
 51
360.000000
  0
ARC
  8
CSLAYER1
  6
CONTINUOUS
 62
     7
 10
384.946617
 20
106.500000
 40
0.250000
 50
180.000000
 51
270.000000
  0
LINE
  8
CSLAYER1
  6
CONTINUOUS
 62
     7
 10
371.553340
 20
106.500000
 11
384.696617
 21
106.500000
  0
ARC
  8
CSLAYER1
  6
CONTINUOUS
 62
     7
 10
371.993807
 20
96.000000
 40
0.250000
 50
181.432096
 51
270.000000
  0
ARC
  8
CSLAYER1
  6
CONTINUOUS
 62
     7
 10
384.256150
 20
96.000000
 40
0.250000
 50
270.000000
 51
358.567904
  0
LINE
  8
CSLAYER1
  6
CONTINUOUS
 62
     7
 10
372.874978
 20
67.250000
 11
372.874978
 21
95.750000
  0
LINE
  8
CSLAYER1
  6
CONTINUOUS
 62
     7
 10
383.374978
 20
67.250000
 11
383.374978
 21
95.750000
  0
ARC
  8
CSLAYER1
  6
CONTINUOUS
 62
     7
 10
378.124978
 20
173.500000
 40
16.875000
 50
-72.003185
 51
252.003185
  0
LINE
  8
CSLAYER1
  6
CONTINUOUS
 62
     7
 10
371.874978
 20
173.500000
 11
371.874978
 21
164.175000
  0
ARC
  8
CSLAYER1
  6
CONTINUOUS
 62
     7
 10
378.124978
 20
173.500000
 40
7.963525
 50
-38.295197
 51
218.295197
  0
ARC
  8
CSLAYER1
  6
CONTINUOUS
 62
     7
 10
378.124978
 20
173.500000
 40
6.565982
 50
-17.847465
 51
197.847465
  0
ARC
  8
CSLAYER1
  6
CONTINUOUS
 62
     7
 10
378.124978
 20
173.500000
 40
6.250000
 50
0.000000
 51
180.000000
  0
LINE
  8
CSLAYER1
  6
CONTINUOUS
 62
     7
 10
383.499712
 20
182.338834
 11
385.231762
 21
185.338834
  0
LINE
  8
CSLAYER1
  6
CONTINUOUS
 62
     7
 10
385.231762
 20
185.338834
 11
388.695864
 21
185.338834
  0
LINE
  8
CSLAYER1
  6
CONTINUOUS
 62
     7
 10
388.695864
 20
185.338834
 11
390.427915
 21
182.338834
  0
LINE
  8
CSLAYER1
  6
CONTINUOUS
 62
     7
 10
390.427915
 20
182.338834
 11
388.695864
 21
179.338834
  0
LINE
  8
CSLAYER1
  6
CONTINUOUS
 62
     7
 10
388.695864
 20
179.338834
 11
385.231762
 21
179.338834
  0
LINE
  8
CSLAYER1
  6
CONTINUOUS
 62
     7
 10
385.231762
 20
179.338834
 11
383.499712
 21
182.338834
  0
CIRCLE
  8
CSLAYER1
  6
CONTINUOUS
 62
     7
 10
386.963813
 20
182.338834
 40
3.000000
  0
LINE
  8
CSLAYER1
  6
CONTINUOUS
 62
     7
 10
365.822042
 20
182.338834
 11
367.554093
 21
185.338834
  0
LINE
  8
CSLAYER1
  6
CONTINUOUS
 62
     7
 10
367.554093
 20
185.338834
 11
371.018194
 21
185.338834
  0
LINE
  8
CSLAYER1
  6
CONTINUOUS
 62
     7
 10
371.018194
 20
185.338834
 11
372.750245
 21
182.338834
  0
LINE
  8
CSLAYER1
  6
CONTINUOUS
 62
     7
 10
372.750245
 20
182.338834
 11
371.018194
 21
179.338834
  0
LINE
  8
CSLAYER1
  6
CONTINUOUS
 62
     7
 10
371.018194
 20
179.338834
 11
367.554093
 21
179.338834
  0
LINE
  8
CSLAYER1
  6
CONTINUOUS
 62
     7
 10
367.554093
 20
179.338834
 11
365.822042
 21
182.338834
  0
CIRCLE
  8
CSLAYER1
  6
CONTINUOUS
 62
     7
 10
369.286144
 20
182.338834
 40
3.000000
  0
LINE
  8
CSLAYER1
  6
CONTINUOUS
 62
     7
 10
365.822042
 20
164.661165
 11
367.554093
 21
167.661165
  0
LINE
  8
CSLAYER1
  6
CONTINUOUS
 62
     7
 10
367.554093
 20
167.661165
 11
371.018194
 21
167.661165
  0
LINE
  8
CSLAYER1
  6
CONTINUOUS
 62
     7
 10
371.018194
 20
167.661165
 11
371.874978
 21
166.177172
  0
LINE
  8
CSLAYER1
  6
CONTINUOUS
 62
     7
 10
371.499978
 20
162.495639
 11
371.018194
 21
161.661165
  0
LINE
  8
CSLAYER1
  6
CONTINUOUS
 62
     7
 10
371.018194
 20
161.661165
 11
367.554093
 21
161.661165
  0
LINE
  8
CSLAYER1
  6
CONTINUOUS
 62
     7
 10
367.554093
 20
161.661165
 11
365.822042
 21
164.661165
  0
ARC
  8
CSLAYER1
  6
CONTINUOUS
 62
     7
 10
369.286144
 20
164.661165
 40
3.000000
 50
30.351136
 51
317.556647
  0
LINE
  8
CSLAYER1
  6
CONTINUOUS
 62
     7
 10
384.374978
 20
166.177172
 11
385.231762
 21
167.661165
  0
LINE
  8
CSLAYER1
  6
CONTINUOUS
 62
     7
 10
385.231762
 20
167.661165
 11
388.695864
 21
167.661165
  0
LINE
  8
CSLAYER1
  6
CONTINUOUS
 62
     7
 10
388.695864
 20
167.661165
 11
390.427915
 21
164.661165
  0
LINE
  8
CSLAYER1
  6
CONTINUOUS
 62
     7
 10
390.427915
 20
164.661165
 11
388.695864
 21
161.661165
  0
LINE
  8
CSLAYER1
  6
CONTINUOUS
 62
     7
 10
388.695864
 20
161.661165
 11
385.231762
 21
161.661165
  0
LINE
  8
CSLAYER1
  6
CONTINUOUS
 62
     7
 10
385.231762
 20
161.661165
 11
384.749978
 21
162.495639
  0
ARC
  8
CSLAYER1
  6
CONTINUOUS
 62
     7
 10
386.963813
 20
164.661165
 40
3.000000
 50
-137.556647
 51
150.000000
  0
ARC
  8
CSLAYER1
  6
CONTINUOUS
 62
     7
 10
378.124978
 20
173.500000
 40
7.292500
 50
-31.013613
 51
211.013613
  0
ARC
  8
CSLAYER1
  6
CONTINUOUS
 62
     7
 10
378.124978
 20
173.500000
 40
7.012500
 50
-26.967285
 51
206.967285
  0
LINE
  8
CSLAYER1
  6
CENTER
 62
     2
 10
358.874978
 20
173.500000
 11
397.374978
 21
173.500000
  0
LINE
  8
CSLAYER1
  6
CENTER
 62
     2
 10
397.374978
 20
67.250000
 11
358.874978
 21
67.250000
  0
ARC
  8
CSLAYER1
  6
CONTINUOUS
 62
     7
 10
378.124978
 20
67.250000
 40
6.000000
 50
-208.955024
 51
28.955024
  0
ARC
  8
CSLAYER1
  6
CONTINUOUS
 62
     7
 10
378.124978
 20
67.250000
 40
5.250000
 50
180.000000
 51
360.000000
  0
ARC
  8
CSLAYER1
  6
CONTINUOUS
 62
     7
 10
378.124978
 20
67.250000
 40
16.875000
 50
-251.873796
 51
71.873796
  0
ARC
  8
CSLAYER1
  6
CONTINUOUS
 62
     7
 10
378.124978
 20
67.250000
 40
16.625000
 50
-251.591520
 51
71.591520
  0
ARC
  8
CSLAYER1
  6
CONTINUOUS
 62
     7
 10
378.124978
 20
67.250000
 40
5.875000
 50
-206.668661
 51
26.668661
  0
LINE
  8
CSLAYER1
  6
CONTINUOUS
 62
     7
 10
383.499712
 20
58.411165
 11
385.231762
 21
55.411165
  0
LINE
  8
CSLAYER1
  6
CONTINUOUS
 62
     7
 10
385.231762
 20
55.411165
 11
388.695864
 21
55.411165
  0
LINE
  8
CSLAYER1
  6
CONTINUOUS
 62
     7
 10
388.695864
 20
55.411165
 11
390.427915
 21
58.411165
  0
LINE
  8
CSLAYER1
  6
CONTINUOUS
 62
     7
 10
390.427915
 20
58.411165
 11
388.695864
 21
61.411165
  0
LINE
  8
CSLAYER1
  6
CONTINUOUS
 62
     7
 10
388.695864
 20
61.411165
 11
385.231762
 21
61.411165
  0
LINE
  8
CSLAYER1
  6
CONTINUOUS
 62
     7
 10
385.231762
 20
61.411165
 11
383.499712
 21
58.411165
  0
CIRCLE
  8
CSLAYER1
  6
CONTINUOUS
 62
     7
 10
386.963813
 20
58.411165
 40
3.000000
  0
CIRCLE
  8
CSLAYER1
  6
CONTINUOUS
 62
     7
 10
386.963813
 20
76.088834
 40
3.000000
  0
LINE
  8
CSLAYER1
  6
CONTINUOUS
 62
     7
 10
388.695864
 20
79.088834
 11
385.231762
 21
79.088834
  0
LINE
  8
CSLAYER1
  6
CONTINUOUS
 62
     7
 10
385.231762
 20
79.088834
 11
383.499712
 21
76.088834
  0
LINE
  8
CSLAYER1
  6
CONTINUOUS
 62
     7
 10
385.231762
 20
73.088834
 11
383.499712
 21
76.088834
  0
LINE
  8
CSLAYER1
  6
CONTINUOUS
 62
     7
 10
388.695864
 20
73.088834
 11
390.427915
 21
76.088834
  0
LINE
  8
CSLAYER1
  6
CONTINUOUS
 62
     7
 10
385.231762
 20
73.088834
 11
388.695864
 21
73.088834
  0
LINE
  8
CSLAYER1
  6
CONTINUOUS
 62
     7
 10
390.427915
 20
76.088834
 11
388.695864
 21
79.088834
  0
ARC
  8
CSLAYER1
  6
CONTINUOUS
 62
     7
 10
378.124978
 20
173.500000
 40
16.375000
 50
-71.341692
 51
90.000000
  0
ARC
  8
CSLAYER1
  6
CONTINUOUS
 62
     7
 10
378.124978
 20
173.500000
 40
16.375000
 50
90.000000
 51
251.341692
  0
LINE
  8
CSLAYER1
  6
CENTER
 62
     2
 10
418.624978
 20
142.875000
 11
365.249978
 21
142.875000
  0
LINE
  8
CSLAYER1
  6
CONTINUOUS
 62
     7
 10
385.687478
 20
129.750000
 11
370.562478
 21
129.750000
  0
LINE
  8
CSLAYER1
  6
CONTINUOUS
 62
     7
 10
385.687478
 20
133.000000
 11
370.562478
 21
133.000000
  0
LINE
  8
CSLAYER1
  6
CONTINUOUS
 62
     7
 10
370.562478
 20
133.000000
 11
370.562478
 21
129.750000
  0
LINE
  8
CSLAYER1
  6
CONTINUOUS
 62
     7
 10
371.105038
 20
133.145377
 11
370.562478
 21
132.999999
  0
LINE
  8
CSLAYER1
  6
CONTINUOUS
 62
     7
 10
385.687478
 20
133.000000
 11
385.687478
 21
129.750000
  0
LINE
  8
CSLAYER1
  6
CONTINUOUS
 62
     7
 10
385.144919
 20
133.145377
 11
385.687479
 21
132.999999
  0
LINE
  8
CSLAYER1
  6
CONTINUOUS
 62
     7
 10
385.687478
 20
156.000000
 11
370.562478
 21
156.000000
  0
LINE
  8
CSLAYER1
  6
CONTINUOUS
 62
     7
 10
385.687478
 20
152.750000
 11
370.562478
 21
152.750000
  0
LINE
  8
CSLAYER1
  6
CONTINUOUS
 62
     7
 10
370.562478
 20
152.750000
 11
370.562478
 21
156.000000
  0
LINE
  8
CSLAYER1
  6
CONTINUOUS
 62
     7
 10
371.105038
 20
152.604622
 11
370.562478
 21
152.750001
  0
LINE
  8
CSLAYER1
  6
CONTINUOUS
 62
     7
 10
385.687478
 20
152.750000
 11
385.687478
 21
156.000000
  0
LINE
  8
CSLAYER1
  6
CONTINUOUS
 62
     7
 10
385.144919
 20
152.604622
 11
385.687479
 21
152.750001
  0
LINE
  8
CSLAYER1
  6
CONTINUOUS
 62
     7
 10
388.374978
 20
149.000000
 11
388.374978
 21
136.750000
  0
LINE
  8
CSLAYER1
  6
CONTINUOUS
 62
     7
 10
387.499978
 20
149.000000
 11
387.499978
 21
136.750000
  0
LINE
  8
CSLAYER1
  6
CONTINUOUS
 62
     7
 10
389.240369
 20
136.750000
 11
387.499978
 21
136.750000
  0
LINE
  8
CSLAYER1
  6
CONTINUOUS
 62
     7
 10
387.499978
 20
137.000000
 11
386.017618
 21
137.000000
  0
LINE
  8
CSLAYER1
  6
CONTINUOUS
 62
     7
 10
387.499978
 20
148.750000
 11
386.017618
 21
148.750000
  0
LINE
  8
CSLAYER1
  6
CONTINUOUS
 62
     7
 10
389.374978
 20
147.075000
 11
389.374978
 21
138.674999
  0
LINE
  8
CSLAYER1
  6
CONTINUOUS
 62
     7
 10
391.499978
 20
147.075000
 11
391.499978
 21
138.674999
  0
LINE
  8
CSLAYER1
  6
CONTINUOUS
 62
     7
 10
397.499978
 20
146.500000
 11
397.499978
 21
139.250000
  0
LINE
  8
CSLAYER1
  6
CONTINUOUS
 62
     7
 10
398.799978
 20
139.250000
 11
397.499978
 21
139.250000
  0
LINE
  8
CSLAYER1
  6
CONTINUOUS
 62
     7
 10
397.499978
 20
139.500000
 11
392.985536
 21
139.500000
  0
LINE
  8
CSLAYER1
  6
CONTINUOUS
 62
     7
 10
391.499978
 20
138.674999
 11
389.374978
 21
138.674999
  0
LINE
  8
CSLAYER1
  6
CONTINUOUS
 62
     7
 10
389.374977
 20
138.674999
 11
389.240368
 21
136.750000
  0
LINE
  8
CSLAYER1
  6
CONTINUOUS
 62
     7
 10
391.499978
 20
140.709938
 11
389.374978
 21
140.709938
  0
LINE
  8
CSLAYER1
  6
CONTINUOUS
 62
     7
 10
398.799978
 20
139.462500
 11
397.499978
 21
139.462500
  0
LINE
  8
CSLAYER1
  6
CONTINUOUS
 62
     7
 10
389.240369
 20
149.000000
 11
387.499978
 21
149.000000
  0
LINE
  8
CSLAYER1
  6
CONTINUOUS
 62
     7
 10
398.799978
 20
146.500000
 11
397.499978
 21
146.500000
  0
LINE
  8
CSLAYER1
  6
CONTINUOUS
 62
     7
 10
397.499978
 20
146.250000
 11
392.985536
 21
146.250000
  0
LINE
  8
CSLAYER1
  6
CONTINUOUS
 62
     7
 10
391.499978
 20
147.075000
 11
389.374978
 21
147.075000
  0
LINE
  8
CSLAYER1
  6
CONTINUOUS
 62
     7
 10
389.374977
 20
147.075001
 11
389.240368
 21
148.999999
  0
LINE
  8
CSLAYER1
  6
CONTINUOUS
 62
     7
 10
391.499978
 20
145.040061
 11
389.374978
 21
145.040061
  0
LINE
  8
CSLAYER1
  6
CONTINUOUS
 62
     7
 10
398.799978
 20
146.287500
 11
397.499978
 21
146.287500
  0
LINE
  8
CSLAYER1
  6
CONTINUOUS
 62
     7
 10
403.799978
 20
147.525001
 11
403.799978
 21
138.224998
  0
LINE
  8
CSLAYER1
  6
CONTINUOUS
 62
     7
 10
398.799978
 20
147.525001
 11
398.799978
 21
138.224998
  0
LINE
  8
CSLAYER1
  6
CONTINUOUS
 62
     7
 10
403.799978
 20
147.525001
 11
398.799978
 21
147.525001
  0
LINE
  8
CSLAYER1
  6
CONTINUOUS
 62
     7
 10
403.799978
 20
138.224998
 11
398.799978
 21
138.224998
  0
LINE
  8
CSLAYER1
  6
CONTINUOUS
 62
     7
 10
403.799978
 20
140.421261
 11
398.799978
 21
140.421261
  0
LINE
  8
CSLAYER1
  6
CONTINUOUS
 62
     7
 10
403.799978
 20
145.328738
 11
398.799978
 21
145.328738
  0
LINE
  8
CSLAYER1
  6
CONTINUOUS
 62
     7
 10
406.608231
 20
145.375000
 11
406.608231
 21
140.375000
  0
LINE
  8
CSLAYER1
  6
CONTINUOUS
 62
     7
 10
408.858233
 20
140.257082
 11
406.608231
 21
140.375000
  0
LINE
  8
CSLAYER1
  6
CONTINUOUS
 62
     7
 10
408.858231
 20
155.309383
 11
408.858231
 21
130.440616
  0
LINE
  8
CSLAYER1
  6
CONTINUOUS
 62
     7
 10
407.058233
 20
140.351414
 11
408.858231
 21
136.660867
  0
LINE
  8
CSLAYER1
  6
CONTINUOUS
 62
     7
 10
409.608231
 20
155.375000
 11
409.608231
 21
130.375000
  0
LINE
  8
CSLAYER1
  6
CONTINUOUS
 62
     7
 10
409.608231
 20
130.375002
 11
408.858231
 21
130.440618
  0
LINE
  8
CSLAYER1
  6
CONTINUOUS
 62
     7
 10
411.358231
 20
132.793327
 11
410.733231
 21
132.793327
  0
LINE
  8
CSLAYER1
  6
CONTINUOUS
 62
     7
 10
410.483231
 20
140.625000
 11
410.483231
 21
137.304309
  0
LINE
  8
CSLAYER1
  6
CONTINUOUS
 62
     7
 10
410.858231
 20
140.875000
 11
410.858231
 21
137.054309
  0
LINE
  8
CSLAYER1
  6
CONTINUOUS
 62
     7
 10
411.858231
 20
140.938508
 11
411.858231
 21
137.554309
  0
LINE
  8
CSLAYER1
  6
CONTINUOUS
 62
     7
 10
412.608231
 20
141.313750
 11
412.608231
 21
137.188400
  0
LINE
  8
CSLAYER1
  6
CONTINUOUS
 62
     7
 10
411.358231
 20
137.054309
 11
410.733231
 21
137.054309
  0
LINE
  8
CSLAYER1
  6
CONTINUOUS
 62
     7
 10
409.608231
 20
133.142602
 11
408.858231
 21
133.208218
  0
LINE
  8
CSLAYER1
  6
CONTINUOUS
 62
     7
 10
411.858231
 20
133.599598
 11
411.858231
 21
133.293327
  0
LINE
  8
CSLAYER1
  6
CONTINUOUS
 62
     7
 10
410.858231
 20
133.327541
 11
410.858231
 21
132.793327
  0
LINE
  8
CSLAYER1
  6
CONTINUOUS
 62
     7
 10
410.483231
 20
133.259693
 11
410.483231
 21
133.043327
  0
LINE
  8
CSLAYER1
  6
CONTINUOUS
 62
     7
 10
411.358231
 20
140.875000
 11
410.733231
 21
140.875000
  0
LINE
  8
CSLAYER1
  6
CONTINUOUS
 62
     7
 10
408.858233
 20
145.492917
 11
406.608231
 21
145.374999
  0
LINE
  8
CSLAYER1
  6
CONTINUOUS
 62
     7
 10
407.058233
 20
145.398585
 11
408.858231
 21
149.089132
  0
LINE
  8
CSLAYER1
  6
CONTINUOUS
 62
     7
 10
409.608231
 20
155.374998
 11
408.858231
 21
155.309381
  0
LINE
  8
CSLAYER1
  6
CONTINUOUS
 62
     7
 10
411.358231
 20
152.956672
 11
410.733231
 21
152.956672
  0
LINE
  8
CSLAYER1
  6
CONTINUOUS
 62
     7
 10
410.483231
 20
145.125000
 11
410.483231
 21
148.445690
  0
LINE
  8
CSLAYER1
  6
CONTINUOUS
 62
     7
 10
410.858231
 20
144.875000
 11
410.858231
 21
148.695690
  0
LINE
  8
CSLAYER1
  6
CONTINUOUS
 62
     7
 10
411.858231
 20
144.811491
 11
411.858231
 21
148.195690
  0
LINE
  8
CSLAYER1
  6
CONTINUOUS
 62
     7
 10
412.608231
 20
144.436249
 11
412.608231
 21
148.561599
  0
LINE
  8
CSLAYER1
  6
CONTINUOUS
 62
     7
 10
411.358231
 20
148.695690
 11
410.733231
 21
148.695690
  0
LINE
  8
CSLAYER1
  6
CONTINUOUS
 62
     7
 10
409.608231
 20
152.607398
 11
408.858231
 21
152.541781
  0
LINE
  8
CSLAYER1
  6
CONTINUOUS
 62
     7
 10
411.858231
 20
152.150402
 11
411.858231
 21
152.456672
  0
LINE
  8
CSLAYER1
  6
CONTINUOUS
 62
     7
 10
410.858231
 20
152.422458
 11
410.858231
 21
152.956672
  0
LINE
  8
CSLAYER1
  6
CONTINUOUS
 62
     7
 10
410.483231
 20
152.490306
 11
410.483231
 21
152.706672
  0
LINE
  8
CSLAYER1
  6
CONTINUOUS
 62
     7
 10
411.358231
 20
144.875000
 11
410.733231
 21
144.875000
  0
LINE
  8
CSLAYER1
  6
CONTINUOUS
 62
     7
 10
406.608231
 20
141.187500
 11
403.799978
 21
141.187500
  0
LINE
  8
CSLAYER1
  6
CONTINUOUS
 62
     7
 10
406.608231
 20
144.562500
 11
403.799978
 21
144.562500
  0
LINE
  8
CSLAYER1
  6
CONTINUOUS
 62
     7
 10
382.022093
 20
133.000000
 11
382.022093
 21
129.750000
  0
LINE
  8
CSLAYER1
  6
CONTINUOUS
 62
     7
 10
374.227864
 20
133.000000
 11
374.227864
 21
129.750000
  0
LINE
  8
CSLAYER1
  6
CONTINUOUS
 62
     7
 10
382.022093
 20
152.750000
 11
382.022093
 21
156.000000
  0
LINE
  8
CSLAYER1
  6
CONTINUOUS
 62
     7
 10
374.227864
 20
152.750000
 11
374.227864
 21
156.000000
  0
LINE
  8
CSLAYER1
  6
CONTINUOUS
 62
     7
 10
389.240369
 20
149.000000
 11
389.240369
 21
136.750000
  0
ARC
  8
CSLAYER1
  6
CONTINUOUS
 62
     7
 10
396.374978
 20
142.875000
 40
26.125000
 50
160.786860
 51
199.211320
  0
ARC
  8
CSLAYER1
  6
CONTINUOUS
 62
     7
 10
370.878572
 20
133.990562
 40
0.875000
 50
-74.999996
 51
19.211340
  0
ARC
  8
CSLAYER1
  6
CONTINUOUS
 62
     7
 10
359.874978
 20
142.875000
 40
26.125000
 50
340.788682
 51
345.522494
  0
ARC
  8
CSLAYER1
  6
CONTINUOUS
 62
     7
 10
385.371385
 20
133.990562
 40
0.875000
 50
160.788660
 51
255.000000
  0
ARC
  8
CSLAYER1
  6
CONTINUOUS
 62
     7
 10
370.878572
 20
151.759437
 40
0.875000
 50
-19.211318
 51
74.999990
  0
ARC
  8
CSLAYER1
  6
CONTINUOUS
 62
     7
 10
385.371385
 20
151.759437
 40
0.875000
 50
105.000010
 51
199.211320
  0
ARC
  8
CSLAYER1
  6
CONTINUOUS
 62
     7
 10
386.017618
 20
136.125000
 40
0.875000
 50
89.999910
 51
165.522460
  0
ARC
  8
CSLAYER1
  6
CONTINUOUS
 62
     7
 10
359.874978
 20
142.875000
 40
26.125000
 50
14.477520
 51
19.211340
  0
ARC
  8
CSLAYER1
  6
CONTINUOUS
 62
     7
 10
386.017618
 20
149.625000
 40
0.875000
 50
194.477560
 51
270.000091
  0
ARC
  8
CSLAYER1
  6
CONTINUOUS
 62
     7
 10
392.985536
 20
137.750000
 40
1.750000
 50
89.999980
 51
148.091080
  0
ARC
  8
CSLAYER1
  6
CONTINUOUS
 62
     7
 10
392.985536
 20
148.000000
 40
1.750000
 50
211.908910
 51
270.000019
  0
ARC
  8
CSLAYER1
  6
CONTINUOUS
 62
     7
 10
411.358231
 20
133.293327
 40
0.500000
 50
270.000000
 51
359.999982
  0
ARC
  8
CSLAYER1
  6
CONTINUOUS
 62
     7
 10
410.733231
 20
133.043327
 40
0.250000
 50
180.000020
 51
270.000000
  0
ARC
  8
CSLAYER1
  6
CONTINUOUS
 62
     7
 10
411.358231
 20
137.554309
 40
0.500000
 50
270.000000
 51
359.999982
  0
ARC
  8
CSLAYER1
  6
CONTINUOUS
 62
     7
 10
410.733231
 20
137.304309
 40
0.250000
 50
180.000020
 51
270.000000
  0
ARC
  8
CSLAYER1
  6
CONTINUOUS
 62
     7
 10
408.222908
 20
146.822636
 40
13.750000
 50
275.782404
 51
283.073225
  0
ARC
  8
CSLAYER1
  6
CONTINUOUS
 62
     7
 10
410.673131
 20
136.355598
 40
3.000000
 50
282.698848
 51
312.599244
  0
ARC
  8
CSLAYER1
  6
CONTINUOUS
 62
     7
 10
411.358231
 20
135.627151
 40
2.000000
 50
-47.721556
 51
51.317820
  0
ARC
  8
CSLAYER1
  6
CONTINUOUS
 62
     7
 10
411.358231
 20
142.875000
 40
2.000000
 50
-90.000000
 51
90.000020
  0
ARC
  8
CSLAYER1
  6
CONTINUOUS
 62
     7
 10
410.733231
 20
140.625000
 40
0.250000
 50
90.000020
 51
180.000000
  0
ARC
  8
CSLAYER1
  6
CONTINUOUS
 62
     7
 10
411.358231
 20
152.456672
 40
0.500000
 50
0.000037
 51
90.000020
  0
ARC
  8
CSLAYER1
  6
CONTINUOUS
 62
     7
 10
410.733231
 20
152.706672
 40
0.250000
 50
90.000020
 51
180.000000
  0
ARC
  8
CSLAYER1
  6
CONTINUOUS
 62
     7
 10
411.358231
 20
148.195690
 40
0.500000
 50
0.000037
 51
90.000020
  0
ARC
  8
CSLAYER1
  6
CONTINUOUS
 62
     7
 10
410.733231
 20
148.445690
 40
0.250000
 50
90.000020
 51
180.000000
  0
ARC
  8
CSLAYER1
  6
CONTINUOUS
 62
     7
 10
408.222908
 20
138.927363
 40
13.750000
 50
76.926760
 51
84.217580
  0
ARC
  8
CSLAYER1
  6
CONTINUOUS
 62
     7
 10
410.673131
 20
149.394401
 40
3.000000
 50
47.400730
 51
77.301170
  0
ARC
  8
CSLAYER1
  6
CONTINUOUS
 62
     7
 10
411.358231
 20
150.122848
 40
2.000000
 50
-51.317814
 51
47.721530
  0
ARC
  8
CSLAYER1
  6
CONTINUOUS
 62
     7
 10
410.733231
 20
145.125000
 40
0.250000
 50
180.000020
 51
269.999980
  0
ARC
  8
CSLAYER1
  6
CONTINUOUS
 62
     7
 10
408.222908
 20
144.055036
 40
13.750000
 50
275.782404
 51
283.073225
  0
ARC
  8
CSLAYER1
  6
CONTINUOUS
 62
     7
 10
410.673131
 20
133.587997
 40
3.000000
 50
282.698848
 51
312.599244
  0
ARC
  8
CSLAYER1
  6
CONTINUOUS
 62
     7
 10
411.358231
 20
132.859550
 40
2.000000
 50
-47.721556
 51
43.780730
  0
ARC
  8
CSLAYER1
  6
CONTINUOUS
 62
     7
 10
408.222908
 20
141.694964
 40
13.750000
 50
76.926760
 51
84.217580
  0
ARC
  8
CSLAYER1
  6
CONTINUOUS
 62
     7
 10
410.673131
 20
152.162002
 40
3.000000
 50
47.400730
 51
77.301170
  0
ARC
  8
CSLAYER1
  6
CONTINUOUS
 62
     7
 10
411.358231
 20
152.890449
 40
2.000000
 50
-43.780728
 51
47.721530
  0
ARC
  8
CSLAYER1
  6
CONTINUOUS
 62
     7
 10
393.146852
 20
142.875000
 40
9.777828
 50
143.069240
 51
216.930720
  0
LINE
  8
CSLAYER1
  6
CONTINUOUS
 62
     7
 10
372.886228
 20
158.250000
 11
372.886228
 21
159.750000
  0
LINE
  8
CSLAYER1
  6
CONTINUOUS
 62
     7
 10
372.956541
 20
162.000000
 11
372.886228
 21
159.750000
  0
LINE
  8
CSLAYER1
  6
CONTINUOUS
 62
     7
 10
373.253635
 20
162.000000
 11
373.200323
 21
160.294028
  0
LINE
  8
CSLAYER1
  6
CONTINUOUS
 62
     7
 10
372.886228
 20
159.750000
 11
373.200323
 21
160.294028
  0
LINE
  8
CSLAYER1
  6
CONTINUOUS
 62
     7
 10
378.124978
 20
160.294028
 11
372.903229
 21
160.294028
  0
LINE
  8
CSLAYER1
  6
CONTINUOUS
 62
     7
 10
383.363728
 20
158.250000
 11
383.363728
 21
159.750000
  0
LINE
  8
CSLAYER1
  6
CONTINUOUS
 62
     7
 10
383.293416
 20
162.000000
 11
383.363728
 21
159.750000
  0
LINE
  8
CSLAYER1
  6
CONTINUOUS
 62
     7
 10
382.996322
 20
162.000000
 11
383.049634
 21
160.294028
  0
LINE
  8
CSLAYER1
  6
CONTINUOUS
 62
     7
 10
383.363728
 20
159.750000
 11
383.049634
 21
160.294028
  0
LINE
  8
CSLAYER1
  6
CONTINUOUS
 62
     7
 10
378.124978
 20
160.294028
 11
383.346728
 21
160.294028
  0
LINE
  8
CSLAYER1
  6
CONTINUOUS
 62
     7
 10
372.956541
 20
156.000000
 11
372.886228
 21
158.250000
  0
LINE
  8
CSLAYER1
  6
CONTINUOUS
 62
     7
 10
373.253635
 20
156.000000
 11
373.200323
 21
157.705972
  0
LINE
  8
CSLAYER1
  6
CONTINUOUS
 62
     7
 10
372.886228
 20
158.250000
 11
373.200323
 21
157.705972
  0
LINE
  8
CSLAYER1
  6
CONTINUOUS
 62
     7
 10
378.124978
 20
157.705972
 11
372.903229
 21
157.705972
  0
LINE
  8
CSLAYER1
  6
CONTINUOUS
 62
     7
 10
383.293416
 20
156.000000
 11
383.363728
 21
158.250000
  0
LINE
  8
CSLAYER1
  6
CONTINUOUS
 62
     7
 10
382.996322
 20
156.000000
 11
383.049634
 21
157.705972
  0
LINE
  8
CSLAYER1
  6
CONTINUOUS
 62
     7
 10
383.363728
 20
158.250000
 11
383.049634
 21
157.705972
  0
LINE
  8
CSLAYER1
  6
CONTINUOUS
 62
     7
 10
378.124978
 20
157.705972
 11
383.346728
 21
157.705972
  0
LINE
  8
CSLAYER1
  6
CONTINUOUS
 62
     7
 10
77.999978
 20
149.500000
 11
77.999978
 21
140.375000
  0
LINE
  8
CSLAYER1
  6
CONTINUOUS
 62
     7
 10
89.687478
 20
140.000000
 11
89.687478
 21
139.500000
  0
LINE
  8
CSLAYER1
  6
CONTINUOUS
 62
     7
 10
93.874978
 20
153.531250
 11
93.874978
 21
173.500000
  0
LINE
  8
CSLAYER1
  6
CONTINUOUS
 62
     7
 10
77.999978
 20
130.500000
 11
77.999978
 21
139.125000
  0
LINE
  8
CSLAYER1
  6
CONTINUOUS
 62
     7
 10
94.249978
 20
122.500000
 11
94.249978
 21
97.500000
  0
LINE
  8
CSLAYER1
  6
CONTINUOUS
 62
     7
 10
100.124978
 20
36.375000
 11
100.124978
 21
44.500000
  0
LINE
  8
CSLAYER1
  6
CENTER
 62
     2
 10
105.749978
 20
31.000000
 11
105.749978
 21
50.000000
  0
LINE
  8
CSLAYER1
  6
CONTINUOUS
 62
     7
 10
112.249978
 20
47.000000
 11
112.249978
 21
67.250000
  0
ARC
  8
CSLAYER1
  6
CONTINUOUS
 62
     7
 10
110.249978
 20
47.000000
 40
2.000000
 50
270.000000
 51
360.000000
  0
ARC
  8
CSLAYER1
  6
CONTINUOUS
 62
     7
 10
106.749978
 20
97.500000
 40
12.500000
 50
180.000000
 51
270.000000
  0
ARC
  8
CSLAYER1
  6
CONTINUOUS
 62
     7
 10
108.749978
 20
81.500000
 40
3.500000
 50
0.000000
 51
90.000000
  0
LINE
  8
CSLAYER1
  6
CONTINUOUS
 62
     7
 10
78.249978
 20
173.500000
 11
78.249978
 21
190.375000
  0
LINE
  8
CSLAYER1
  6
CONTINUOUS
 62
     7
 10
83.249978
 20
173.500000
 11
83.249978
 21
189.875000
  0
LINE
  8
CSLAYER1
  6
CONTINUOUS
 62
     7
 10
90.874978
 20
181.500000
 11
89.999978
 21
181.500000
  0
LINE
  8
CSLAYER1
  6
CONTINUOUS
 62
     7
 10
93.874978
 20
173.500000
 11
93.874978
 21
201.250000
  0
LINE
  8
CSLAYER1
  6
CONTINUOUS
 62
     7
 10
82.749978
 20
190.375000
 11
78.499978
 21
190.375000
  0
LINE
  8
CSLAYER1
  6
CONTINUOUS
 62
     7
 10
82.749978
 20
190.375000
 11
83.249978
 21
189.875000
  0
ARC
  8
CSLAYER1
  6
CONTINUOUS
 62
     7
 10
90.874978
 20
184.500000
 40
3.000000
 50
270.000000
 51
360.000000
  0
LINE
  8
CSLAYER1
  6
CONTINUOUS
 62
     7
 10
78.249978
 20
173.500000
 11
78.249978
 21
156.625000
  0
LINE
  8
CSLAYER1
  6
CONTINUOUS
 62
     7
 10
83.249978
 20
173.500000
 11
83.249978
 21
157.125000
  0
LINE
  8
CSLAYER1
  6
CONTINUOUS
 62
     7
 10
90.874978
 20
165.500000
 11
89.999978
 21
165.500000
  0
LINE
  8
CSLAYER1
  6
CONTINUOUS
 62
     7
 10
82.749978
 20
156.625000
 11
78.499978
 21
156.625000
  0
LINE
  8
CSLAYER1
  6
CONTINUOUS
 62
     7
 10
82.749978
 20
156.625000
 11
83.249978
 21
157.125000
  0
ARC
  8
CSLAYER1
  6
CONTINUOUS
 62
     7
 10
90.874978
 20
162.500000
 40
3.000000
 50
0.000000
 51
90.000000
  0
LINE
  8
CSLAYER1
  6
CONTINUOUS
 62
     7
 10
96.374978
 20
50.875000
 11
96.374978
 21
67.250000
  0
LINE
  8
CSLAYER1
  6
CONTINUOUS
 62
     7
 10
109.249978
 20
59.500000
 11
102.624978
 21
59.500000
  0
LINE
  8
CSLAYER1
  6
CONTINUOUS
 62
     7
 10
112.249978
 20
67.250000
 11
112.249978
 21
81.500000
  0
LINE
  8
CSLAYER1
  6
CONTINUOUS
 62
     7
 10
95.874978
 20
50.375000
 11
91.624978
 21
50.375000
  0
ARC
  8
CSLAYER1
  6
CONTINUOUS
 62
     7
 10
109.249978
 20
56.500000
 40
3.000000
 50
0.000000
 51
90.000000
  0
LINE
  8
CSLAYER1
  6
CONTINUOUS
 62
     7
 10
96.374978
 20
83.625000
 11
96.374978
 21
67.250000
  0
LINE
  8
CSLAYER1
  6
CONTINUOUS
 62
     7
 10
109.249978
 20
75.000000
 11
102.624978
 21
75.000000
  0
LINE
  8
CSLAYER1
  6
CONTINUOUS
 62
     7
 10
95.874978
 20
84.125000
 11
91.624978
 21
84.125000
  0
ARC
  8
CSLAYER1
  6
CONTINUOUS
 62
     7
 10
109.249978
 20
78.000000
 40
3.000000
 50
270.000000
 51
360.000000
  0
LINE
  8
CSLAYER1
  6
CONTINUOUS
 62
     7
 10
96.374978
 20
83.625000
 11
95.874978
 21
84.125000
  0
LINE
  8
CSLAYER1
  6
CONTINUOUS
 62
     7
 10
104.999978
 20
75.750000
 11
104.999978
 21
85.123106
  0
ARC
  8
CSLAYER1
  6
CONTINUOUS
 62
     7
 10
104.249978
 20
75.750000
 40
0.750000
 50
270.000000
 51
360.000000
  0
LINE
  8
CSLAYER1
  6
CONTINUOUS
 62
     7
 10
77.999978
 20
130.500000
 11
78.499978
 21
130.000000
  0
LINE
  8
CSLAYER1
  6
CONTINUOUS
 62
     7
 10
78.374978
 20
139.500000
 11
77.999978
 21
139.125000
  0
LINE
  8
CSLAYER1
  6
CONTINUOUS
 62
     7
 10
91.624978
 20
84.125000
 11
91.374978
 21
83.875000
  0
LINE
  8
CSLAYER1
  6
CONTINUOUS
 62
     7
 10
91.374978
 20
50.625000
 11
91.624978
 21
50.375000
  0
LINE
  8
CSLAYER1
  6
CONTINUOUS
 62
     7
 10
100.624978
 20
45.000000
 11
100.124978
 21
44.500000
  0
LINE
  8
CSLAYER1
  6
CONTINUOUS
 62
     7
 10
100.124978
 20
36.375000
 11
100.499978
 21
36.000000
  0
LINE
  8
CSLAYER1
  6
CONTINUOUS
 62
     7
 10
78.499978
 20
150.000000
 11
77.999978
 21
149.500000
  0
LINE
  8
CSLAYER1
  6
CONTINUOUS
 62
     7
 10
77.999978
 20
140.375000
 11
78.374978
 21
140.000000
  0
LINE
  8
CSLAYER1
  6
CONTINUOUS
 62
     7
 10
78.249978
 20
156.875000
 11
78.499978
 21
156.625000
  0
LINE
  8
CSLAYER1
  6
CONTINUOUS
 62
     7
 10
78.499978
 20
190.375000
 11
78.249978
 21
190.125000
  0
LINE
  8
CSLAYER1
  6
CENTER
 62
     2
 10
54.999978
 20
85.000000
 11
54.999978
 21
156.761250
  0
LINE
  8
CSLAYER1
  6
CONTINUOUS
 62
     7
 10
60.168416
 20
111.250000
 11
60.238728
 21
113.500000
  0
LINE
  8
CSLAYER1
  6
CONTINUOUS
 62
     7
 10
59.871322
 20
111.250000
 11
59.924634
 21
112.955972
  0
LINE
  8
CSLAYER1
  6
CONTINUOUS
 62
     7
 10
60.238728
 20
113.500000
 11
60.238728
 21
127.500000
  0
LINE
  8
CSLAYER1
  6
CONTINUOUS
 62
     7
 10
60.238728
 20
113.500000
 11
59.924634
 21
112.955972
  0
LINE
  8
CSLAYER1
  6
CONTINUOUS
 62
     7
 10
54.999978
 20
112.955972
 11
60.221728
 21
112.955972
  0
LINE
  8
CSLAYER1
  6
CONTINUOUS
 62
     7
 10
49.831541
 20
111.250000
 11
49.761228
 21
113.500000
  0
LINE
  8
CSLAYER1
  6
CONTINUOUS
 62
     7
 10
50.128635
 20
111.250000
 11
50.075323
 21
112.955972
  0
LINE
  8
CSLAYER1
  6
CONTINUOUS
 62
     7
 10
49.761228
 20
113.500000
 11
50.075323
 21
112.955972
  0
LINE
  8
CSLAYER1
  6
CONTINUOUS
 62
     7
 10
54.999978
 20
112.955972
 11
49.778229
 21
112.955972
  0
LINE
  8
CSLAYER1
  6
CONTINUOUS
 62
     7
 10
49.761228
 20
113.500000
 11
49.761228
 21
127.500000
  0
LINE
  8
CSLAYER1
  6
CENTER
 62
     2
 10
54.999978
 20
180.885890
 11
54.999978
 21
156.761250
  0
LINE
  8
CSLAYER1
  6
CONTINUOUS
 62
     7
 10
66.499978
 20
179.950000
 11
66.499978
 21
167.050000
  0
LINE
  8
CSLAYER1
  6
CONTINUOUS
 62
     7
 10
61.624978
 20
162.000000
 11
48.374978
 21
162.000000
  0
LINE
  8
CSLAYER1
  6
CONTINUOUS
 62
     3
 10
64.499978
 20
179.950000
 11
64.499978
 21
179.925000
  0
LINE
  8
CSLAYER1
  6
CONTINUOUS
 62
     7
 10
66.324978
 20
166.875000
 11
64.674978
 21
166.875000
  0
LINE
  8
CSLAYER1
  6
CONTINUOUS
 62
     7
 10
61.624978
 20
163.825000
 11
61.624978
 21
162.000000
  0
LINE
  8
CSLAYER1
  6
CONTINUOUS
 62
     7
 10
48.374978
 20
163.825000
 11
48.374978
 21
162.000000
  0
LINE
  8
CSLAYER1
  6
CONTINUOUS
 62
     7
 10
66.324978
 20
180.125000
 11
64.674978
 21
180.125000
  0
LINE
  8
CSLAYER1
  6
CONTINUOUS
 62
     7
 10
64.324978
 20
167.250000
 11
63.749978
 21
167.250000
  0
LINE
  8
CSLAYER1
  6
CONTINUOUS
 62
     7
 10
61.249978
 20
164.750000
 11
61.249978
 21
164.175000
  0
LINE
  8
CSLAYER1
  6
CONTINUOUS
 62
     7
 10
64.324978
 20
179.750000
 11
61.249978
 21
179.750000
  0
LINE
  8
CSLAYER1
  6
CONTINUOUS
 62
     7
 10
48.749978
 20
167.250000
 11
48.749978
 21
164.175000
  0
LINE
  8
CSLAYER1
  6
CONTINUOUS
 62
     3
 10
48.574978
 20
164.000000
 11
48.549978
 21
164.000000
  0
ARC
  8
CSLAYER1
  6
CONTINUOUS
 62
     7
 10
63.749978
 20
164.750000
 40
2.500000
 50
90.000000
 51
180.000000
  0
ARC
  8
CSLAYER1
  6
CONTINUOUS
 62
     7
 10
61.249978
 20
167.250000
 40
12.500000
 50
90.000000
 51
180.000000
  0
ARC
  8
CSLAYER1
  6
CONTINUOUS
 62
     7
 10
48.574978
 20
164.175000
 40
0.175000
 50
270.000000
 51
360.000000
  0
ARC
  8
CSLAYER1
  6
CONTINUOUS
 62
     7
 10
48.549978
 20
163.825000
 40
0.175000
 50
90.000000
 51
180.000000
  0
ARC
  8
CSLAYER1
  6
CONTINUOUS
 62
     7
 10
64.324978
 20
179.925000
 40
0.175000
 50
270.000000
 51
360.000000
  0
ARC
  8
CSLAYER1
  6
CONTINUOUS
 62
     7
 10
64.674978
 20
179.950000
 40
0.175000
 50
90.000000
 51
180.000000
  0
ARC
  8
CSLAYER1
  6
CONTINUOUS
 62
     7
 10
66.324978
 20
179.950000
 40
0.175000
 50
0.000000
 51
90.000000
  0
ARC
  8
CSLAYER1
  6
CONTINUOUS
 62
     7
 10
66.324978
 20
167.050000
 40
0.175000
 50
270.000000
 51
360.000000
  0
LINE
  8
CSLAYER1
  6
CONTINUOUS
 62
     7
 10
64.499978
 20
167.050000
 11
64.499978
 21
167.075000
  0
ARC
  8
CSLAYER1
  6
CONTINUOUS
 62
     7
 10
64.324978
 20
167.075000
 40
0.175000
 50
0.000000
 51
90.000000
  0
ARC
  8
CSLAYER1
  6
CONTINUOUS
 62
     7
 10
64.674978
 20
167.050000
 40
0.175000
 50
180.000000
 51
270.000000
  0
LINE
  8
CSLAYER1
  6
CONTINUOUS
 62
     3
 10
61.449978
 20
164.000000
 11
61.424978
 21
164.000000
  0
ARC
  8
CSLAYER1
  6
CONTINUOUS
 62
     7
 10
61.424978
 20
164.175000
 40
0.175000
 50
180.000000
 51
270.000000
  0
ARC
  8
CSLAYER1
  6
CONTINUOUS
 62
     7
 10
61.449978
 20
163.825000
 40
0.175000
 50
0.000000
 51
90.000000
  0
LINE
  8
CSLAYER1
  6
CONTINUOUS
 62
     7
 10
73.749978
 20
189.875000
 11
73.749978
 21
173.500000
  0
LINE
  8
CSLAYER1
  6
CONTINUOUS
 62
     7
 10
77.749978
 20
182.875000
 11
77.749978
 21
173.500000
  0
LINE
  8
CSLAYER1
  6
CONTINUOUS
 62
     7
 10
77.249978
 20
183.000000
 11
77.624978
 21
183.000000
  0
LINE
  8
CSLAYER1
  6
CONTINUOUS
 62
     7
 10
74.249978
 20
190.375000
 11
76.999978
 21
190.375000
  0
LINE
  8
CSLAYER1
  6
CONTINUOUS
 62
     7
 10
77.624978
 20
183.000000
 11
77.749978
 21
182.875000
  0
LINE
  8
CSLAYER1
  6
CONTINUOUS
 62
     7
 10
73.749978
 20
157.125000
 11
73.749978
 21
173.500000
  0
LINE
  8
CSLAYER1
  6
CONTINUOUS
 62
     7
 10
77.749978
 20
164.125000
 11
77.749978
 21
173.500000
  0
LINE
  8
CSLAYER1
  6
CONTINUOUS
 62
     7
 10
77.249978
 20
156.875000
 11
77.249978
 21
173.500000
  0
LINE
  8
CSLAYER1
  6
CONTINUOUS
 62
     7
 10
77.249978
 20
164.000000
 11
77.624978
 21
164.000000
  0
LINE
  8
CSLAYER1
  6
CONTINUOUS
 62
     7
 10
74.249978
 20
156.625000
 11
76.999978
 21
156.625000
  0
LINE
  8
CSLAYER1
  6
CONTINUOUS
 62
     7
 10
77.624978
 20
164.000000
 11
77.749978
 21
164.125000
  0
LINE
  8
CSLAYER1
  6
CONTINUOUS
 62
     7
 10
72.499978
 20
178.874733
 11
72.499978
 21
173.500000
  0
LINE
  8
CSLAYER1
  6
CONTINUOUS
 62
     7
 10
72.499978
 20
168.125267
 11
72.499978
 21
173.500000
  0
ARC
  8
CSLAYER1
  6
CONTINUOUS
 62
     7
 10
74.249978
 20
189.875000
 40
0.500000
 50
90.000000
 51
180.000000
  0
ARC
  8
CSLAYER1
  6
CONTINUOUS
 62
     7
 10
76.999978
 20
190.125000
 40
0.250000
 50
0.000000
 51
90.000000
  0
ARC
  8
CSLAYER1
  6
CONTINUOUS
 62
     7
 10
76.999978
 20
156.875000
 40
0.250000
 50
270.000000
 51
360.000000
  0
ARC
  8
CSLAYER1
  6
CONTINUOUS
 62
     7
 10
74.249978
 20
157.125000
 40
0.500000
 50
180.000000
 51
270.000000
  0
LINE
  8
CSLAYER1
  6
CONTINUOUS
 62
     7
 10
77.749978
 20
173.500000
 11
77.749978
 21
190.375000
  0
LINE
  8
CSLAYER1
  6
CONTINUOUS
 62
     7
 10
78.249978
 20
190.375000
 11
77.749978
 21
190.375000
  0
LINE
  8
CSLAYER1
  6
CONTINUOUS
 62
     7
 10
78.249978
 20
156.625000
 11
77.749978
 21
156.625000
  0
LINE
  8
CSLAYER1
  6
CONTINUOUS
 62
     7
 10
77.749978
 20
173.500000
 11
77.749978
 21
156.625000
  0
LINE
  8
CSLAYER1
  6
CONTINUOUS
 62
     7
 10
60.168416
 20
129.750000
 11
60.238728
 21
127.500000
  0
LINE
  8
CSLAYER1
  6
CONTINUOUS
 62
     7
 10
59.871322
 20
129.750000
 11
59.924634
 21
128.044028
  0
LINE
  8
CSLAYER1
  6
CONTINUOUS
 62
     7
 10
60.238728
 20
127.500000
 11
59.924634
 21
128.044028
  0
LINE
  8
CSLAYER1
  6
CONTINUOUS
 62
     7
 10
54.999978
 20
128.044028
 11
60.221728
 21
128.044028
  0
LINE
  8
CSLAYER1
  6
CONTINUOUS
 62
     7
 10
49.831541
 20
129.750000
 11
49.761228
 21
127.500000
  0
LINE
  8
CSLAYER1
  6
CONTINUOUS
 62
     7
 10
50.128635
 20
129.750000
 11
50.075323
 21
128.044028
  0
LINE
  8
CSLAYER1
  6
CONTINUOUS
 62
     7
 10
49.761228
 20
127.500000
 11
50.075323
 21
128.044028
  0
LINE
  8
CSLAYER1
  6
CONTINUOUS
 62
     7
 10
54.999978
 20
128.044028
 11
49.778229
 21
128.044028
  0
LINE
  8
CSLAYER1
  6
CONTINUOUS
 62
     7
 10
61.355111
 20
111.250000
 11
48.644846
 21
111.250000
  0
LINE
  8
CSLAYER1
  6
CONTINUOUS
 62
     7
 10
61.571617
 20
111.125000
 11
61.571617
 21
106.500000
  0
LINE
  8
CSLAYER1
  6
CONTINUOUS
 62
     7
 10
60.316546
 20
111.125000
 11
60.316546
 21
106.500000
  0
LINE
  8
CSLAYER1
  6
CONTINUOUS
 62
     7
 10
57.030727
 20
111.125000
 11
57.030727
 21
106.500000
  0
ARC
  8
CSLAYER1
  6
CONTINUOUS
 62
     7
 10
54.999978
 20
94.691748
 40
16.558251
 50
82.955357
 51
97.044643
  0
ARC
  8
CSLAYER1
  6
CONTINUOUS
 62
     7
 10
58.673636
 20
100.390890
 40
10.859109
 50
81.298122
 51
98.701878
  0
ARC
  8
CSLAYER1
  6
CONTINUOUS
 62
     7
 10
60.944082
 20
109.612296
 40
1.637704
 50
67.469193
 51
112.530807
  0
LINE
  8
CSLAYER1
  6
CONTINUOUS
 62
     7
 10
61.571617
 20
111.125000
 11
61.355111
 21
111.250000
  0
LINE
  8
CSLAYER1
  6
CONTINUOUS
 62
     7
 10
48.428340
 20
111.125000
 11
48.428340
 21
106.500000
  0
LINE
  8
CSLAYER1
  6
CONTINUOUS
 62
     7
 10
49.683411
 20
111.125000
 11
49.683411
 21
106.500000
  0
LINE
  8
CSLAYER1
  6
CONTINUOUS
 62
     7
 10
52.969230
 20
111.125000
 11
52.969230
 21
106.500000
  0
ARC
  8
CSLAYER1
  6
CONTINUOUS
 62
     7
 10
51.326321
 20
100.390890
 40
10.859109
 50
81.298122
 51
98.701878
  0
ARC
  8
CSLAYER1
  6
CONTINUOUS
 62
     7
 10
49.055875
 20
109.612296
 40
1.637704
 50
67.469193
 51
112.530807
  0
LINE
  8
CSLAYER1
  6
CONTINUOUS
 62
     7
 10
48.428340
 20
111.125000
 11
48.644846
 21
111.250000
  0
LINE
  8
CSLAYER1
  6
CONTINUOUS
 62
     7
 10
57.843026
 20
100.875000
 11
57.843026
 21
106.125000
  0
LINE
  8
CSLAYER1
  6
CONTINUOUS
 62
     7
 10
62.443173
 20
106.125000
 11
62.443173
 21
100.875000
  0
LINE
  8
CSLAYER1
  6
CONTINUOUS
 62
     7
 10
64.200273
 20
106.125000
 11
64.200273
 21
100.875000
  0
LINE
  8
CSLAYER1
  6
CONTINUOUS
 62
     7
 10
52.156931
 20
100.875000
 11
52.156931
 21
106.125000
  0
ARC
  8
CSLAYER1
  6
CONTINUOUS
 62
     7
 10
63.321723
 20
103.100100
 40
3.149900
 50
73.804625
 51
106.195375
  0
ARC
  8
CSLAYER1
  6
CONTINUOUS
 62
     7
 10
60.143099
 20
85.026145
 40
21.223855
 50
83.778517
 51
96.221483
  0
ARC
  8
CSLAYER1
  6
CONTINUOUS
 62
     7
 10
54.999978
 20
73.855827
 40
32.394173
 50
84.965006
 51
95.034994
  0
ARC
  8
CSLAYER1
  6
CONTINUOUS
 62
     7
 10
63.321723
 20
103.899900
 40
3.149900
 50
253.804625
 51
286.195375
  0
ARC
  8
CSLAYER1
  6
CONTINUOUS
 62
     7
 10
60.143099
 20
121.973854
 40
21.223855
 50
263.778517
 51
276.221483
  0
ARC
  8
CSLAYER1
  6
CONTINUOUS
 62
     7
 10
54.999978
 20
133.144172
 40
32.394173
 50
264.965006
 51
275.034994
  0
LINE
  8
CSLAYER1
  6
CONTINUOUS
 62
     7
 10
64.200273
 20
106.125000
 11
63.983767
 21
106.250000
  0
LINE
  8
CSLAYER1
  6
CONTINUOUS
 62
     7
 10
63.983767
 20
106.250000
 11
54.999978
 21
106.250000
  0
LINE
  8
CSLAYER1
  6
CONTINUOUS
 62
     7
 10
64.200273
 20
100.875000
 11
63.983767
 21
100.750000
  0
LINE
  8
CSLAYER1
  6
CONTINUOUS
 62
     7
 10
63.983767
 20
100.750000
 11
54.999978
 21
100.750000
  0
LINE
  8
CSLAYER1
  6
CONTINUOUS
 62
     7
 10
47.556784
 20
106.125000
 11
47.556784
 21
100.875000
  0
LINE
  8
CSLAYER1
  6
CONTINUOUS
 62
     7
 10
45.799684
 20
106.125000
 11
45.799684
 21
100.875000
  0
ARC
  8
CSLAYER1
  6
CONTINUOUS
 62
     7
 10
46.678234
 20
103.100100
 40
3.149900
 50
73.804625
 51
106.195375
  0
ARC
  8
CSLAYER1
  6
CONTINUOUS
 62
     7
 10
49.856857
 20
85.026145
 40
21.223855
 50
83.778517
 51
96.221483
  0
ARC
  8
CSLAYER1
  6
CONTINUOUS
 62
     7
 10
46.678234
 20
103.899900
 40
3.149900
 50
253.804625
 51
286.195375
  0
ARC
  8
CSLAYER1
  6
CONTINUOUS
 62
     7
 10
49.856857
 20
121.973854
 40
21.223855
 50
263.778517
 51
276.221483
  0
LINE
  8
CSLAYER1
  6
CONTINUOUS
 62
     7
 10
45.799684
 20
106.125000
 11
46.016190
 21
106.250000
  0
LINE
  8
CSLAYER1
  6
CONTINUOUS
 62
     7
 10
46.016190
 20
106.250000
 11
54.999978
 21
106.250000
  0
LINE
  8
CSLAYER1
  6
CONTINUOUS
 62
     7
 10
45.799684
 20
100.875000
 11
46.016190
 21
100.750000
  0
LINE
  8
CSLAYER1
  6
CONTINUOUS
 62
     7
 10
46.016190
 20
100.750000
 11
54.999978
 21
100.750000
  0
LINE
  8
CSLAYER1
  6
CONTINUOUS
 62
     7
 10
61.499978
 20
100.750000
 11
61.381072
 21
95.993752
  0
LINE
  8
CSLAYER1
  6
CONTINUOUS
 62
     7
 10
61.131150
 20
95.750000
 11
54.999978
 21
95.750000
  0
LINE
  8
CSLAYER1
  6
CONTINUOUS
 62
     7
 10
48.499978
 20
100.750000
 11
48.618885
 21
95.993752
  0
LINE
  8
CSLAYER1
  6
CONTINUOUS
 62
     7
 10
48.868807
 20
95.750000
 11
54.999978
 21
95.750000
  0
ARC
  8
CSLAYER1
  6
CONTINUOUS
 62
     7
 10
61.821617
 20
106.500000
 40
0.250000
 50
180.000000
 51
270.000000
  0
ARC
  8
CSLAYER1
  6
CONTINUOUS
 62
     7
 10
48.178340
 20
106.500000
 40
0.250000
 50
270.000000
 51
360.000000
  0
LINE
  8
CSLAYER1
  6
CONTINUOUS
 62
     7
 10
61.571617
 20
106.500000
 11
48.428340
 21
106.500000
  0
ARC
  8
CSLAYER1
  6
CONTINUOUS
 62
     7
 10
61.131150
 20
96.000000
 40
0.250000
 50
270.000000
 51
358.567904
  0
ARC
  8
CSLAYER1
  6
CONTINUOUS
 62
     7
 10
48.868807
 20
96.000000
 40
0.250000
 50
181.432096
 51
270.000000
  0
LINE
  8
CSLAYER1
  6
CONTINUOUS
 62
     7
 10
60.249978
 20
85.000000
 11
60.249978
 21
95.750000
  0
LINE
  8
CSLAYER1
  6
CONTINUOUS
 62
     7
 10
49.749978
 20
85.000000
 11
49.749978
 21
95.750000
  0
LINE
  8
CSLAYER1
  6
CENTER
 62
     2
 10
81.329978
 20
58.411165
 11
105.124978
 21
58.411165
  0
LINE
  8
CSLAYER1
  6
CONTINUOUS
 62
     7
 10
72.749978
 20
72.500000
 11
83.374978
 21
72.500000
  0
LINE
  8
CSLAYER1
  6
CONTINUOUS
 62
     7
 10
72.749978
 20
62.000000
 11
83.374978
 21
62.000000
  0
ARC
  8
CSLAYER1
  6
CONTINUOUS
 62
     7
 10
72.749978
 20
85.000000
 40
12.500000
 50
180.000000
 51
270.000000
  0
ARC
  8
CSLAYER1
  6
CONTINUOUS
 62
     7
 10
72.749978
 20
85.000000
 40
23.000000
 50
180.000000
 51
270.000000
  0
ARC
  8
CSLAYER1
  6
CENTER
 62
     2
 10
72.749978
 20
85.000000
 40
17.750000
 50
180.000000
 51
270.000000
  0
LINE
  8
CSLAYER1
  6
CONTINUOUS
 62
     7
 10
70.249978
 20
178.738750
 11
68.749978
 21
178.738750
  0
LINE
  8
CSLAYER1
  6
CONTINUOUS
 62
     7
 10
66.499978
 20
178.668437
 11
68.749978
 21
178.738750
  0
LINE
  8
CSLAYER1
  6
CONTINUOUS
 62
     7
 10
66.499978
 20
178.371343
 11
68.205951
 21
178.424655
  0
LINE
  8
CSLAYER1
  6
CONTINUOUS
 62
     7
 10
68.749978
 20
178.738750
 11
68.205951
 21
178.424655
  0
LINE
  8
CSLAYER1
  6
CONTINUOUS
 62
     7
 10
68.205951
 20
173.500000
 11
68.205951
 21
178.721749
  0
LINE
  8
CSLAYER1
  6
CONTINUOUS
 62
     7
 10
70.249978
 20
168.261250
 11
68.749978
 21
168.261250
  0
LINE
  8
CSLAYER1
  6
CONTINUOUS
 62
     7
 10
66.499978
 20
168.331562
 11
68.749978
 21
168.261250
  0
LINE
  8
CSLAYER1
  6
CONTINUOUS
 62
     7
 10
66.499978
 20
168.628656
 11
68.205951
 21
168.575344
  0
LINE
  8
CSLAYER1
  6
CONTINUOUS
 62
     7
 10
68.749978
 20
168.261250
 11
68.205951
 21
168.575344
  0
LINE
  8
CSLAYER1
  6
CONTINUOUS
 62
     7
 10
68.205951
 20
173.500000
 11
68.205951
 21
168.278251
  0
LINE
  8
CSLAYER1
  6
CONTINUOUS
 62
     7
 10
72.499978
 20
178.668437
 11
70.249978
 21
178.738750
  0
LINE
  8
CSLAYER1
  6
CONTINUOUS
 62
     7
 10
72.499978
 20
178.371343
 11
70.794006
 21
178.424655
  0
LINE
  8
CSLAYER1
  6
CONTINUOUS
 62
     7
 10
70.249978
 20
178.738750
 11
70.794006
 21
178.424655
  0
LINE
  8
CSLAYER1
  6
CONTINUOUS
 62
     7
 10
70.794006
 20
173.500000
 11
70.794006
 21
178.721749
  0
LINE
  8
CSLAYER1
  6
CONTINUOUS
 62
     7
 10
72.499978
 20
168.331562
 11
70.249978
 21
168.261250
  0
LINE
  8
CSLAYER1
  6
CONTINUOUS
 62
     7
 10
72.499978
 20
168.628656
 11
70.794006
 21
168.575344
  0
LINE
  8
CSLAYER1
  6
CONTINUOUS
 62
     7
 10
70.249978
 20
168.261250
 11
70.794006
 21
168.575344
  0
LINE
  8
CSLAYER1
  6
CONTINUOUS
 62
     7
 10
70.794006
 20
173.500000
 11
70.794006
 21
168.278251
  0
LINE
  8
CSLAYER1
  6
CONTINUOUS
 62
     7
 10
96.374978
 20
50.875000
 11
95.874978
 21
50.375000
  0
LINE
  8
CSLAYER1
  6
CONTINUOUS
 62
     7
 10
83.374978
 20
73.125000
 11
83.374978
 21
67.250000
  0
LINE
  8
CSLAYER1
  6
CONTINUOUS
 62
     7
 10
86.374978
 20
83.875000
 11
86.374978
 21
67.250000
  0
LINE
  8
CSLAYER1
  6
CONTINUOUS
 62
     7
 10
90.874978
 20
77.125000
 11
90.874978
 21
67.250000
  0
LINE
  8
CSLAYER1
  6
CONTINUOUS
 62
     7
 10
83.499978
 20
73.250000
 11
83.829978
 21
73.250000
  0
LINE
  8
CSLAYER1
  6
CONTINUOUS
 62
     7
 10
86.624978
 20
84.125000
 11
89.874978
 21
84.125000
  0
LINE
  8
CSLAYER1
  6
CONTINUOUS
 62
     7
 10
90.749978
 20
77.250000
 11
90.124978
 21
77.250000
  0
LINE
  8
CSLAYER1
  6
CONTINUOUS
 62
     7
 10
83.374978
 20
61.375000
 11
83.374978
 21
67.250000
  0
LINE
  8
CSLAYER1
  6
CONTINUOUS
 62
     7
 10
90.874978
 20
57.375000
 11
90.874978
 21
67.250000
  0
LINE
  8
CSLAYER1
  6
CONTINUOUS
 62
     7
 10
83.499978
 20
61.250000
 11
83.829978
 21
61.250000
  0
LINE
  8
CSLAYER1
  6
CONTINUOUS
 62
     7
 10
86.624978
 20
50.375000
 11
89.874978
 21
50.375000
  0
LINE
  8
CSLAYER1
  6
CONTINUOUS
 62
     7
 10
86.374978
 20
83.875000
 11
86.624978
 21
84.125000
  0
LINE
  8
CSLAYER1
  6
CONTINUOUS
 62
     7
 10
89.874978
 20
84.125000
 11
90.124978
 21
83.875000
  0
LINE
  8
CSLAYER1
  6
CONTINUOUS
 62
     7
 10
89.874978
 20
50.375000
 11
90.124978
 21
50.625000
  0
LINE
  8
CSLAYER1
  6
CONTINUOUS
 62
     7
 10
86.374978
 20
50.625000
 11
86.624978
 21
50.375000
  0
LINE
  8
CSLAYER1
  6
CONTINUOUS
 62
     7
 10
83.374978
 20
73.125000
 11
83.499978
 21
73.250000
  0
LINE
  8
CSLAYER1
  6
CONTINUOUS
 62
     7
 10
83.374978
 20
61.375000
 11
83.499978
 21
61.250000
  0
LINE
  8
CSLAYER1
  6
CONTINUOUS
 62
     7
 10
90.749978
 20
77.250000
 11
90.874978
 21
77.125000
  0
LINE
  8
CSLAYER1
  6
CONTINUOUS
 62
     7
 10
91.374978
 20
67.250000
 11
91.374978
 21
50.375000
  0
LINE
  8
CSLAYER1
  6
CONTINUOUS
 62
     7
 10
90.874978
 20
67.250000
 11
90.874978
 21
50.375000
  0
LINE
  8
CSLAYER1
  6
CONTINUOUS
 62
     7
 10
91.374978
 20
50.375000
 11
90.874978
 21
50.375000
  0
LINE
  8
CSLAYER1
  6
CONTINUOUS
 62
     7
 10
91.374978
 20
84.125000
 11
90.874978
 21
84.125000
  0
LINE
  8
CSLAYER1
  6
CONTINUOUS
 62
     7
 10
91.374978
 20
67.250000
 11
91.374978
 21
84.125000
  0
LINE
  8
CSLAYER1
  6
CONTINUOUS
 62
     7
 10
90.874978
 20
67.250000
 11
90.874978
 21
84.125000
  0
LINE
  8
CSLAYER1
  6
CONTINUOUS
 62
     7
 10
90.124978
 20
83.875000
 11
90.124978
 21
67.250000
  0
LINE
  8
CSLAYER1
  6
CONTINUOUS
 62
     7
 10
102.624978
 20
56.786165
 11
102.624978
 21
58.411165
  0
LINE
  8
CSLAYER1
  6
CONTINUOUS
 62
     7
 10
102.249978
 20
56.411165
 11
102.624978
 21
56.786165
  0
LINE
  8
CSLAYER1
  6
CONTINUOUS
 62
     7
 10
102.249978
 20
56.411165
 11
102.249978
 21
58.411165
  0
LINE
  8
CSLAYER1
  6
CONTINUOUS
 62
     7
 10
102.624978
 20
60.036165
 11
102.624978
 21
58.411165
  0
LINE
  8
CSLAYER1
  6
CONTINUOUS
 62
     7
 10
102.249978
 20
60.411165
 11
102.624978
 21
60.036165
  0
LINE
  8
CSLAYER1
  6
CONTINUOUS
 62
     7
 10
102.249978
 20
60.411165
 11
102.249978
 21
58.411165
  0
LINE
  8
CSLAYER1
  6
CONTINUOUS
 62
     7
 10
99.624978
 20
55.411165
 11
99.624978
 21
58.411165
  0
LINE
  8
CSLAYER1
  6
CONTINUOUS
 62
     7
 10
96.374978
 20
54.947063
 11
96.374978
 21
58.411165
  0
LINE
  8
CSLAYER1
  6
CONTINUOUS
 62
     7
 10
96.374978
 20
56.679114
 11
99.357029
 21
56.679114
  0
LINE
  8
CSLAYER1
  6
CONTINUOUS
 62
     7
 10
96.374978
 20
54.947063
 11
99.357029
 21
54.947063
  0
LINE
  8
CSLAYER1
  6
CONTINUOUS
 62
     7
 10
99.624978
 20
55.411165
 11
99.357029
 21
54.947063
  0
ARC
  8
CSLAYER1
  6
CONTINUOUS
 62
     7
 10
97.634485
 20
55.813089
 40
1.927993
 50
-26.691396
 51
26.691396
  0
ARC
  8
CSLAYER1
  6
CONTINUOUS
 62
     7
 10
92.158679
 20
58.411165
 40
7.403800
 50
346.470805
 51
360.000000
  0
LINE
  8
CSLAYER1
  6
CONTINUOUS
 62
     7
 10
99.624978
 20
61.411165
 11
99.624978
 21
58.411165
  0
LINE
  8
CSLAYER1
  6
CONTINUOUS
 62
     7
 10
96.374978
 20
61.875267
 11
96.374978
 21
58.411165
  0
LINE
  8
CSLAYER1
  6
CONTINUOUS
 62
     7
 10
96.374978
 20
60.143216
 11
99.357029
 21
60.143216
  0
LINE
  8
CSLAYER1
  6
CONTINUOUS
 62
     7
 10
96.374978
 20
61.875267
 11
99.357029
 21
61.875267
  0
LINE
  8
CSLAYER1
  6
CONTINUOUS
 62
     7
 10
99.624978
 20
61.411165
 11
99.357029
 21
61.875267
  0
ARC
  8
CSLAYER1
  6
CONTINUOUS
 62
     7
 10
97.634485
 20
61.009241
 40
1.927993
 50
-26.691396
 51
26.691396
  0
ARC
  8
CSLAYER1
  6
CONTINUOUS
 62
     7
 10
92.158679
 20
58.411165
 40
7.403800
 50
0.000000
 51
13.529195
  0
LINE
  8
CSLAYER1
  6
CONTINUOUS
 62
     7
 10
99.624978
 20
56.411165
 11
102.249978
 21
56.411165
  0
LINE
  8
CSLAYER1
  6
CONTINUOUS
 62
     7
 10
99.624978
 20
56.661165
 11
102.499978
 21
56.661165
  0
LINE
  8
CSLAYER1
  6
CONTINUOUS
 62
     7
 10
99.624978
 20
60.161165
 11
102.499978
 21
60.161165
  0
LINE
  8
CSLAYER1
  6
CONTINUOUS
 62
     7
 10
99.624978
 20
60.411165
 11
102.249978
 21
60.411165
  0
LINE
  8
CSLAYER1
  6
CONTINUOUS
 62
     7
 10
83.829978
 20
55.411165
 11
83.829978
 21
58.411165
  0
LINE
  8
CSLAYER1
  6
CONTINUOUS
 62
     7
 10
84.097928
 20
54.947063
 11
86.374978
 21
54.947063
  0
LINE
  8
CSLAYER1
  6
CONTINUOUS
 62
     7
 10
84.097928
 20
56.679114
 11
86.374978
 21
56.679114
  0
LINE
  8
CSLAYER1
  6
CONTINUOUS
 62
     7
 10
83.829978
 20
55.411165
 11
84.097928
 21
54.947063
  0
ARC
  8
CSLAYER1
  6
CONTINUOUS
 62
     7
 10
85.820472
 20
55.813089
 40
1.927993
 50
153.308604
 51
206.691396
  0
ARC
  8
CSLAYER1
  6
CONTINUOUS
 62
     7
 10
91.296278
 20
58.411165
 40
7.403800
 50
180.000000
 51
193.529195
  0
LINE
  8
CSLAYER1
  6
CONTINUOUS
 62
     7
 10
83.829978
 20
61.411165
 11
83.829978
 21
58.411165
  0
LINE
  8
CSLAYER1
  6
CONTINUOUS
 62
     7
 10
84.097928
 20
61.875267
 11
86.374978
 21
61.875267
  0
LINE
  8
CSLAYER1
  6
CONTINUOUS
 62
     7
 10
84.097928
 20
60.143216
 11
86.374978
 21
60.143216
  0
LINE
  8
CSLAYER1
  6
CONTINUOUS
 62
     7
 10
83.829978
 20
61.411165
 11
84.097928
 21
61.875267
  0
ARC
  8
CSLAYER1
  6
CONTINUOUS
 62
     7
 10
85.820472
 20
61.009241
 40
1.927993
 50
153.308604
 51
206.691396
  0
ARC
  8
CSLAYER1
  6
CONTINUOUS
 62
     7
 10
91.296278
 20
58.411165
 40
7.403800
 50
166.470805
 51
180.000000
  0
LINE
  8
CSLAYER1
  6
CONTINUOUS
 62
     7
 10
86.374978
 20
50.625000
 11
86.374978
 21
67.250000
  0
LINE
  8
CSLAYER1
  6
CONTINUOUS
 62
     7
 10
90.124978
 20
50.625000
 11
90.124978
 21
67.250000
  0
LINE
  8
CSLAYER1
  6
CENTER
 62
     2
 10
72.499978
 20
142.875000
 11
37.499978
 21
142.875000
  0
LINE
  8
CSLAYER1
  6
CONTINUOUS
 62
     7
 10
60.238728
 20
158.250000
 11
60.238728
 21
159.750000
  0
LINE
  8
CSLAYER1
  6
CONTINUOUS
 62
     7
 10
60.168416
 20
162.000000
 11
60.238728
 21
159.750000
  0
LINE
  8
CSLAYER1
  6
CONTINUOUS
 62
     7
 10
59.871322
 20
162.000000
 11
59.924634
 21
160.294028
  0
LINE
  8
CSLAYER1
  6
CONTINUOUS
 62
     7
 10
60.238728
 20
159.750000
 11
59.924634
 21
160.294028
  0
LINE
  8
CSLAYER1
  6
CONTINUOUS
 62
     7
 10
54.999978
 20
160.294028
 11
60.221728
 21
160.294028
  0
LINE
  8
CSLAYER1
  6
CONTINUOUS
 62
     7
 10
49.761228
 20
158.250000
 11
49.761228
 21
159.750000
  0
LINE
  8
CSLAYER1
  6
CONTINUOUS
 62
     7
 10
49.831541
 20
162.000000
 11
49.761228
 21
159.750000
  0
LINE
  8
CSLAYER1
  6
CONTINUOUS
 62
     7
 10
50.128635
 20
162.000000
 11
50.075323
 21
160.294028
  0
LINE
  8
CSLAYER1
  6
CONTINUOUS
 62
     7
 10
49.761228
 20
159.750000
 11
50.075323
 21
160.294028
  0
LINE
  8
CSLAYER1
  6
CONTINUOUS
 62
     7
 10
54.999978
 20
160.294028
 11
49.778229
 21
160.294028
  0
LINE
  8
CSLAYER1
  6
CONTINUOUS
 62
     7
 10
60.168416
 20
156.000000
 11
60.238728
 21
158.250000
  0
LINE
  8
CSLAYER1
  6
CONTINUOUS
 62
     7
 10
59.871322
 20
156.000000
 11
59.924634
 21
157.705972
  0
LINE
  8
CSLAYER1
  6
CONTINUOUS
 62
     7
 10
60.238728
 20
158.250000
 11
59.924634
 21
157.705972
  0
LINE
  8
CSLAYER1
  6
CONTINUOUS
 62
     7
 10
54.999978
 20
157.705972
 11
60.221728
 21
157.705972
  0
LINE
  8
CSLAYER1
  6
CONTINUOUS
 62
     7
 10
49.831541
 20
156.000000
 11
49.761228
 21
158.250000
  0
LINE
  8
CSLAYER1
  6
CONTINUOUS
 62
     7
 10
50.128635
 20
156.000000
 11
50.075323
 21
157.705972
  0
LINE
  8
CSLAYER1
  6
CONTINUOUS
 62
     7
 10
49.761228
 20
158.250000
 11
50.075323
 21
157.705972
  0
LINE
  8
CSLAYER1
  6
CONTINUOUS
 62
     7
 10
54.999978
 20
157.705972
 11
49.778229
 21
157.705972
  0
LINE
  8
CSLAYER1
  6
CONTINUOUS
 62
     7
 10
77.249978
 20
190.125000
 11
77.249978
 21
173.500000
  0
LINE
  8
CSLAYER1
  6
CONTINUOUS
 62
     7
 10
56.849953
 20
133.541286
 11
56.849953
 21
132.793327
  0
LINE
  8
CSLAYER1
  6
CONTINUOUS
 62
     7
 10
60.291696
 20
134.966991
 11
60.820603
 21
134.438085
  0
LINE
  8
CSLAYER1
  6
CONTINUOUS
 62
     7
 10
62.907946
 20
137.583235
 11
63.436853
 21
137.054329
  0
LINE
  8
CSLAYER1
  6
CONTINUOUS
 62
     7
 10
64.333658
 20
141.025041
 11
65.081643
 21
141.025041
  0
LINE
  8
CSLAYER1
  6
CONTINUOUS
 62
     7
 10
64.333718
 20
144.724977
 11
65.081706
 21
144.724977
  0
LINE
  8
CSLAYER1
  6
CONTINUOUS
 62
     7
 10
62.907891
 20
148.166740
 11
63.436801
 21
148.695645
  0
LINE
  8
CSLAYER1
  6
CONTINUOUS
 62
     7
 10
60.291681
 20
150.783027
 11
60.820588
 21
151.311933
  0
LINE
  8
CSLAYER1
  6
CONTINUOUS
 62
     7
 10
56.849953
 20
152.208657
 11
56.849953
 21
152.956643
  0
LINE
  8
CSLAYER1
  6
CONTINUOUS
 62
     7
 10
53.149973
 20
152.208717
 11
53.149973
 21
152.956703
  0
LINE
  8
CSLAYER1
  6
CONTINUOUS
 62
     7
 10
49.708158
 20
150.783023
 11
49.179251
 21
151.311929
  0
LINE
  8
CSLAYER1
  6
CONTINUOUS
 62
     7
 10
47.091856
 20
148.166804
 11
46.562951
 21
148.695710
  0
LINE
  8
CSLAYER1
  6
CONTINUOUS
 62
     7
 10
45.666268
 20
144.724972
 11
44.918283
 21
144.724971
  0
LINE
  8
CSLAYER1
  6
CONTINUOUS
 62
     7
 10
45.666208
 20
141.025026
 11
44.918223
 21
141.025026
  0
LINE
  8
CSLAYER1
  6
CONTINUOUS
 62
     7
 10
47.091883
 20
137.583221
 11
46.562978
 21
137.054315
  0
LINE
  8
CSLAYER1
  6
CONTINUOUS
 62
     7
 10
49.708098
 20
134.966921
 11
49.179193
 21
134.438016
  0
LINE
  8
CSLAYER1
  6
CONTINUOUS
 62
     7
 10
53.149973
 20
133.541318
 11
53.149973
 21
132.793332
  0
LINE
  8
CSLAYER1
  6
CONTINUOUS
 62
     7
 10
56.746423
 20
139.556310
 11
56.461588
 21
135.590578
  0
LINE
  8
CSLAYER1
  6
CONTINUOUS
 62
     7
 10
53.254026
 20
139.556385
 11
53.538858
 21
135.590649
  0
LINE
  8
CSLAYER1
  6
CONTINUOUS
 62
     7
 10
58.318948
 20
144.621085
 11
62.284731
 21
144.336248
  0
LINE
  8
CSLAYER1
  6
CONTINUOUS
 62
     7
 10
58.318948
 20
141.128896
 11
62.284731
 21
141.413732
  0
LINE
  8
CSLAYER1
  6
CONTINUOUS
 62
     7
 10
53.254026
 20
146.193599
 11
53.538858
 21
150.159335
  0
LINE
  8
CSLAYER1
  6
CONTINUOUS
 62
     7
 10
56.746423
 20
146.193661
 11
56.461591
 21
150.159395
  0
LINE
  8
CSLAYER1
  6
CONTINUOUS
 62
     7
 10
51.681523
 20
141.128829
 11
47.715696
 21
141.413668
  0
LINE
  8
CSLAYER1
  6
CONTINUOUS
 62
     7
 10
51.681523
 20
144.621149
 11
47.715696
 21
144.336309
  0
LINE
  8
CSLAYER1
  6
CONTINUOUS
 62
     7
 10
53.374948
 20
143.813194
 11
53.374948
 21
141.936805
  0
LINE
  8
CSLAYER1
  6
CONTINUOUS
 62
     7
 10
56.624978
 20
143.813194
 11
56.624978
 21
141.936805
  0
LINE
  8
CSLAYER1
  6
CONTINUOUS
 62
     7
 10
53.374998
 20
141.936777
 11
55.000028
 21
140.998564
  0
LINE
  8
CSLAYER1
  6
CONTINUOUS
 62
     7
 10
54.999998
 20
144.751360
 11
56.625028
 21
143.813146
  0
LINE
  8
CSLAYER1
  6
CONTINUOUS
 62
     7
 10
54.999998
 20
140.998640
 11
56.625028
 21
141.936853
  0
LINE
  8
CSLAYER1
  6
CONTINUOUS
 62
     7
 10
53.374998
 20
143.813222
 11
55.000028
 21
144.751435
  0
LINE
  8
CSLAYER1
  6
CONTINUOUS
 62
     7
 10
61.749978
 20
129.750000
 11
48.249978
 21
129.750000
  0
LINE
  8
CSLAYER1
  6
CONTINUOUS
 62
     7
 10
48.249978
 20
133.294036
 11
48.249978
 21
129.750000
  0
LINE
  8
CSLAYER1
  6
CONTINUOUS
 62
     7
 10
48.249978
 20
152.455963
 11
48.249978
 21
156.000000
  0
LINE
  8
CSLAYER1
  6
CONTINUOUS
 62
     7
 10
61.749978
 20
133.294036
 11
61.749978
 21
129.750000
  0
LINE
  8
CSLAYER1
  6
CONTINUOUS
 62
     7
 10
61.749978
 20
152.455963
 11
61.749978
 21
156.000000
  0
LINE
  8
CSLAYER1
  6
CONTINUOUS
 62
     7
 10
61.749978
 20
156.000000
 11
48.249978
 21
156.000000
  0
LINE
  8
CSLAYER1
  6
CONTINUOUS
 62
     7
 10
54.999978
 20
156.000000
 11
54.999978
 21
155.375019
  0
LINE
  8
CSLAYER1
  6
CONTINUOUS
 62
     7
 10
54.999978
 20
130.375000
 11
54.999978
 21
129.750000
  0
LINE
  8
CSLAYER1
  6
CONTINUOUS
 62
     7
 10
59.249978
 20
141.195759
 11
59.249978
 21
140.421261
  0
LINE
  8
CSLAYER1
  6
CONTINUOUS
 62
     7
 10
59.249983
 20
140.421263
 11
56.702878
 21
138.950693
  0
LINE
  8
CSLAYER1
  6
CONTINUOUS
 62
     7
 10
50.749978
 20
141.195759
 11
50.749978
 21
140.421261
  0
LINE
  8
CSLAYER1
  6
CONTINUOUS
 62
     7
 10
50.749983
 20
140.421258
 11
53.297086
 21
138.950688
  0
LINE
  8
CSLAYER1
  6
CONTINUOUS
 62
     7
 10
59.249978
 20
144.554240
 11
59.249978
 21
145.328738
  0
LINE
  8
CSLAYER1
  6
CONTINUOUS
 62
     7
 10
59.249983
 20
145.328736
 11
56.702878
 21
146.799306
  0
LINE
  8
CSLAYER1
  6
CONTINUOUS
 62
     7
 10
50.749978
 20
144.554240
 11
50.749978
 21
145.328738
  0
LINE
  8
CSLAYER1
  6
CONTINUOUS
 62
     7
 10
50.749983
 20
145.328742
 11
53.297086
 21
146.799311
  0
LINE
  8
CSLAYER1
  6
CONTINUOUS
 62
     7
 10
53.149973
 20
133.270004
 11
51.421353
 21
133.270004
  0
LINE
  8
CSLAYER1
  6
CONTINUOUS
 62
     7
 10
56.849986
 20
133.270004
 11
58.578603
 21
133.270004
  0
LINE
  8
CSLAYER1
  6
CONTINUOUS
 62
     7
 10
53.149973
 20
152.479995
 11
51.421353
 21
152.479995
  0
LINE
  8
CSLAYER1
  6
CONTINUOUS
 62
     7
 10
56.849986
 20
152.479995
 11
58.578603
 21
152.479995
  0
LINE
  8
CSLAYER1
  6
CONTINUOUS
 62
     7
 10
58.136691
 20
144.281250
 11
57.563261
 21
144.281250
  0
LINE
  8
CSLAYER1
  6
CONTINUOUS
 62
     7
 10
58.136691
 20
144.104679
 11
57.563261
 21
144.104679
  0
LINE
  8
CSLAYER1
  6
CONTINUOUS
 62
     7
 10
57.846896
 20
144.100871
 11
57.503393
 21
143.678249
  0
LINE
  8
CSLAYER1
  6
CONTINUOUS
 62
     7
 10
57.853043
 20
144.100875
 11
58.206601
 21
143.665883
  0
LINE
  8
CSLAYER1
  6
CONTINUOUS
 62
     7
 10
57.912776
 20
143.872805
 11
57.654691
 21
143.555277
  0
LINE
  8
CSLAYER1
  6
CONTINUOUS
 62
     7
 10
57.912783
 20
143.872796
 11
58.060571
 21
143.690964
  0
LINE
  8
CSLAYER1
  6
CONTINUOUS
 62
     7
 10
58.224978
 20
142.106872
 11
58.224978
 21
141.575197
  0
LINE
  8
CSLAYER1
  6
CONTINUOUS
 62
     7
 10
58.134218
 20
141.686594
 11
57.659246
 21
142.204851
  0
LINE
  8
CSLAYER1
  6
CONTINUOUS
 62
     7
 10
58.040051
 20
141.503275
 11
57.687741
 21
141.887695
  0
LINE
  8
CSLAYER1
  6
CONTINUOUS
 62
     7
 10
57.681226
 20
141.571872
 11
57.681226
 21
141.885162
  0
LINE
  8
CSLAYER1
  6
CONTINUOUS
 62
     7
 10
57.474978
 20
142.132175
 11
57.474978
 21
141.571872
  0
LINE
  8
CSLAYER1
  6
CONTINUOUS
 62
     7
 10
58.140726
 20
142.030300
 11
58.140726
 21
141.689124
  0
LINE
  8
CSLAYER1
  6
CONTINUOUS
 62
     7
 10
58.224943
 20
142.998607
 11
58.224943
 21
142.435132
  0
LINE
  8
CSLAYER1
  6
CONTINUOUS
 62
     7
 10
58.140696
 20
142.789153
 11
57.563268
 21
142.789153
  0
LINE
  8
CSLAYER1
  6
CONTINUOUS
 62
     7
 10
58.018701
 20
142.612570
 11
57.563268
 21
142.612570
  0
LINE
  8
CSLAYER1
  6
CONTINUOUS
 62
     7
 10
58.018701
 20
142.612570
 11
58.018701
 21
142.435132
  0
LINE
  8
CSLAYER1
  6
CONTINUOUS
 62
     7
 10
58.140696
 20
142.922035
 11
58.140696
 21
142.789153
  0
LINE
  8
CSLAYER1
  6
CONTINUOUS
 62
     7
 10
51.609693
 20
143.744465
 11
51.791318
 21
143.697886
  0
LINE
  8
CSLAYER1
  6
CONTINUOUS
 62
     7
 10
52.055113
 20
144.094801
 11
51.609696
 21
143.744472
  0
LINE
  8
CSLAYER1
  6
CONTINUOUS
 62
     7
 10
52.215106
 20
143.589209
 11
52.055116
 21
144.094803
  0
LINE
  8
CSLAYER1
  6
CONTINUOUS
 62
     7
 10
52.033478
 20
143.635781
 11
52.215101
 21
143.589202
  0
LINE
  8
CSLAYER1
  6
CONTINUOUS
 62
     7
 10
51.609696
 20
142.005524
 11
51.791318
 21
142.052103
  0
LINE
  8
CSLAYER1
  6
CONTINUOUS
 62
     7
 10
52.055113
 20
141.655196
 11
51.609701
 21
142.005525
  0
LINE
  8
CSLAYER1
  6
CONTINUOUS
 62
     7
 10
52.215101
 20
142.160788
 11
52.055108
 21
141.655194
  0
LINE
  8
CSLAYER1
  6
CONTINUOUS
 62
     7
 10
52.033486
 20
142.114209
 11
52.215106
 21
142.160787
  0
LINE
  8
CSLAYER1
  6
CONTINUOUS
 62
     7
 10
53.798001
 20
145.759429
 11
53.430616
 21
145.656680
  0
LINE
  8
CSLAYER1
  6
CONTINUOUS
 62
     7
 10
53.777803
 20
145.831655
 11
53.410413
 21
145.728905
  0
LINE
  8
CSLAYER1
  6
CONTINUOUS
 62
     7
 10
53.127318
 20
145.790780
 11
53.462176
 21
145.352410
  0
LINE
  8
CSLAYER1
  6
CONTINUOUS
 62
     7
 10
52.679438
 20
145.448660
 11
53.014296
 21
145.010289
  0
LINE
  8
CSLAYER1
  6
CONTINUOUS
 62
     7
 10
53.252173
 20
145.503770
 11
52.923498
 21
145.252707
  0
LINE
  8
CSLAYER1
  6
CONTINUOUS
 62
     7
 10
53.206643
 20
145.563372
 11
52.877968
 21
145.312309
  0
LINE
  8
CSLAYER1
  6
CONTINUOUS
 62
     7
 10
53.067713
 20
145.745250
 11
53.206643
 21
145.563372
  0
LINE
  8
CSLAYER1
  6
CONTINUOUS
 62
     7
 10
52.739041
 20
145.494187
 11
52.877968
 21
145.312309
  0
LINE
  8
CSLAYER1
  6
CONTINUOUS
 62
     7
 10
52.923498
 20
145.252707
 11
53.073896
 21
145.055817
  0
LINE
  8
CSLAYER1
  6
CONTINUOUS
 62
     7
 10
53.252173
 20
145.503770
 11
53.402571
 21
145.306880
  0
LINE
  8
CSLAYER1
  6
CONTINUOUS
 62
     7
 10
52.609773
 20
144.491977
 11
52.367221
 21
144.056636
  0
LINE
  8
CSLAYER1
  6
CONTINUOUS
 62
     7
 10
52.544256
 20
144.528481
 11
52.441228
 21
144.343568
  0
LINE
  8
CSLAYER1
  6
CONTINUOUS
 62
     7
 10
51.957033
 20
144.527495
 11
52.404728
 21
144.278054
  0
LINE
  8
CSLAYER1
  6
CONTINUOUS
 62
     7
 10
51.993536
 20
144.593009
 11
52.441233
 21
144.343568
  0
LINE
  8
CSLAYER1
  6
CONTINUOUS
 62
     7
 10
52.404726
 20
144.278053
 11
52.301703
 21
144.093140
  0
LINE
  8
CSLAYER1
  6
CONTINUOUS
 62
     7
 10
52.750986
 20
145.194102
 11
52.989896
 21
144.987334
  0
LINE
  8
CSLAYER1
  6
CONTINUOUS
 62
     7
 10
52.382161
 20
144.767943
 11
52.621068
 21
144.561175
  0
LINE
  8
CSLAYER1
  6
CONTINUOUS
 62
     7
 10
52.431241
 20
144.824654
 11
52.670153
 21
144.617886
  0
LINE
  8
CSLAYER1
  6
CONTINUOUS
 62
     7
 10
52.701906
 20
145.137391
 11
52.940813
 21
144.930623
  0
LINE
  8
CSLAYER1
  6
CONTINUOUS
 62
     7
 10
52.203961
 20
140.827827
 11
52.641663
 21
141.206643
  0
LINE
  8
CSLAYER1
  6
CONTINUOUS
 62
     7
 10
52.454453
 20
140.945429
 11
52.660168
 21
140.707733
  0
LINE
  8
CSLAYER1
  6
CONTINUOUS
 62
     7
 10
52.641663
 20
141.206643
 11
52.896463
 21
140.912237
  0
LINE
  8
CSLAYER1
  6
CONTINUOUS
 62
     7
 10
52.253041
 20
140.771116
 11
52.397741
 21
140.896347
  0
LINE
  8
CSLAYER1
  6
CONTINUOUS
 62
     7
 10
52.634036
 20
141.100851
 11
52.839751
 21
140.863156
  0
LINE
  8
CSLAYER1
  6
CONTINUOUS
 62
     7
 10
52.397741
 20
140.896347
 11
52.603461
 21
140.658652
  0
LINE
  8
CSLAYER1
  6
CONTINUOUS
 62
     7
 10
52.454453
 20
140.945429
 11
52.634036
 21
141.100851
  0
LINE
  8
CSLAYER1
  6
CONTINUOUS
 62
     7
 10
53.030831
 20
140.761353
 11
53.448911
 21
140.441997
  0
LINE
  8
CSLAYER1
  6
CONTINUOUS
 62
     7
 10
52.661668
 20
140.278071
 11
53.079748
 21
139.958715
  0
LINE
  8
CSLAYER1
  6
CONTINUOUS
 62
     7
 10
52.661668
 20
140.278071
 11
53.030831
 21
140.761353
  0
LINE
  8
CSLAYER1
  6
CONTINUOUS
 62
     7
 10
53.044903
 20
140.656223
 11
53.403383
 21
140.382395
  0
LINE
  8
CSLAYER1
  6
CONTINUOUS
 62
     7
 10
52.766801
 20
140.292148
 11
52.883093
 21
140.444388
  0
LINE
  8
CSLAYER1
  6
CONTINUOUS
 62
     7
 10
52.766801
 20
140.292148
 11
53.125276
 21
140.018320
  0
LINE
  8
CSLAYER1
  6
CONTINUOUS
 62
     7
 10
52.928613
 20
140.503983
 11
53.227491
 21
140.275681
  0
LINE
  8
CSLAYER1
  6
CONTINUOUS
 62
     7
 10
52.883093
 20
140.444388
 11
53.181971
 21
140.216085
  0
LINE
  8
CSLAYER1
  6
CONTINUOUS
 62
     7
 10
52.928613
 20
140.503983
 11
53.044903
 21
140.656223
  0
LINE
  8
CSLAYER1
  6
CONTINUOUS
 62
     7
 10
53.760338
 20
139.638965
 11
53.998906
 21
140.136341
  0
LINE
  8
CSLAYER1
  6
CONTINUOUS
 62
     7
 10
53.252173
 20
139.882710
 11
53.490743
 21
140.380086
  0
LINE
  8
CSLAYER1
  6
CONTINUOUS
 62
     7
 10
53.319796
 20
139.850275
 11
53.515596
 21
140.258485
  0
LINE
  8
CSLAYER1
  6
CONTINUOUS
 62
     7
 10
53.735483
 20
139.760567
 11
53.931283
 21
140.168777
  0
LINE
  8
CSLAYER1
  6
CONTINUOUS
 62
     7
 10
53.560618
 20
140.374149
 11
53.735483
 21
139.760569
  0
LINE
  8
CSLAYER1
  6
CONTINUOUS
 62
     7
 10
53.515593
 20
140.258484
 11
53.690458
 21
139.644908
  0
LINE
  8
CSLAYER1
  6
CONTINUOUS
 62
     7
 10
58.124978
 20
143.527313
 11
58.118776
 21
143.527313
  0
LINE
  8
CSLAYER1
  6
CONTINUOUS
 62
     7
 10
58.136698
 20
143.401564
 11
57.563263
 21
143.401564
  0
LINE
  8
CSLAYER1
  6
CONTINUOUS
 62
     7
 10
58.136698
 20
143.224993
 11
57.563263
 21
143.224993
  0
LINE
  8
CSLAYER1
  6
CONTINUOUS
 62
     7
 10
58.124941
 20
143.098606
 11
58.111201
 21
143.098606
  0
LINE
  8
CSLAYER1
  6
CONTINUOUS
 62
     7
 10
58.140696
 20
142.922035
 11
58.118701
 21
142.922035
  0
LINE
  8
CSLAYER1
  6
CONTINUOUS
 62
     7
 10
58.140726
 20
142.030300
 11
58.118723
 21
142.030300
  0
LINE
  8
CSLAYER1
  6
CONTINUOUS
 62
     7
 10
58.124963
 20
142.206872
 11
58.111223
 21
142.206872
  0
ARC
  8
CSLAYER1
  6
CONTINUOUS
 62
     7
 10
54.999978
 20
132.625000
 40
2.250000
 50
230.544920
 51
309.391210
  0
ARC
  8
CSLAYER1
  6
CONTINUOUS
 62
     7
 10
63.567238
 20
122.191784
 40
11.250000
 50
95.608660
 51
129.391210
  0
ARC
  8
CSLAYER1
  6
CONTINUOUS
 62
     7
 10
54.999978
 20
142.875000
 40
10.250000
 50
280.398034
 51
304.602073
  0
ARC
  8
CSLAYER1
  6
CONTINUOUS
 62
     7
 10
54.999978
 20
142.875000
 40
9.125000
 50
284.131805
 51
300.868449
  0
ARC
  8
CSLAYER1
  6
CONTINUOUS
 62
     7
 10
59.938273
 20
134.613392
 40
0.500000
 50
44.997710
 51
120.865860
  0
ARC
  8
CSLAYER1
  6
CONTINUOUS
 62
     7
 10
57.349953
 20
133.541286
 40
0.500000
 50
104.131750
 51
179.999800
  0
ARC
  8
CSLAYER1
  6
CONTINUOUS
 62
     7
 10
62.247843
 20
135.627155
 40
2.250000
 50
275.544922
 51
354.391195
  0
ARC
  8
CSLAYER1
  6
CONTINUOUS
 62
     7
 10
75.683206
 20
134.307724
 40
11.250000
 50
140.608680
 51
174.391230
  0
ARC
  8
CSLAYER1
  6
CONTINUOUS
 62
     7
 10
54.999978
 20
142.875000
 40
10.250000
 50
325.398035
 51
349.602085
  0
ARC
  8
CSLAYER1
  6
CONTINUOUS
 62
     7
 10
54.999978
 20
142.875000
 40
9.125000
 50
329.131789
 51
345.868430
  0
ARC
  8
CSLAYER1
  6
CONTINUOUS
 62
     7
 10
64.333718
 20
140.525061
 40
0.500000
 50
89.997720
 51
165.865880
  0
ARC
  8
CSLAYER1
  6
CONTINUOUS
 62
     7
 10
63.261576
 20
137.936752
 40
0.500000
 50
149.131770
 51
224.999800
  0
ARC
  8
CSLAYER1
  6
CONTINUOUS
 62
     7
 10
65.249978
 20
142.875013
 40
2.250000
 50
-39.455077
 51
39.391210
  0
ARC
  8
CSLAYER1
  6
CONTINUOUS
 62
     7
 10
75.683206
 20
151.442272
 40
11.250000
 50
185.608700
 51
219.391230
  0
ARC
  8
CSLAYER1
  6
CONTINUOUS
 62
     7
 10
54.999978
 20
142.875000
 40
10.250000
 50
10.398040
 51
34.602100
  0
ARC
  8
CSLAYER1
  6
CONTINUOUS
 62
     7
 10
54.999978
 20
142.875000
 40
9.125000
 50
14.131810
 51
30.868450
  0
ARC
  8
CSLAYER1
  6
CONTINUOUS
 62
     7
 10
63.261576
 20
147.813293
 40
0.500000
 50
134.997700
 51
210.865860
  0
ARC
  8
CSLAYER1
  6
CONTINUOUS
 62
     7
 10
64.333658
 20
145.224962
 40
0.500000
 50
194.131790
 51
269.999800
  0
ARC
  8
CSLAYER1
  6
CONTINUOUS
 62
     7
 10
62.247843
 20
150.122852
 40
2.250000
 50
5.544948
 51
84.391230
  0
ARC
  8
CSLAYER1
  6
CONTINUOUS
 62
     7
 10
63.567238
 20
163.558227
 40
11.250000
 50
230.608700
 51
264.391230
  0
ARC
  8
CSLAYER1
  6
CONTINUOUS
 62
     7
 10
54.999978
 20
142.875000
 40
10.250000
 50
55.398060
 51
79.602120
  0
ARC
  8
CSLAYER1
  6
CONTINUOUS
 62
     7
 10
54.999978
 20
142.875000
 40
9.125000
 50
59.131830
 51
75.868470
  0
ARC
  8
CSLAYER1
  6
CONTINUOUS
 62
     7
 10
57.349893
 20
152.208732
 40
0.500000
 50
179.997720
 51
255.865860
  0
ARC
  8
CSLAYER1
  6
CONTINUOUS
 62
     7
 10
59.938211
 20
151.136581
 40
0.500000
 50
239.131790
 51
314.999800
  0
ARC
  8
CSLAYER1
  6
CONTINUOUS
 62
     7
 10
54.999978
 20
153.125019
 40
2.250000
 50
50.544970
 51
129.391250
  0
ARC
  8
CSLAYER1
  6
CONTINUOUS
 62
     7
 10
46.432688
 20
163.558220
 40
11.250000
 50
275.608699
 51
309.391234
  0
ARC
  8
CSLAYER1
  6
CONTINUOUS
 62
     7
 10
54.999978
 20
142.875000
 40
10.250000
 50
100.398040
 51
124.602100
  0
ARC
  8
CSLAYER1
  6
CONTINUOUS
 62
     7
 10
54.999978
 20
142.875000
 40
9.125000
 50
104.131810
 51
120.868450
  0
ARC
  8
CSLAYER1
  6
CONTINUOUS
 62
     7
 10
50.061656
 20
151.136585
 40
0.500000
 50
224.997720
 51
300.865864
  0
ARC
  8
CSLAYER1
  6
CONTINUOUS
 62
     7
 10
52.649973
 20
152.208679
 40
0.500000
 50
284.131791
 51
359.999818
  0
ARC
  8
CSLAYER1
  6
CONTINUOUS
 62
     7
 10
47.752083
 20
150.122856
 40
2.250000
 50
95.544950
 51
174.391230
  0
ARC
  8
CSLAYER1
  6
CONTINUOUS
 62
     7
 10
34.316736
 20
151.442276
 40
11.250000
 50
320.608700
 51
354.391249
  0
ARC
  8
CSLAYER1
  6
CONTINUOUS
 62
     7
 10
54.999978
 20
142.875000
 40
10.250000
 50
145.398060
 51
169.602120
  0
ARC
  8
CSLAYER1
  6
CONTINUOUS
 62
     7
 10
54.999978
 20
142.875000
 40
9.125000
 50
149.131820
 51
165.868470
  0
ARC
  8
CSLAYER1
  6
CONTINUOUS
 62
     7
 10
45.666208
 20
145.224922
 40
0.500000
 50
269.997720
 51
345.865862
  0
ARC
  8
CSLAYER1
  6
CONTINUOUS
 62
     7
 10
46.738351
 20
147.813224
 40
0.500000
 50
-30.868211
 51
44.999840
  0
ARC
  8
CSLAYER1
  6
CONTINUOUS
 62
     7
 10
44.749948
 20
142.874994
 40
2.250000
 50
140.544970
 51
219.391230
  0
ARC
  8
CSLAYER1
  6
CONTINUOUS
 62
     7
 10
34.316728
 20
134.307739
 40
11.250000
 50
5.608715
 51
39.391270
  0
ARC
  8
CSLAYER1
  6
CONTINUOUS
 62
     7
 10
54.999978
 20
142.875000
 40
10.250000
 50
190.398080
 51
214.602120
  0
ARC
  8
CSLAYER1
  6
CONTINUOUS
 62
     7
 10
54.999978
 20
142.875000
 40
9.125000
 50
194.131840
 51
210.868480
  0
ARC
  8
CSLAYER1
  6
CONTINUOUS
 62
     7
 10
46.738351
 20
137.936695
 40
0.500000
 50
-45.002277
 51
30.865880
  0
ARC
  8
CSLAYER1
  6
CONTINUOUS
 62
     7
 10
45.666268
 20
140.525021
 40
0.500000
 50
14.131810
 51
89.999850
  0
ARC
  8
CSLAYER1
  6
CONTINUOUS
 62
     7
 10
47.752083
 20
135.627151
 40
2.250000
 50
185.544980
 51
264.391230
  0
ARC
  8
CSLAYER1
  6
CONTINUOUS
 62
     7
 10
46.432688
 20
122.191787
 40
11.250000
 50
50.608730
 51
84.391290
  0
ARC
  8
CSLAYER1
  6
CONTINUOUS
 62
     7
 10
54.999978
 20
142.875000
 40
10.250000
 50
235.398080
 51
259.602120
  0
ARC
  8
CSLAYER1
  6
CONTINUOUS
 62
     7
 10
54.999978
 20
142.875000
 40
9.125000
 50
239.131840
 51
255.868490
  0
ARC
  8
CSLAYER1
  6
CONTINUOUS
 62
     7
 10
52.650033
 20
133.541259
 40
0.500000
 50
-0.002258
 51
75.865900
  0
ARC
  8
CSLAYER1
  6
CONTINUOUS
 62
     7
 10
50.061716
 20
134.613407
 40
0.500000
 50
59.131830
 51
134.999870
  0
ARC
  8
CSLAYER1
  6
CONTINUOUS
 62
     7
 10
54.999978
 20
142.875000
 40
7.750000
 50
283.184324
 51
346.832634
  0
ARC
  8
CSLAYER1
  6
CONTINUOUS
 62
     7
 10
56.710611
 20
135.572696
 40
0.250000
 50
175.891850
 51
283.179359
  0
ARC
  8
CSLAYER1
  6
CONTINUOUS
 62
     7
 10
53.289256
 20
135.572700
 40
0.250000
 50
-103.188310
 51
4.108423
  0
ARC
  8
CSLAYER1
  6
CONTINUOUS
 62
     7
 10
62.302286
 20
144.585632
 40
0.250000
 50
-94.108150
 51
13.150060
  0
ARC
  8
CSLAYER1
  6
CONTINUOUS
 62
     7
 10
62.302286
 20
141.164306
 40
0.250000
 50
-13.188294
 51
94.108400
  0
ARC
  8
CSLAYER1
  6
CONTINUOUS
 62
     7
 10
53.289316
 20
150.177307
 40
0.250000
 50
-4.108131
 51
102.676190
  0
ARC
  8
CSLAYER1
  6
CONTINUOUS
 62
     7
 10
56.710671
 20
150.177307
 40
0.250000
 50
76.811690
 51
184.108390
  0
ARC
  8
CSLAYER1
  6
CONTINUOUS
 62
     7
 10
47.697641
 20
141.164367
 40
0.250000
 50
85.891850
 51
193.179320
  0
ARC
  8
CSLAYER1
  6
CONTINUOUS
 62
     7
 10
47.697641
 20
144.585693
 40
0.250000
 50
166.811690
 51
274.108386
  0
CIRCLE
  8
CSLAYER1
  6
CONTINUOUS
 62
     7
 10
54.999978
 20
142.875000
 40
1.000000
  0
CIRCLE
  8
CSLAYER1
  6
CONTINUOUS
 62
     7
 10
54.999978
 20
142.875000
 40
0.787500
  0
ARC
  8
CSLAYER1
  6
CONTINUOUS
 62
     7
 10
54.999978
 20
142.875000
 40
7.750000
 50
13.181650
 51
76.832670
  0
ARC
  8
CSLAYER1
  6
CONTINUOUS
 62
     7
 10
54.999978
 20
142.875000
 40
7.750000
 50
103.165200
 51
166.832670
  0
ARC
  8
CSLAYER1
  6
CONTINUOUS
 62
     7
 10
54.999978
 20
142.875000
 40
7.750000
 50
193.185450
 51
256.815200
  0
ARC
  8
CSLAYER1
  6
CONTINUOUS
 62
     7
 10
54.999978
 20
142.875000
 40
6.125000
 50
284.748984
 51
345.253658
  0
ARC
  8
CSLAYER1
  6
CONTINUOUS
 62
     7
 10
54.999978
 20
142.875000
 40
6.125000
 50
194.746340
 51
255.251020
  0
ARC
  8
CSLAYER1
  6
CONTINUOUS
 62
     7
 10
54.999978
 20
142.875000
 40
6.125000
 50
14.746360
 51
75.251020
  0
ARC
  8
CSLAYER1
  6
CONTINUOUS
 62
     7
 10
54.999978
 20
142.875000
 40
6.125000
 50
104.748980
 51
165.253640
  0
CIRCLE
  8
CSLAYER1
  6
CONTINUOUS
 62
     7
 10
54.999978
 20
142.875000
 40
3.750000
  0
CIRCLE
  8
CSLAYER1
  6
CONTINUOUS
 62
     7
 10
54.999978
 20
142.875000
 40
2.250000
  0
ARC
  8
CSLAYER1
  6
CONTINUOUS
 62
     7
 10
54.999978
 20
142.875000
 40
3.062499
 50
165.615910
 51
194.384070
  0
ARC
  8
CSLAYER1
  6
CONTINUOUS
 62
     7
 10
54.999978
 20
142.875000
 40
3.312498
 50
165.615910
 51
194.384070
  0
ARC
  8
CSLAYER1
  6
CONTINUOUS
 62
     7
 10
53.486303
 20
146.030751
 40
0.625000
 50
269.910900
 51
314.093478
  0
ARC
  8
CSLAYER1
  6
CONTINUOUS
 62
     7
 10
53.756601
 20
145.467223
 40
0.625000
 50
85.428440
 51
138.357320
  0
ARC
  8
CSLAYER1
  6
CONTINUOUS
 62
     7
 10
53.756601
 20
145.467223
 40
0.550000
 50
85.428440
 51
138.357320
  0
ARC
  8
CSLAYER1
  6
CONTINUOUS
 62
     7
 10
53.486303
 20
146.030751
 40
0.550000
 50
269.910900
 51
314.093478
  0
ARC
  8
CSLAYER1
  6
CONTINUOUS
 62
     7
 10
53.817816
 20
145.688573
 40
0.148569
 50
-45.906556
 51
105.624980
  0
ARC
  8
CSLAYER1
  6
CONTINUOUS
 62
     7
 10
53.393241
 20
145.790317
 40
0.138768
 50
138.357340
 51
285.624976
  0
ARC
  8
CSLAYER1
  6
CONTINUOUS
 62
     7
 10
53.393241
 20
145.790317
 40
0.063768
 50
138.357340
 51
285.624976
  0
ARC
  8
CSLAYER1
  6
CONTINUOUS
 62
     7
 10
53.817816
 20
145.688573
 40
0.073569
 50
-45.906556
 51
105.624980
  0
ARC
  8
CSLAYER1
  6
CONTINUOUS
 62
     7
 10
53.485388
 20
145.443250
 40
0.037500
 50
89.910900
 51
270.000010
  0
ARC
  8
CSLAYER1
  6
CONTINUOUS
 62
     7
 10
53.803426
 20
146.052855
 40
0.037500
 50
-94.571570
 51
85.428440
  0
ARC
  8
CSLAYER1
  6
CONTINUOUS
 62
     7
 10
53.097521
 20
145.768017
 40
0.037500
 50
37.375050
 51
217.375010
  0
ARC
  8
CSLAYER1
  6
CONTINUOUS
 62
     7
 10
53.044096
 20
145.033051
 40
0.037500
 50
-142.625010
 51
37.375050
  0
ARC
  8
CSLAYER1
  6
CONTINUOUS
 62
     7
 10
52.709238
 20
145.471424
 40
0.037500
 50
37.375050
 51
217.375010
  0
ARC
  8
CSLAYER1
  6
CONTINUOUS
 62
     7
 10
53.432376
 20
145.329643
 40
0.037500
 50
-142.625010
 51
37.375050
  0
ARC
  8
CSLAYER1
  6
CONTINUOUS
 62
     7
 10
52.577013
 20
144.510229
 40
0.037500
 50
-29.124928
 51
150.875040
  0
ARC
  8
CSLAYER1
  6
CONTINUOUS
 62
     7
 10
52.334458
 20
144.074891
 40
0.037500
 50
150.875050
 51
330.875072
  0
ARC
  8
CSLAYER1
  6
CONTINUOUS
 62
     7
 10
51.975278
 20
144.560257
 40
0.037500
 50
60.875050
 51
240.875070
  0
ARC
  8
CSLAYER1
  6
CONTINUOUS
 62
     7
 10
52.566571
 20
144.981023
 40
0.281799
 50
49.125050
 51
229.125070
  0
ARC
  8
CSLAYER1
  6
CONTINUOUS
 62
     7
 10
52.566571
 20
144.981023
 40
0.206799
 50
49.125050
 51
229.125070
  0
ARC
  8
CSLAYER1
  6
CONTINUOUS
 62
     7
 10
52.965356
 20
144.958975
 40
0.037500
 50
-130.875000
 51
49.125050
  0
ARC
  8
CSLAYER1
  6
CONTINUOUS
 62
     7
 10
52.645613
 20
144.589526
 40
0.037500
 50
-130.875000
 51
49.125050
  0
ARC
  8
CSLAYER1
  6
CONTINUOUS
 62
     7
 10
52.749963
 20
140.785445
 40
0.193750
 50
-139.125000
 51
40.874950
  0
ARC
  8
CSLAYER1
  6
CONTINUOUS
 62
     7
 10
52.749963
 20
140.785445
 40
0.118750
 50
-139.125000
 51
40.874950
  0
ARC
  8
CSLAYER1
  6
CONTINUOUS
 62
     7
 10
52.228498
 20
140.799472
 40
0.037500
 50
130.874950
 51
310.874984
  0
ARC
  8
CSLAYER1
  6
CONTINUOUS
 62
     7
 10
53.426146
 20
140.412198
 40
0.037500
 50
-127.375000
 51
52.624950
  0
ARC
  8
CSLAYER1
  6
CONTINUOUS
 62
     7
 10
53.204728
 20
140.245883
 40
0.037500
 50
-127.375000
 51
52.624950
  0
ARC
  8
CSLAYER1
  6
CONTINUOUS
 62
     7
 10
53.102511
 20
139.988516
 40
0.037500
 50
-127.375000
 51
52.624950
  0
ARC
  8
CSLAYER1
  6
CONTINUOUS
 62
     7
 10
53.524553
 20
140.363866
 40
0.037500
 50
15.907270
 51
154.374990
  0
ARC
  8
CSLAYER1
  6
CONTINUOUS
 62
     7
 10
53.726523
 20
139.655182
 40
0.037500
 50
195.907260
 51
334.375025
  0
ARC
  8
CSLAYER1
  6
CONTINUOUS
 62
     7
 10
53.965098
 20
140.152559
 40
0.037500
 50
-25.624975
 51
154.374990
  0
ARC
  8
CSLAYER1
  6
CONTINUOUS
 62
     7
 10
53.285981
 20
139.866491
 40
0.037500
 50
154.375010
 51
334.375025
  0
ARC
  8
CSLAYER1
  6
CONTINUOUS
 62
     7
 10
57.563261
 20
144.192961
 40
0.088286
 50
89.999960
 51
270.000010
  0
ARC
  8
CSLAYER1
  6
CONTINUOUS
 62
     7
 10
58.136691
 20
144.192961
 40
0.088286
 50
-90.000000
 51
90.000020
  0
ARC
  8
CSLAYER1
  6
CONTINUOUS
 62
     7
 10
57.579043
 20
143.616763
 40
0.097486
 50
140.896200
 51
320.896220
  0
ARC
  8
CSLAYER1
  6
CONTINUOUS
 62
     7
 10
58.124978
 20
143.627313
 40
0.100000
 50
270.000000
 51
339.540724
  0
ARC
  8
CSLAYER1
  6
CONTINUOUS
 62
     7
 10
58.118776
 20
143.627313
 40
0.100000
 50
183.248890
 51
270.000000
  0
ARC
  8
CSLAYER1
  6
CONTINUOUS
 62
     7
 10
58.106278
 20
143.616348
 40
0.087500
 50
121.487860
 51
176.528700
  0
ARC
  8
CSLAYER1
  6
CONTINUOUS
 62
     7
 10
58.148401
 20
143.618577
 40
0.075000
 50
-20.459331
 51
39.103800
  0
ARC
  8
CSLAYER1
  6
CONTINUOUS
 62
     7
 10
57.563263
 20
143.313276
 40
0.088286
 50
89.999960
 51
270.000010
  0
ARC
  8
CSLAYER1
  6
CONTINUOUS
 62
     7
 10
58.136698
 20
143.313276
 40
0.088286
 50
-90.000000
 51
90.000020
  0
ARC
  8
CSLAYER1
  6
CONTINUOUS
 62
     7
 10
58.121821
 20
142.435132
 40
0.103119
 50
180.000020
 51
359.999982
  0
ARC
  8
CSLAYER1
  6
CONTINUOUS
 62
     7
 10
57.563268
 20
142.700859
 40
0.088292
 50
90.000040
 51
269.999980
  0
ARC
  8
CSLAYER1
  6
CONTINUOUS
 62
     7
 10
58.111201
 20
143.006105
 40
0.092500
 50
90.000040
 51
175.157140
  0
ARC
  8
CSLAYER1
  6
CONTINUOUS
 62
     7
 10
58.118701
 20
143.022034
 40
0.100000
 50
184.658040
 51
270.000000
  0
ARC
  8
CSLAYER1
  6
CONTINUOUS
 62
     7
 10
58.124941
 20
142.998607
 40
0.100000
 50
-0.000018
 51
90.000020
  0
ARC
  8
CSLAYER1
  6
CONTINUOUS
 62
     7
 10
57.578103
 20
141.571872
 40
0.103125
 50
180.000020
 51
359.999982
  0
ARC
  8
CSLAYER1
  6
CONTINUOUS
 62
     7
 10
57.581438
 20
142.132175
 40
0.106463
 50
42.504470
 51
180.000000
  0
ARC
  8
CSLAYER1
  6
CONTINUOUS
 62
     7
 10
57.684976
 20
141.885162
 40
0.003750
 50
42.505510
 51
179.998630
  0
ARC
  8
CSLAYER1
  6
CONTINUOUS
 62
     7
 10
58.118531
 20
141.575197
 40
0.106447
 50
222.504460
 51
359.999982
  0
ARC
  8
CSLAYER1
  6
CONTINUOUS
 62
     7
 10
58.136981
 20
141.689124
 40
0.003750
 50
222.505720
 51
359.998288
  0
ARC
  8
CSLAYER1
  6
CONTINUOUS
 62
     7
 10
58.111223
 20
142.114371
 40
0.092500
 50
90.000040
 51
175.157140
  0
ARC
  8
CSLAYER1
  6
CONTINUOUS
 62
     7
 10
58.118723
 20
142.130300
 40
0.100000
 50
184.658040
 51
270.000000
  0
ARC
  8
CSLAYER1
  6
CONTINUOUS
 62
     7
 10
58.124963
 20
142.106872
 40
0.100000
 50
-0.000018
 51
90.000020
  0
CIRCLE
  8
CSLAYER1
  6
CONTINUOUS
 62
     7
 10
52.215506
 20
141.323590
 40
0.237500
  0
CIRCLE
  8
CSLAYER1
  6
CONTINUOUS
 62
     7
 10
52.215506
 20
141.323590
 40
0.312500
  0
LINE
  8
CSLAYER1
  6
CONTINUOUS
 62
     7
 10
90.749978
 20
57.250000
 11
90.124978
 21
57.250000
  0
LINE
  8
CSLAYER1
  6
CONTINUOUS
 62
     7
 10
90.749978
 20
57.250000
 11
90.874978
 21
57.375000
  0
ARC
  8
CSLAYER1
  6
CONTINUOUS
 62
     7
 10
110.124978
 20
216.250000
 40
2.500000
 50
270.000000
 51
360.000000
  0
ARC
  8
CSLAYER1
  6
CONTINUOUS
 62
     7
 10
106.374978
 20
201.250000
 40
12.500000
 50
90.000000
 51
180.000000
  0
INSERT
  8
CSLAYER1
  2
BLKF0000
 10
0.0
 20
0.0
 30
0.0
  0
LINE
  8
CSLAYER1
  6
CONTINUOUS
 62
     7
 10
83.829978
 20
79.088834
 11
83.829978
 21
76.088834
  0
LINE
  8
CSLAYER1
  6
CONTINUOUS
 62
     7
 10
84.097928
 20
79.552936
 11
86.374978
 21
79.552936
  0
LINE
  8
CSLAYER1
  6
CONTINUOUS
 62
     7
 10
84.097928
 20
77.820885
 11
86.374978
 21
77.820885
  0
LINE
  8
CSLAYER1
  6
CONTINUOUS
 62
     7
 10
83.829978
 20
79.088834
 11
84.097928
 21
79.552936
  0
ARC
  8
CSLAYER1
  6
CONTINUOUS
 62
     7
 10
85.820472
 20
78.686911
 40
1.927993
 50
153.308604
 51
206.691396
  0
ARC
  8
CSLAYER1
  6
CONTINUOUS
 62
     7
 10
91.296278
 20
76.088834
 40
7.403800
 50
166.470805
 51
180.000000
  0
LINE
  8
CSLAYER1
  6
CONTINUOUS
 62
     7
 10
83.829978
 20
73.088834
 11
83.829978
 21
76.088834
  0
LINE
  8
CSLAYER1
  6
CONTINUOUS
 62
     7
 10
84.097928
 20
72.624733
 11
86.374978
 21
72.624733
  0
LINE
  8
CSLAYER1
  6
CONTINUOUS
 62
     7
 10
84.097928
 20
74.356784
 11
86.374978
 21
74.356784
  0
LINE
  8
CSLAYER1
  6
CONTINUOUS
 62
     7
 10
83.829978
 20
73.088834
 11
84.097928
 21
72.624733
  0
ARC
  8
CSLAYER1
  6
CONTINUOUS
 62
     7
 10
85.820472
 20
73.490758
 40
1.927993
 50
153.308604
 51
206.691396
  0
ARC
  8
CSLAYER1
  6
CONTINUOUS
 62
     7
 10
91.296278
 20
76.088834
 40
7.403800
 50
180.000000
 51
193.529195
  0
LINE
  8
CSLAYER1
  6
CONTINUOUS
 62
     7
 10
102.624978
 20
77.713834
 11
102.624978
 21
76.088834
  0
LINE
  8
CSLAYER1
  6
CONTINUOUS
 62
     7
 10
102.249978
 20
78.088834
 11
102.624978
 21
77.713834
  0
LINE
  8
CSLAYER1
  6
CONTINUOUS
 62
     7
 10
102.249978
 20
78.088834
 11
102.249978
 21
76.088834
  0
LINE
  8
CSLAYER1
  6
CONTINUOUS
 62
     7
 10
102.624978
 20
74.463834
 11
102.624978
 21
76.088834
  0
LINE
  8
CSLAYER1
  6
CONTINUOUS
 62
     7
 10
102.249978
 20
74.088834
 11
102.624978
 21
74.463834
  0
LINE
  8
CSLAYER1
  6
CONTINUOUS
 62
     7
 10
102.249978
 20
74.088834
 11
102.249978
 21
76.088834
  0
LINE
  8
CSLAYER1
  6
CONTINUOUS
 62
     7
 10
99.624978
 20
79.088834
 11
99.624978
 21
76.088834
  0
LINE
  8
CSLAYER1
  6
CONTINUOUS
 62
     7
 10
96.374978
 20
79.552936
 11
96.374978
 21
76.088834
  0
LINE
  8
CSLAYER1
  6
CONTINUOUS
 62
     7
 10
96.374978
 20
77.820885
 11
99.357029
 21
77.820885
  0
LINE
  8
CSLAYER1
  6
CONTINUOUS
 62
     7
 10
96.374978
 20
79.552936
 11
99.357029
 21
79.552936
  0
LINE
  8
CSLAYER1
  6
CONTINUOUS
 62
     7
 10
99.624978
 20
79.088834
 11
99.357029
 21
79.552936
  0
ARC
  8
CSLAYER1
  6
CONTINUOUS
 62
     7
 10
97.634485
 20
78.686911
 40
1.927993
 50
-26.691396
 51
26.691396
  0
ARC
  8
CSLAYER1
  6
CONTINUOUS
 62
     7
 10
92.158679
 20
76.088834
 40
7.403800
 50
0.000000
 51
13.529195
  0
LINE
  8
CSLAYER1
  6
CONTINUOUS
 62
     7
 10
99.624978
 20
73.088834
 11
99.624978
 21
76.088834
  0
LINE
  8
CSLAYER1
  6
CONTINUOUS
 62
     7
 10
96.374978
 20
72.624733
 11
96.374978
 21
76.088834
  0
LINE
  8
CSLAYER1
  6
CONTINUOUS
 62
     7
 10
96.374978
 20
74.356784
 11
99.357029
 21
74.356784
  0
LINE
  8
CSLAYER1
  6
CONTINUOUS
 62
     7
 10
96.374978
 20
72.624733
 11
99.357029
 21
72.624733
  0
LINE
  8
CSLAYER1
  6
CONTINUOUS
 62
     7
 10
99.624978
 20
73.088834
 11
99.357029
 21
72.624733
  0
ARC
  8
CSLAYER1
  6
CONTINUOUS
 62
     7
 10
97.634485
 20
73.490758
 40
1.927993
 50
-26.691396
 51
26.691396
  0
ARC
  8
CSLAYER1
  6
CONTINUOUS
 62
     7
 10
92.158679
 20
76.088834
 40
7.403800
 50
346.470805
 51
360.000000
  0
LINE
  8
CSLAYER1
  6
CONTINUOUS
 62
     7
 10
99.624978
 20
78.088834
 11
102.249978
 21
78.088834
  0
LINE
  8
CSLAYER1
  6
CONTINUOUS
 62
     7
 10
99.624978
 20
77.838834
 11
102.499978
 21
77.838834
  0
LINE
  8
CSLAYER1
  6
CONTINUOUS
 62
     7
 10
99.624978
 20
74.338834
 11
102.499978
 21
74.338834
  0
LINE
  8
CSLAYER1
  6
CONTINUOUS
 62
     7
 10
99.624978
 20
74.088834
 11
102.249978
 21
74.088834
  0
LINE
  8
CSLAYER1
  6
CENTER
 62
     2
 10
81.329978
 20
76.088834
 11
105.124978
 21
76.088834
  0
LINE
  8
CSLAYER1
  6
CENTER
 62
     2
 10
68.204978
 20
182.338834
 11
91.999978
 21
182.338834
  0
LINE
  8
CSLAYER1
  6
CONTINUOUS
 62
     7
 10
71.204978
 20
179.338834
 11
71.204978
 21
182.338834
  0
LINE
  8
CSLAYER1
  6
CONTINUOUS
 62
     7
 10
71.472928
 20
178.874733
 11
73.749978
 21
178.874733
  0
LINE
  8
CSLAYER1
  6
CONTINUOUS
 62
     7
 10
71.472928
 20
180.606784
 11
73.749978
 21
180.606784
  0
LINE
  8
CSLAYER1
  6
CONTINUOUS
 62
     7
 10
71.204978
 20
179.338834
 11
71.472928
 21
178.874733
  0
ARC
  8
CSLAYER1
  6
CONTINUOUS
 62
     7
 10
73.195472
 20
179.740758
 40
1.927993
 50
153.308604
 51
206.691396
  0
ARC
  8
CSLAYER1
  6
CONTINUOUS
 62
     7
 10
78.671278
 20
182.338834
 40
7.403800
 50
180.000000
 51
193.529195
  0
LINE
  8
CSLAYER1
  6
CONTINUOUS
 62
     7
 10
71.204978
 20
185.338834
 11
71.204978
 21
182.338834
  0
LINE
  8
CSLAYER1
  6
CONTINUOUS
 62
     7
 10
71.472928
 20
185.802936
 11
73.749978
 21
185.802936
  0
LINE
  8
CSLAYER1
  6
CONTINUOUS
 62
     7
 10
71.472928
 20
184.070885
 11
73.749978
 21
184.070885
  0
LINE
  8
CSLAYER1
  6
CONTINUOUS
 62
     7
 10
71.204978
 20
185.338834
 11
71.472928
 21
185.802936
  0
ARC
  8
CSLAYER1
  6
CONTINUOUS
 62
     7
 10
73.195472
 20
184.936911
 40
1.927993
 50
153.308604
 51
206.691396
  0
ARC
  8
CSLAYER1
  6
CONTINUOUS
 62
     7
 10
78.671278
 20
182.338834
 40
7.403800
 50
166.470805
 51
180.000000
  0
LINE
  8
CSLAYER1
  6
CONTINUOUS
 62
     7
 10
83.249978
 20
185.802936
 11
86.232029
 21
185.802936
  0
LINE
  8
CSLAYER1
  6
CONTINUOUS
 62
     7
 10
86.499978
 20
185.338834
 11
86.232029
 21
185.802936
  0
LINE
  8
CSLAYER1
  6
CONTINUOUS
 62
     7
 10
86.499978
 20
185.338834
 11
86.499978
 21
182.338834
  0
ARC
  8
CSLAYER1
  6
CONTINUOUS
 62
     7
 10
84.509485
 20
184.936911
 40
1.927993
 50
-26.691396
 51
26.691396
  0
LINE
  8
CSLAYER1
  6
CONTINUOUS
 62
     7
 10
83.249978
 20
184.070885
 11
86.232029
 21
184.070885
  0
ARC
  8
CSLAYER1
  6
CONTINUOUS
 62
     7
 10
79.033679
 20
182.338834
 40
7.403800
 50
0.000000
 51
13.529195
  0
LINE
  8
CSLAYER1
  6
CONTINUOUS
 62
     7
 10
83.249978
 20
180.606784
 11
86.232029
 21
180.606784
  0
ARC
  8
CSLAYER1
  6
CONTINUOUS
 62
     7
 10
79.033679
 20
182.338834
 40
7.403800
 50
346.470805
 51
360.000000
  0
LINE
  8
CSLAYER1
  6
CONTINUOUS
 62
     7
 10
86.499978
 20
179.338834
 11
86.499978
 21
182.338834
  0
ARC
  8
CSLAYER1
  6
CONTINUOUS
 62
     7
 10
84.509485
 20
179.740758
 40
1.927993
 50
-26.691396
 51
26.691396
  0
LINE
  8
CSLAYER1
  6
CONTINUOUS
 62
     7
 10
86.499978
 20
179.338834
 11
86.232029
 21
178.874733
  0
LINE
  8
CSLAYER1
  6
CONTINUOUS
 62
     7
 10
83.249978
 20
178.874733
 11
86.232029
 21
178.874733
  0
LINE
  8
CSLAYER1
  6
CONTINUOUS
 62
     7
 10
86.499978
 20
180.338834
 11
89.624978
 21
180.338834
  0
LINE
  8
CSLAYER1
  6
CONTINUOUS
 62
     7
 10
86.499978
 20
180.588834
 11
89.874978
 21
180.588834
  0
LINE
  8
CSLAYER1
  6
CONTINUOUS
 62
     7
 10
86.499978
 20
184.088834
 11
89.874978
 21
184.088834
  0
LINE
  8
CSLAYER1
  6
CONTINUOUS
 62
     7
 10
86.499978
 20
184.338834
 11
89.624978
 21
184.338834
  0
LINE
  8
CSLAYER1
  6
CONTINUOUS
 62
     7
 10
89.624978
 20
184.338834
 11
89.624978
 21
182.338834
  0
LINE
  8
CSLAYER1
  6
CONTINUOUS
 62
     7
 10
89.624978
 20
184.338834
 11
89.999978
 21
183.963834
  0
LINE
  8
CSLAYER1
  6
CONTINUOUS
 62
     7
 10
89.999978
 20
183.963834
 11
89.999978
 21
182.338834
  0
LINE
  8
CSLAYER1
  6
CONTINUOUS
 62
     7
 10
89.999978
 20
180.713834
 11
89.999978
 21
182.338834
  0
LINE
  8
CSLAYER1
  6
CONTINUOUS
 62
     7
 10
89.624978
 20
180.338834
 11
89.999978
 21
180.713834
  0
LINE
  8
CSLAYER1
  6
CONTINUOUS
 62
     7
 10
89.624978
 20
180.338834
 11
89.624978
 21
182.338834
  0
LINE
  8
CSLAYER1
  6
CENTER
 62
     2
 10
68.204978
 20
164.661165
 11
91.999978
 21
164.661165
  0
LINE
  8
CSLAYER1
  6
CONTINUOUS
 62
     7
 10
71.204978
 20
167.661165
 11
71.204978
 21
164.661165
  0
LINE
  8
CSLAYER1
  6
CONTINUOUS
 62
     7
 10
71.472928
 20
168.125267
 11
73.749978
 21
168.125267
  0
LINE
  8
CSLAYER1
  6
CONTINUOUS
 62
     7
 10
71.472928
 20
166.393216
 11
73.749978
 21
166.393216
  0
LINE
  8
CSLAYER1
  6
CONTINUOUS
 62
     7
 10
71.204978
 20
167.661165
 11
71.472928
 21
168.125267
  0
ARC
  8
CSLAYER1
  6
CONTINUOUS
 62
     7
 10
73.195472
 20
167.259241
 40
1.927993
 50
153.308604
 51
206.691396
  0
ARC
  8
CSLAYER1
  6
CONTINUOUS
 62
     7
 10
78.671278
 20
164.661165
 40
7.403800
 50
166.470805
 51
180.000000
  0
LINE
  8
CSLAYER1
  6
CONTINUOUS
 62
     7
 10
71.204978
 20
161.661165
 11
71.204978
 21
164.661165
  0
LINE
  8
CSLAYER1
  6
CONTINUOUS
 62
     7
 10
71.472928
 20
161.197063
 11
73.749978
 21
161.197063
  0
LINE
  8
CSLAYER1
  6
CONTINUOUS
 62
     7
 10
71.472928
 20
162.929114
 11
73.749978
 21
162.929114
  0
LINE
  8
CSLAYER1
  6
CONTINUOUS
 62
     7
 10
71.204978
 20
161.661165
 11
71.472928
 21
161.197063
  0
ARC
  8
CSLAYER1
  6
CONTINUOUS
 62
     7
 10
73.195472
 20
162.063089
 40
1.927993
 50
153.308604
 51
206.691396
  0
ARC
  8
CSLAYER1
  6
CONTINUOUS
 62
     7
 10
78.671278
 20
164.661165
 40
7.403800
 50
180.000000
 51
193.529195
  0
LINE
  8
CSLAYER1
  6
CONTINUOUS
 62
     7
 10
83.249978
 20
161.197063
 11
86.232029
 21
161.197063
  0
LINE
  8
CSLAYER1
  6
CONTINUOUS
 62
     7
 10
86.499978
 20
161.661165
 11
86.232029
 21
161.197063
  0
LINE
  8
CSLAYER1
  6
CONTINUOUS
 62
     7
 10
86.499978
 20
161.661165
 11
86.499978
 21
164.661165
  0
ARC
  8
CSLAYER1
  6
CONTINUOUS
 62
     7
 10
84.509485
 20
162.063089
 40
1.927993
 50
-26.691396
 51
26.691396
  0
LINE
  8
CSLAYER1
  6
CONTINUOUS
 62
     7
 10
83.249978
 20
162.929114
 11
86.232029
 21
162.929114
  0
ARC
  8
CSLAYER1
  6
CONTINUOUS
 62
     7
 10
79.033679
 20
164.661165
 40
7.403800
 50
346.470805
 51
360.000000
  0
LINE
  8
CSLAYER1
  6
CONTINUOUS
 62
     7
 10
83.249978
 20
166.393216
 11
86.232029
 21
166.393216
  0
ARC
  8
CSLAYER1
  6
CONTINUOUS
 62
     7
 10
79.033679
 20
164.661165
 40
7.403800
 50
0.000000
 51
13.529195
  0
LINE
  8
CSLAYER1
  6
CONTINUOUS
 62
     7
 10
86.499978
 20
167.661165
 11
86.499978
 21
164.661165
  0
ARC
  8
CSLAYER1
  6
CONTINUOUS
 62
     7
 10
84.509485
 20
167.259241
 40
1.927993
 50
-26.691396
 51
26.691396
  0
LINE
  8
CSLAYER1
  6
CONTINUOUS
 62
     7
 10
86.499978
 20
167.661165
 11
86.232029
 21
168.125267
  0
LINE
  8
CSLAYER1
  6
CONTINUOUS
 62
     7
 10
83.249978
 20
168.125267
 11
86.232029
 21
168.125267
  0
LINE
  8
CSLAYER1
  6
CONTINUOUS
 62
     7
 10
86.499978
 20
166.661165
 11
89.624978
 21
166.661165
  0
LINE
  8
CSLAYER1
  6
CONTINUOUS
 62
     7
 10
86.499978
 20
166.411165
 11
89.874978
 21
166.411165
  0
LINE
  8
CSLAYER1
  6
CONTINUOUS
 62
     7
 10
86.499978
 20
162.911165
 11
89.874978
 21
162.911165
  0
LINE
  8
CSLAYER1
  6
CONTINUOUS
 62
     7
 10
86.499978
 20
162.661165
 11
89.624978
 21
162.661165
  0
LINE
  8
CSLAYER1
  6
CONTINUOUS
 62
     7
 10
89.624978
 20
162.661165
 11
89.624978
 21
164.661165
  0
LINE
  8
CSLAYER1
  6
CONTINUOUS
 62
     7
 10
89.624978
 20
162.661165
 11
89.999978
 21
163.036165
  0
LINE
  8
CSLAYER1
  6
CONTINUOUS
 62
     7
 10
89.999978
 20
163.036165
 11
89.999978
 21
164.661165
  0
LINE
  8
CSLAYER1
  6
CONTINUOUS
 62
     7
 10
89.999978
 20
166.286165
 11
89.999978
 21
164.661165
  0
LINE
  8
CSLAYER1
  6
CONTINUOUS
 62
     7
 10
89.624978
 20
166.661165
 11
89.999978
 21
166.286165
  0
LINE
  8
CSLAYER1
  6
CONTINUOUS
 62
     7
 10
89.624978
 20
166.661165
 11
89.624978
 21
164.661165
  0
LINE
  8
CSLAYER1
  6
CONTINUOUS
 62
     7
 10
161.374978
 20
36.000000
 11
100.499978
 21
36.000000
  0
LINE
  8
CSLAYER1
  6
CONTINUOUS
 62
     7
 10
100.624978
 20
45.000000
 11
161.374978
 21
45.000000
  0
LINE
  8
CSLAYER1
  6
CONTINUOUS
 62
     7
 10
106.749978
 20
85.000000
 11
161.374978
 21
85.000000
  0
LINE
  8
CSLAYER1
  6
CONTINUOUS
 62
     7
 10
161.374978
 20
130.000000
 11
78.499978
 21
130.000000
  0
LINE
  8
CSLAYER1
  6
CONTINUOUS
 62
     7
 10
78.374978
 20
139.500000
 11
161.374978
 21
139.500000
  0
LINE
  8
CSLAYER1
  6
CONTINUOUS
 62
     7
 10
78.374978
 20
140.000000
 11
161.374978
 21
140.000000
  0
LINE
  8
CSLAYER1
  6
CONTINUOUS
 62
     7
 10
161.374978
 20
150.000000
 11
78.499978
 21
150.000000
  0
LINE
  8
CSLAYER1
  6
CONTINUOUS
 62
     7
 10
106.374978
 20
213.750000
 11
161.374978
 21
213.750000
  0
LINE
  8
CSLAYER1
  6
CONTINUOUS
 62
     7
 10
310.999978
 20
122.500000
 11
310.999978
 21
97.500000
  0
LINE
  8
CSLAYER1
  6
CONTINUOUS
 62
     7
 10
316.874978
 20
36.375000
 11
316.874978
 21
44.500000
  0
LINE
  8
CSLAYER1
  6
CENTER
 62
     2
 10
322.499978
 20
31.000000
 11
322.499978
 21
50.000000
  0
ARC
  8
CSLAYER1
  6
CONTINUOUS
 62
     7
 10
326.999978
 20
47.000000
 40
2.000000
 50
270.000000
 51
360.000000
  0
ARC
  8
CSLAYER1
  6
CONTINUOUS
 62
     7
 10
323.499978
 20
97.500000
 40
12.500000
 50
180.000000
 51
270.000000
  0
ARC
  8
CSLAYER1
  6
CONTINUOUS
 62
     7
 10
325.499978
 20
81.500000
 40
3.500000
 50
0.000000
 51
90.000000
  0
LINE
  8
CSLAYER1
  6
CONTINUOUS
 62
     7
 10
328.999978
 20
47.000000
 11
328.999978
 21
81.500000
  0
LINE
  8
CSLAYER1
  6
CONTINUOUS
 62
     7
 10
317.374978
 20
45.000000
 11
316.874978
 21
44.500000
  0
LINE
  8
CSLAYER1
  6
CONTINUOUS
 62
     7
 10
316.874978
 20
36.375000
 11
317.249978
 21
36.000000
  0
LINE
  8
CSLAYER1
  6
CONTINUOUS
 62
     7
 10
294.749978
 20
149.500000
 11
294.749978
 21
140.375000
  0
LINE
  8
CSLAYER1
  6
CONTINUOUS
 62
     7
 10
306.437478
 20
140.000000
 11
306.437478
 21
139.500000
  0
LINE
  8
CSLAYER1
  6
CONTINUOUS
 62
     7
 10
294.749978
 20
130.500000
 11
295.249978
 21
130.000000
  0
LINE
  8
CSLAYER1
  6
CONTINUOUS
 62
     7
 10
295.124978
 20
139.500000
 11
294.749978
 21
139.125000
  0
LINE
  8
CSLAYER1
  6
CONTINUOUS
 62
     7
 10
295.249978
 20
150.000000
 11
294.749978
 21
149.500000
  0
LINE
  8
CSLAYER1
  6
CONTINUOUS
 62
     7
 10
294.749978
 20
140.375000
 11
295.124978
 21
140.000000
  0
CIRCLE
  8
CSLAYER1
  6
CONTINUOUS
 62
     7
 10
369.286144
 20
76.088834
 40
3.000000
  0
LINE
  8
CSLAYER1
  6
CONTINUOUS
 62
     7
 10
367.554093
 20
79.088834
 11
371.018194
 21
79.088834
  0
LINE
  8
CSLAYER1
  6
CONTINUOUS
 62
     7
 10
371.018194
 20
79.088834
 11
372.750245
 21
76.088834
  0
LINE
  8
CSLAYER1
  6
CONTINUOUS
 62
     7
 10
371.018194
 20
73.088834
 11
372.750245
 21
76.088834
  0
LINE
  8
CSLAYER1
  6
CONTINUOUS
 62
     7
 10
367.554093
 20
73.088834
 11
365.822042
 21
76.088834
  0
LINE
  8
CSLAYER1
  6
CONTINUOUS
 62
     7
 10
371.018194
 20
73.088834
 11
367.554093
 21
73.088834
  0
LINE
  8
CSLAYER1
  6
CONTINUOUS
 62
     7
 10
365.822042
 20
76.088834
 11
367.554093
 21
79.088834
  0
LINE
  8
CSLAYER1
  6
CONTINUOUS
 62
     7
 10
372.750245
 20
58.411165
 11
371.018194
 21
55.411165
  0
LINE
  8
CSLAYER1
  6
CONTINUOUS
 62
     7
 10
371.018194
 20
55.411165
 11
367.554093
 21
55.411165
  0
LINE
  8
CSLAYER1
  6
CONTINUOUS
 62
     7
 10
367.554093
 20
55.411165
 11
365.822042
 21
58.411165
  0
LINE
  8
CSLAYER1
  6
CONTINUOUS
 62
     7
 10
365.822042
 20
58.411165
 11
367.554093
 21
61.411165
  0
LINE
  8
CSLAYER1
  6
CONTINUOUS
 62
     7
 10
367.554093
 20
61.411165
 11
371.018194
 21
61.411165
  0
LINE
  8
CSLAYER1
  6
CONTINUOUS
 62
     7
 10
371.018194
 20
61.411165
 11
372.750245
 21
58.411165
  0
CIRCLE
  8
CSLAYER1
  6
CONTINUOUS
 62
     7
 10
369.286144
 20
58.411165
 40
3.000000
  0
LINE
  8
CSLAYER1
  6
CONTINUOUS
 62
     7
 10
407.229629
 20
140.000000
 11
403.799978
 21
140.000000
  0
LINE
  8
CSLAYER1
  6
CONTINUOUS
 62
     7
 10
407.473495
 20
139.500000
 11
403.799978
 21
139.500000
  0
LINE
  8
CSLAYER1
  6
CONTINUOUS
 62
     7
 10
413.354454
 20
150.000000
 11
460.999978
 21
150.000000
  0
INSERT
  8
CSLAYER1
  2
BLKF0001
 10
0.0
 20
0.0
 30
0.0
  0
LINE
  8
CSLAYER1
  6
CENTER
 62
     2
 10
161.374978
 20
249.750000
 11
161.374978
 21
426.500000
  0
LINE
  8
CSLAYER1
  6
CENTER
 62
     2
 10
46.249978
 20
338.125000
 11
249.749978
 21
338.125000
  0
CIRCLE
  8
CSLAYER1
  6
CONTINUOUS
 62
     7
 10
161.374978
 20
338.125000
 40
61.250000
  0
CIRCLE
  8
CSLAYER1
  6
CONTINUOUS
 62
     7
 10
161.374978
 20
338.125000
 40
43.750000
  0
CIRCLE
  8
CSLAYER1
  6
CENTER
 62
     2
 10
161.374978
 20
338.125000
 40
55.625000
  0
ARC
  8
CSLAYER1
  6
CONTINUOUS
 62
     7
 10
161.374978
 20
338.125000
 40
83.375000
 50
-168.322730
 51
168.322730
  0
CIRCLE
  8
CSLAYER1
  6
CONTINUOUS
 62
     7
 10
161.374978
 20
338.125000
 40
67.500000
  0
CIRCLE
  8
CSLAYER1
  6
CENTER
 62
     2
 10
161.374978
 20
338.125000
 40
77.125000
  0
LINE
  8
CSLAYER1
  6
CONTINUOUS
 62
     7
 10
78.249978
 20
338.125000
 11
78.249978
 21
355.000000
  0
LINE
  8
CSLAYER1
  6
CONTINUOUS
 62
     7
 10
83.249978
 20
338.125000
 11
83.249978
 21
354.500000
  0
LINE
  8
CSLAYER1
  6
CONTINUOUS
 62
     7
 10
91.738422
 20
346.125000
 11
89.999978
 21
346.125000
  0
LINE
  8
CSLAYER1
  6
CONTINUOUS
 62
     7
 10
82.749978
 20
355.000000
 11
78.499978
 21
355.000000
  0
LINE
  8
CSLAYER1
  6
CONTINUOUS
 62
     7
 10
82.749978
 20
355.000000
 11
83.249978
 21
354.500000
  0
LINE
  8
CSLAYER1
  6
CONTINUOUS
 62
     7
 10
78.249978
 20
338.125000
 11
78.249978
 21
321.250000
  0
LINE
  8
CSLAYER1
  6
CONTINUOUS
 62
     7
 10
83.249978
 20
338.125000
 11
83.249978
 21
321.750000
  0
LINE
  8
CSLAYER1
  6
CONTINUOUS
 62
     7
 10
91.738422
 20
330.125000
 11
89.999978
 21
330.125000
  0
LINE
  8
CSLAYER1
  6
CONTINUOUS
 62
     7
 10
82.749978
 20
321.250000
 11
78.499978
 21
321.250000
  0
LINE
  8
CSLAYER1
  6
CONTINUOUS
 62
     7
 10
82.749978
 20
321.250000
 11
83.249978
 21
321.750000
  0
LINE
  8
CSLAYER1
  6
CONTINUOUS
 62
     7
 10
78.249978
 20
321.500000
 11
78.499978
 21
321.250000
  0
LINE
  8
CSLAYER1
  6
CONTINUOUS
 62
     7
 10
78.499978
 20
355.000000
 11
78.249978
 21
354.750000
  0
LINE
  8
CSLAYER1
  6
CONTINUOUS
 62
     7
 10
64.324978
 20
344.375000
 11
61.249978
 21
344.375000
  0
LINE
  8
CSLAYER1
  6
CONTINUOUS
 62
     7
 10
73.749978
 20
354.500000
 11
73.749978
 21
338.125000
  0
LINE
  8
CSLAYER1
  6
CONTINUOUS
 62
     7
 10
77.749978
 20
347.500000
 11
77.749978
 21
338.125000
  0
LINE
  8
CSLAYER1
  6
CONTINUOUS
 62
     7
 10
77.249978
 20
347.625000
 11
77.624978
 21
347.625000
  0
LINE
  8
CSLAYER1
  6
CONTINUOUS
 62
     7
 10
74.249978
 20
355.000000
 11
76.999978
 21
355.000000
  0
LINE
  8
CSLAYER1
  6
CONTINUOUS
 62
     7
 10
77.624978
 20
347.625000
 11
77.749978
 21
347.500000
  0
LINE
  8
CSLAYER1
  6
CONTINUOUS
 62
     7
 10
73.749978
 20
321.750000
 11
73.749978
 21
338.125000
  0
LINE
  8
CSLAYER1
  6
CONTINUOUS
 62
     7
 10
77.749978
 20
328.750000
 11
77.749978
 21
338.125000
  0
LINE
  8
CSLAYER1
  6
CONTINUOUS
 62
     7
 10
77.249978
 20
321.500000
 11
77.249978
 21
338.125000
  0
LINE
  8
CSLAYER1
  6
CONTINUOUS
 62
     7
 10
77.249978
 20
328.625000
 11
77.624978
 21
328.625000
  0
LINE
  8
CSLAYER1
  6
CONTINUOUS
 62
     7
 10
74.249978
 20
321.250000
 11
76.999978
 21
321.250000
  0
LINE
  8
CSLAYER1
  6
CONTINUOUS
 62
     7
 10
77.624978
 20
328.625000
 11
77.749978
 21
328.750000
  0
LINE
  8
CSLAYER1
  6
CONTINUOUS
 62
     7
 10
72.499978
 20
343.499733
 11
72.499978
 21
338.125000
  0
LINE
  8
CSLAYER1
  6
CONTINUOUS
 62
     7
 10
72.499978
 20
332.750267
 11
72.499978
 21
338.125000
  0
ARC
  8
CSLAYER1
  6
CONTINUOUS
 62
     7
 10
74.249978
 20
354.500000
 40
0.500000
 50
90.000000
 51
180.000000
  0
ARC
  8
CSLAYER1
  6
CONTINUOUS
 62
     7
 10
76.999978
 20
354.750000
 40
0.250000
 50
0.000000
 51
90.000000
  0
ARC
  8
CSLAYER1
  6
CONTINUOUS
 62
     7
 10
76.999978
 20
321.500000
 40
0.250000
 50
270.000000
 51
360.000000
  0
ARC
  8
CSLAYER1
  6
CONTINUOUS
 62
     7
 10
74.249978
 20
321.750000
 40
0.500000
 50
180.000000
 51
270.000000
  0
LINE
  8
CSLAYER1
  6
CONTINUOUS
 62
     7
 10
77.749978
 20
338.125000
 11
77.749978
 21
355.000000
  0
LINE
  8
CSLAYER1
  6
CONTINUOUS
 62
     7
 10
78.249978
 20
355.000000
 11
77.749978
 21
355.000000
  0
LINE
  8
CSLAYER1
  6
CONTINUOUS
 62
     7
 10
78.249978
 20
321.250000
 11
77.749978
 21
321.250000
  0
LINE
  8
CSLAYER1
  6
CONTINUOUS
 62
     7
 10
77.749978
 20
338.125000
 11
77.749978
 21
321.250000
  0
LINE
  8
CSLAYER1
  6
CONTINUOUS
 62
     7
 10
70.249978
 20
343.363750
 11
68.749978
 21
343.363750
  0
LINE
  8
CSLAYER1
  6
CONTINUOUS
 62
     7
 10
66.499978
 20
343.293437
 11
68.749978
 21
343.363750
  0
LINE
  8
CSLAYER1
  6
CONTINUOUS
 62
     7
 10
66.499978
 20
342.996343
 11
68.205951
 21
343.049655
  0
LINE
  8
CSLAYER1
  6
CONTINUOUS
 62
     7
 10
68.749978
 20
343.363750
 11
68.205951
 21
343.049655
  0
LINE
  8
CSLAYER1
  6
CONTINUOUS
 62
     7
 10
68.205951
 20
338.125000
 11
68.205951
 21
343.346749
  0
LINE
  8
CSLAYER1
  6
CONTINUOUS
 62
     7
 10
70.249978
 20
332.886250
 11
68.749978
 21
332.886250
  0
LINE
  8
CSLAYER1
  6
CONTINUOUS
 62
     7
 10
66.499978
 20
332.956562
 11
68.749978
 21
332.886250
  0
LINE
  8
CSLAYER1
  6
CONTINUOUS
 62
     7
 10
66.499978
 20
333.253656
 11
68.205951
 21
333.200344
  0
LINE
  8
CSLAYER1
  6
CONTINUOUS
 62
     7
 10
68.749978
 20
332.886250
 11
68.205951
 21
333.200344
  0
LINE
  8
CSLAYER1
  6
CONTINUOUS
 62
     7
 10
68.205951
 20
338.125000
 11
68.205951
 21
332.903251
  0
LINE
  8
CSLAYER1
  6
CONTINUOUS
 62
     7
 10
72.499978
 20
343.293437
 11
70.249978
 21
343.363750
  0
LINE
  8
CSLAYER1
  6
CONTINUOUS
 62
     7
 10
72.499978
 20
342.996343
 11
70.794006
 21
343.049655
  0
LINE
  8
CSLAYER1
  6
CONTINUOUS
 62
     7
 10
70.249978
 20
343.363750
 11
70.794006
 21
343.049655
  0
LINE
  8
CSLAYER1
  6
CONTINUOUS
 62
     7
 10
70.794006
 20
338.125000
 11
70.794006
 21
343.346749
  0
LINE
  8
CSLAYER1
  6
CONTINUOUS
 62
     7
 10
72.499978
 20
332.956562
 11
70.249978
 21
332.886250
  0
LINE
  8
CSLAYER1
  6
CONTINUOUS
 62
     7
 10
72.499978
 20
333.253656
 11
70.794006
 21
333.200344
  0
LINE
  8
CSLAYER1
  6
CONTINUOUS
 62
     7
 10
70.249978
 20
332.886250
 11
70.794006
 21
333.200344
  0
LINE
  8
CSLAYER1
  6
CONTINUOUS
 62
     7
 10
70.794006
 20
338.125000
 11
70.794006
 21
332.903251
  0
LINE
  8
CSLAYER1
  6
CONTINUOUS
 62
     7
 10
77.249978
 20
354.750000
 11
77.249978
 21
338.125000
  0
LINE
  8
CSLAYER1
  6
CENTER
 62
     2
 10
68.204978
 20
346.963834
 11
91.999978
 21
346.963834
  0
LINE
  8
CSLAYER1
  6
CONTINUOUS
 62
     7
 10
71.204978
 20
343.963834
 11
71.204978
 21
346.963834
  0
LINE
  8
CSLAYER1
  6
CONTINUOUS
 62
     7
 10
71.472928
 20
343.499733
 11
73.749978
 21
343.499733
  0
LINE
  8
CSLAYER1
  6
CONTINUOUS
 62
     7
 10
71.472928
 20
345.231784
 11
73.749978
 21
345.231784
  0
LINE
  8
CSLAYER1
  6
CONTINUOUS
 62
     7
 10
71.204978
 20
343.963834
 11
71.472928
 21
343.499733
  0
ARC
  8
CSLAYER1
  6
CONTINUOUS
 62
     7
 10
73.195472
 20
344.365758
 40
1.927993
 50
153.308604
 51
206.691396
  0
ARC
  8
CSLAYER1
  6
CONTINUOUS
 62
     7
 10
78.671278
 20
346.963834
 40
7.403800
 50
180.000000
 51
193.529195
  0
LINE
  8
CSLAYER1
  6
CONTINUOUS
 62
     7
 10
71.204978
 20
349.963834
 11
71.204978
 21
346.963834
  0
LINE
  8
CSLAYER1
  6
CONTINUOUS
 62
     7
 10
71.472928
 20
350.427936
 11
73.749978
 21
350.427936
  0
LINE
  8
CSLAYER1
  6
CONTINUOUS
 62
     7
 10
71.472928
 20
348.695885
 11
73.749978
 21
348.695885
  0
LINE
  8
CSLAYER1
  6
CONTINUOUS
 62
     7
 10
71.204978
 20
349.963834
 11
71.472928
 21
350.427936
  0
ARC
  8
CSLAYER1
  6
CONTINUOUS
 62
     7
 10
73.195472
 20
349.561911
 40
1.927993
 50
153.308604
 51
206.691396
  0
ARC
  8
CSLAYER1
  6
CONTINUOUS
 62
     7
 10
78.671278
 20
346.963834
 40
7.403800
 50
166.470805
 51
180.000000
  0
LINE
  8
CSLAYER1
  6
CONTINUOUS
 62
     7
 10
83.249978
 20
350.427936
 11
86.232029
 21
350.427936
  0
LINE
  8
CSLAYER1
  6
CONTINUOUS
 62
     7
 10
86.499978
 20
349.963834
 11
86.232029
 21
350.427936
  0
LINE
  8
CSLAYER1
  6
CONTINUOUS
 62
     7
 10
86.499978
 20
349.963834
 11
86.499978
 21
346.963834
  0
ARC
  8
CSLAYER1
  6
CONTINUOUS
 62
     7
 10
84.509485
 20
349.561911
 40
1.927993
 50
-26.691396
 51
26.691396
  0
LINE
  8
CSLAYER1
  6
CONTINUOUS
 62
     7
 10
83.249978
 20
348.695885
 11
86.232029
 21
348.695885
  0
ARC
  8
CSLAYER1
  6
CONTINUOUS
 62
     7
 10
79.033679
 20
346.963834
 40
7.403800
 50
0.000000
 51
13.529195
  0
LINE
  8
CSLAYER1
  6
CONTINUOUS
 62
     7
 10
83.249978
 20
345.231784
 11
86.232029
 21
345.231784
  0
ARC
  8
CSLAYER1
  6
CONTINUOUS
 62
     7
 10
79.033679
 20
346.963834
 40
7.403800
 50
346.470805
 51
360.000000
  0
LINE
  8
CSLAYER1
  6
CONTINUOUS
 62
     7
 10
86.499978
 20
343.963834
 11
86.499978
 21
346.963834
  0
ARC
  8
CSLAYER1
  6
CONTINUOUS
 62
     7
 10
84.509485
 20
344.365758
 40
1.927993
 50
-26.691396
 51
26.691396
  0
LINE
  8
CSLAYER1
  6
CONTINUOUS
 62
     7
 10
86.499978
 20
343.963834
 11
86.232029
 21
343.499733
  0
LINE
  8
CSLAYER1
  6
CONTINUOUS
 62
     7
 10
83.249978
 20
343.499733
 11
86.232029
 21
343.499733
  0
LINE
  8
CSLAYER1
  6
CONTINUOUS
 62
     7
 10
86.499978
 20
344.963834
 11
89.624978
 21
344.963834
  0
LINE
  8
CSLAYER1
  6
CONTINUOUS
 62
     7
 10
86.499978
 20
345.213834
 11
89.874978
 21
345.213834
  0
LINE
  8
CSLAYER1
  6
CONTINUOUS
 62
     7
 10
86.499978
 20
348.713834
 11
89.874978
 21
348.713834
  0
LINE
  8
CSLAYER1
  6
CONTINUOUS
 62
     7
 10
86.499978
 20
348.963834
 11
89.624978
 21
348.963834
  0
LINE
  8
CSLAYER1
  6
CONTINUOUS
 62
     7
 10
89.624978
 20
348.963834
 11
89.624978
 21
346.963834
  0
LINE
  8
CSLAYER1
  6
CONTINUOUS
 62
     7
 10
89.624978
 20
348.963834
 11
89.999978
 21
348.588834
  0
LINE
  8
CSLAYER1
  6
CONTINUOUS
 62
     7
 10
89.999978
 20
348.588834
 11
89.999978
 21
346.963834
  0
LINE
  8
CSLAYER1
  6
CONTINUOUS
 62
     7
 10
89.999978
 20
345.338834
 11
89.999978
 21
346.963834
  0
LINE
  8
CSLAYER1
  6
CONTINUOUS
 62
     7
 10
89.624978
 20
344.963834
 11
89.999978
 21
345.338834
  0
LINE
  8
CSLAYER1
  6
CONTINUOUS
 62
     7
 10
89.624978
 20
344.963834
 11
89.624978
 21
346.963834
  0
LINE
  8
CSLAYER1
  6
CENTER
 62
     2
 10
68.204978
 20
329.286165
 11
91.999978
 21
329.286165
  0
LINE
  8
CSLAYER1
  6
CONTINUOUS
 62
     7
 10
71.204978
 20
332.286165
 11
71.204978
 21
329.286165
  0
LINE
  8
CSLAYER1
  6
CONTINUOUS
 62
     7
 10
71.472928
 20
332.750267
 11
73.749978
 21
332.750267
  0
LINE
  8
CSLAYER1
  6
CONTINUOUS
 62
     7
 10
71.472928
 20
331.018216
 11
73.749978
 21
331.018216
  0
LINE
  8
CSLAYER1
  6
CONTINUOUS
 62
     7
 10
71.204978
 20
332.286165
 11
71.472928
 21
332.750267
  0
ARC
  8
CSLAYER1
  6
CONTINUOUS
 62
     7
 10
73.195472
 20
331.884241
 40
1.927993
 50
153.308604
 51
206.691396
  0
ARC
  8
CSLAYER1
  6
CONTINUOUS
 62
     7
 10
78.671278
 20
329.286165
 40
7.403800
 50
166.470805
 51
180.000000
  0
LINE
  8
CSLAYER1
  6
CONTINUOUS
 62
     7
 10
71.204978
 20
326.286165
 11
71.204978
 21
329.286165
  0
LINE
  8
CSLAYER1
  6
CONTINUOUS
 62
     7
 10
71.472928
 20
325.822063
 11
73.749978
 21
325.822063
  0
LINE
  8
CSLAYER1
  6
CONTINUOUS
 62
     7
 10
71.472928
 20
327.554114
 11
73.749978
 21
327.554114
  0
LINE
  8
CSLAYER1
  6
CONTINUOUS
 62
     7
 10
71.204978
 20
326.286165
 11
71.472928
 21
325.822063
  0
ARC
  8
CSLAYER1
  6
CONTINUOUS
 62
     7
 10
73.195472
 20
326.688089
 40
1.927993
 50
153.308604
 51
206.691396
  0
ARC
  8
CSLAYER1
  6
CONTINUOUS
 62
     7
 10
78.671278
 20
329.286165
 40
7.403800
 50
180.000000
 51
193.529195
  0
LINE
  8
CSLAYER1
  6
CONTINUOUS
 62
     7
 10
83.249978
 20
325.822063
 11
86.232029
 21
325.822063
  0
LINE
  8
CSLAYER1
  6
CONTINUOUS
 62
     7
 10
86.499978
 20
326.286165
 11
86.232029
 21
325.822063
  0
LINE
  8
CSLAYER1
  6
CONTINUOUS
 62
     7
 10
86.499978
 20
326.286165
 11
86.499978
 21
329.286165
  0
ARC
  8
CSLAYER1
  6
CONTINUOUS
 62
     7
 10
84.509485
 20
326.688089
 40
1.927993
 50
-26.691396
 51
26.691396
  0
LINE
  8
CSLAYER1
  6
CONTINUOUS
 62
     7
 10
83.249978
 20
327.554114
 11
86.232029
 21
327.554114
  0
ARC
  8
CSLAYER1
  6
CONTINUOUS
 62
     7
 10
79.033679
 20
329.286165
 40
7.403800
 50
346.470805
 51
360.000000
  0
LINE
  8
CSLAYER1
  6
CONTINUOUS
 62
     7
 10
83.249978
 20
331.018216
 11
86.232029
 21
331.018216
  0
ARC
  8
CSLAYER1
  6
CONTINUOUS
 62
     7
 10
79.033679
 20
329.286165
 40
7.403800
 50
0.000000
 51
13.529195
  0
LINE
  8
CSLAYER1
  6
CONTINUOUS
 62
     7
 10
86.499978
 20
332.286165
 11
86.499978
 21
329.286165
  0
ARC
  8
CSLAYER1
  6
CONTINUOUS
 62
     7
 10
84.509485
 20
331.884241
 40
1.927993
 50
-26.691396
 51
26.691396
  0
LINE
  8
CSLAYER1
  6
CONTINUOUS
 62
     7
 10
86.499978
 20
332.286165
 11
86.232029
 21
332.750267
  0
LINE
  8
CSLAYER1
  6
CONTINUOUS
 62
     7
 10
83.249978
 20
332.750267
 11
86.232029
 21
332.750267
  0
LINE
  8
CSLAYER1
  6
CONTINUOUS
 62
     7
 10
86.499978
 20
331.286165
 11
89.624978
 21
331.286165
  0
LINE
  8
CSLAYER1
  6
CONTINUOUS
 62
     7
 10
86.499978
 20
331.036165
 11
89.874978
 21
331.036165
  0
LINE
  8
CSLAYER1
  6
CONTINUOUS
 62
     7
 10
86.499978
 20
327.536165
 11
89.874978
 21
327.536165
  0
LINE
  8
CSLAYER1
  6
CONTINUOUS
 62
     7
 10
86.499978
 20
327.286165
 11
89.624978
 21
327.286165
  0
LINE
  8
CSLAYER1
  6
CONTINUOUS
 62
     7
 10
89.624978
 20
327.286165
 11
89.624978
 21
329.286165
  0
LINE
  8
CSLAYER1
  6
CONTINUOUS
 62
     7
 10
89.624978
 20
327.286165
 11
89.999978
 21
327.661165
  0
LINE
  8
CSLAYER1
  6
CONTINUOUS
 62
     7
 10
89.999978
 20
327.661165
 11
89.999978
 21
329.286165
  0
LINE
  8
CSLAYER1
  6
CONTINUOUS
 62
     7
 10
89.999978
 20
330.911165
 11
89.999978
 21
329.286165
  0
LINE
  8
CSLAYER1
  6
CONTINUOUS
 62
     7
 10
89.624978
 20
331.286165
 11
89.999978
 21
330.911165
  0
LINE
  8
CSLAYER1
  6
CONTINUOUS
 62
     7
 10
89.624978
 20
331.286165
 11
89.624978
 21
329.286165
  0
ARC
  8
CSLAYER1
  6
CONTINUOUS
 62
     7
 10
91.738422
 20
349.125000
 40
3.000000
 50
270.000000
 51
351.023557
  0
ARC
  8
CSLAYER1
  6
CONTINUOUS
 62
     7
 10
91.738422
 20
327.125000
 40
3.000000
 50
8.976443
 51
90.000000
  0
LINE
  8
CSLAYER1
  6
CONTINUOUS
 62
     7
 10
66.499978
 20
331.500000
 11
66.499978
 21
344.750000
  0
LINE
  8
CSLAYER1
  6
CONTINUOUS
 62
     7
 10
64.674978
 20
331.500000
 11
66.499978
 21
331.500000
  0
LINE
  8
CSLAYER1
  6
CONTINUOUS
 62
     7
 10
64.674978
 20
344.750000
 11
66.499978
 21
344.750000
  0
LINE
  8
CSLAYER1
  6
CONTINUOUS
 62
     7
 10
54.999978
 20
344.375000
 11
64.324978
 21
344.375000
  0
LINE
  8
CSLAYER1
  6
CONTINUOUS
 62
     3
 10
64.499978
 20
344.550000
 11
64.499978
 21
344.575000
  0
ARC
  8
CSLAYER1
  6
CONTINUOUS
 62
     7
 10
64.324978
 20
344.550000
 40
0.175000
 50
270.000000
 51
360.000000
  0
ARC
  8
CSLAYER1
  6
CONTINUOUS
 62
     7
 10
64.674978
 20
344.575000
 40
0.175000
 50
90.000000
 51
180.000000
  0
LINE
  8
CSLAYER1
  6
CONTINUOUS
 62
     3
 10
64.499978
 20
331.675000
 11
64.499978
 21
331.700000
  0
ARC
  8
CSLAYER1
  6
CONTINUOUS
 62
     7
 10
64.324978
 20
331.700000
 40
0.175000
 50
0.000000
 51
90.000000
  0
ARC
  8
CSLAYER1
  6
CONTINUOUS
 62
     7
 10
64.674978
 20
331.675000
 40
0.175000
 50
180.000000
 51
270.000000
  0
LINE
  8
CSLAYER1
  6
CONTINUOUS
 62
     7
 10
54.999978
 20
331.875000
 11
64.324978
 21
331.875000
  0
ARC
  8
CSLAYER1
  6
CONTINUOUS
 62
     7
 10
54.999978
 20
338.125000
 40
6.250000
 50
90.000000
 51
270.000000
  0
LINE
  8
CSLAYER1
  6
CONTINUOUS
 62
     7
 10
50.749978
 20
312.450000
 11
59.249978
 21
312.450000
  0
LINE
  8
CSLAYER1
  6
CONTINUOUS
 62
     7
 10
50.749978
 20
317.450000
 11
59.249978
 21
317.450000
  0
LINE
  8
CSLAYER1
  6
CONTINUOUS
 62
     7
 10
50.749978
 20
312.450000
 11
50.749978
 21
317.450000
  0
LINE
  8
CSLAYER1
  6
CONTINUOUS
 62
     7
 10
59.249978
 20
312.450000
 11
59.249978
 21
317.450000
  0
LINE
  8
CSLAYER1
  6
CONTINUOUS
 62
     7
 10
52.499978
 20
309.641747
 11
57.499978
 21
309.641747
  0
LINE
  8
CSLAYER1
  6
CONTINUOUS
 62
     7
 10
57.617891
 20
307.391735
 11
57.499973
 21
309.641732
  0
LINE
  8
CSLAYER1
  6
CONTINUOUS
 62
     7
 10
42.565595
 20
307.391747
 11
67.434361
 21
307.391747
  0
LINE
  8
CSLAYER1
  6
CONTINUOUS
 62
     7
 10
57.523563
 20
309.191760
 11
61.214113
 21
307.391760
  0
LINE
  8
CSLAYER1
  6
CONTINUOUS
 62
     7
 10
42.499978
 20
306.641747
 11
67.499978
 21
306.641747
  0
LINE
  8
CSLAYER1
  6
CONTINUOUS
 62
     7
 10
67.499978
 20
306.641742
 11
67.434361
 21
307.391742
  0
LINE
  8
CSLAYER1
  6
CONTINUOUS
 62
     7
 10
65.081651
 20
304.891747
 11
65.081651
 21
305.516747
  0
LINE
  8
CSLAYER1
  6
CONTINUOUS
 62
     7
 10
57.249978
 20
305.766747
 11
60.570668
 21
305.766747
  0
LINE
  8
CSLAYER1
  6
CONTINUOUS
 62
     7
 10
56.999978
 20
305.391747
 11
60.820668
 21
305.391747
  0
LINE
  8
CSLAYER1
  6
CONTINUOUS
 62
     7
 10
56.936471
 20
304.391747
 11
60.320668
 21
304.391747
  0
LINE
  8
CSLAYER1
  6
CONTINUOUS
 62
     7
 10
56.561226
 20
303.641747
 11
60.686578
 21
303.641747
  0
LINE
  8
CSLAYER1
  6
CONTINUOUS
 62
     7
 10
60.820668
 20
304.891747
 11
60.820668
 21
305.516747
  0
LINE
  8
CSLAYER1
  6
CONTINUOUS
 62
     7
 10
64.732376
 20
306.641742
 11
64.666761
 21
307.391742
  0
LINE
  8
CSLAYER1
  6
CONTINUOUS
 62
     7
 10
64.275381
 20
304.391747
 11
64.581651
 21
304.391747
  0
LINE
  8
CSLAYER1
  6
CONTINUOUS
 62
     7
 10
64.547436
 20
305.391747
 11
65.081651
 21
305.391747
  0
LINE
  8
CSLAYER1
  6
CONTINUOUS
 62
     7
 10
64.615286
 20
305.766747
 11
64.831651
 21
305.766747
  0
LINE
  8
CSLAYER1
  6
CONTINUOUS
 62
     7
 10
56.999978
 20
304.891747
 11
56.999978
 21
305.516747
  0
LINE
  8
CSLAYER1
  6
CONTINUOUS
 62
     7
 10
52.382058
 20
307.391762
 11
52.499976
 21
309.641760
  0
LINE
  8
CSLAYER1
  6
CONTINUOUS
 62
     7
 10
52.476393
 20
309.191735
 11
48.785846
 21
307.391732
  0
LINE
  8
CSLAYER1
  6
CONTINUOUS
 62
     7
 10
42.499986
 20
306.641750
 11
42.565602
 21
307.391750
  0
LINE
  8
CSLAYER1
  6
CONTINUOUS
 62
     7
 10
44.918305
 20
304.891747
 11
44.918305
 21
305.516747
  0
LINE
  8
CSLAYER1
  6
CONTINUOUS
 62
     7
 10
52.749978
 20
305.766747
 11
49.429288
 21
305.766747
  0
LINE
  8
CSLAYER1
  6
CONTINUOUS
 62
     7
 10
52.999978
 20
305.391747
 11
49.179288
 21
305.391747
  0
LINE
  8
CSLAYER1
  6
CONTINUOUS
 62
     7
 10
53.063486
 20
304.391747
 11
49.679288
 21
304.391747
  0
LINE
  8
CSLAYER1
  6
CONTINUOUS
 62
     7
 10
53.438728
 20
303.641747
 11
49.313378
 21
303.641747
  0
LINE
  8
CSLAYER1
  6
CONTINUOUS
 62
     7
 10
49.179288
 20
304.891747
 11
49.179288
 21
305.516747
  0
LINE
  8
CSLAYER1
  6
CONTINUOUS
 62
     7
 10
45.267585
 20
306.641747
 11
45.333201
 21
307.391747
  0
LINE
  8
CSLAYER1
  6
CONTINUOUS
 62
     7
 10
45.724576
 20
304.391747
 11
45.418305
 21
304.391747
  0
LINE
  8
CSLAYER1
  6
CONTINUOUS
 62
     7
 10
45.452519
 20
305.391747
 11
44.918305
 21
305.391747
  0
LINE
  8
CSLAYER1
  6
CONTINUOUS
 62
     7
 10
45.384671
 20
305.766747
 11
45.168305
 21
305.766747
  0
LINE
  8
CSLAYER1
  6
CONTINUOUS
 62
     7
 10
52.999978
 20
304.891747
 11
52.999978
 21
305.516747
  0
LINE
  8
CSLAYER1
  6
CENTER
 62
     2
 10
54.999978
 20
301.641747
 11
54.999978
 21
347.250000
  0
LINE
  8
CSLAYER1
  6
CONTINUOUS
 62
     7
 10
48.249978
 20
334.227885
 11
48.249978
 21
342.022114
  0
LINE
  8
CSLAYER1
  6
CONTINUOUS
 62
     7
 10
48.249981
 20
342.022115
 11
54.999978
 21
345.919229
  0
LINE
  8
CSLAYER1
  6
CONTINUOUS
 62
     7
 10
54.999978
 20
330.330772
 11
57.674659
 21
331.875000
  0
LINE
  8
CSLAYER1
  6
CONTINUOUS
 62
     7
 10
54.999978
 20
345.919227
 11
57.674659
 21
344.375000
  0
LINE
  8
CSLAYER1
  6
CONTINUOUS
 62
     7
 10
48.249981
 20
334.227884
 11
54.999978
 21
330.330771
  0
LINE
  8
CSLAYER1
  6
CONTINUOUS
 62
     7
 10
48.874978
 20
327.875000
 11
61.124978
 21
327.875000
  0
LINE
  8
CSLAYER1
  6
CONTINUOUS
 62
     7
 10
48.874978
 20
328.750000
 11
61.124978
 21
328.750000
  0
LINE
  8
CSLAYER1
  6
CONTINUOUS
 62
     7
 10
61.124978
 20
327.009616
 11
61.124978
 21
328.750000
  0
LINE
  8
CSLAYER1
  6
CONTINUOUS
 62
     7
 10
51.374978
 20
318.750000
 11
58.624978
 21
318.750000
  0
LINE
  8
CSLAYER1
  6
CONTINUOUS
 62
     7
 10
58.624978
 20
317.450000
 11
58.624978
 21
318.750000
  0
LINE
  8
CSLAYER1
  6
CONTINUOUS
 62
     7
 10
58.374978
 20
318.750000
 11
58.374978
 21
323.264442
  0
LINE
  8
CSLAYER1
  6
CONTINUOUS
 62
     7
 10
58.749978
 20
326.843538
 11
61.124978
 21
327.009615
  0
LINE
  8
CSLAYER1
  6
CONTINUOUS
 62
     7
 10
58.412476
 20
317.450000
 11
58.412476
 21
318.750000
  0
LINE
  8
CSLAYER1
  6
CONTINUOUS
 62
     7
 10
48.874978
 20
327.009605
 11
48.874978
 21
328.750000
  0
LINE
  8
CSLAYER1
  6
CONTINUOUS
 62
     7
 10
51.374978
 20
317.450000
 11
51.374978
 21
318.750000
  0
LINE
  8
CSLAYER1
  6
CONTINUOUS
 62
     7
 10
51.624978
 20
318.750000
 11
51.624978
 21
323.264442
  0
LINE
  8
CSLAYER1
  6
CONTINUOUS
 62
     7
 10
51.249976
 20
326.843529
 11
48.874981
 21
327.009605
  0
LINE
  8
CSLAYER1
  6
CONTINUOUS
 62
     7
 10
51.587478
 20
317.450000
 11
51.587478
 21
318.750000
  0
LINE
  8
CSLAYER1
  6
CONTINUOUS
 62
     7
 10
56.687478
 20
309.641747
 11
56.687478
 21
312.450000
  0
LINE
  8
CSLAYER1
  6
CONTINUOUS
 62
     7
 10
53.312478
 20
309.641747
 11
53.312478
 21
312.450000
  0
LINE
  8
CSLAYER1
  6
CONTINUOUS
 62
     7
 10
58.749978
 20
324.346973
 11
58.749978
 21
326.843536
  0
LINE
  8
CSLAYER1
  6
CONTINUOUS
 62
     7
 10
51.249978
 20
324.346973
 11
51.249978
 21
326.843532
  0
LINE
  8
CSLAYER1
  6
CONTINUOUS
 62
     7
 10
51.249978
 20
324.346973
 11
58.749978
 21
324.346973
  0
LINE
  8
CSLAYER1
  6
CONTINUOUS
 62
     7
 10
51.249976
 20
326.843531
 11
58.749978
 21
326.843535
  0
LINE
  8
CSLAYER1
  6
CONTINUOUS
 62
     7
 10
54.999978
 20
312.450000
 11
54.999978
 21
317.450000
  0
LINE
  8
CSLAYER1
  6
CONTINUOUS
 62
     7
 10
54.999978
 20
324.346973
 11
54.999978
 21
326.843536
  0
LINE
  8
CSLAYER1
  6
CONTINUOUS
 62
     7
 10
49.124876
 20
329.094837
 11
49.124876
 21
328.750000
  0
LINE
  8
CSLAYER1
  6
CONTINUOUS
 62
     7
 10
60.875081
 20
329.094837
 11
60.875081
 21
328.750000
  0
LINE
  8
CSLAYER1
  6
CONTINUOUS
 62
     7
 10
48.874976
 20
327.009607
 11
61.124978
 21
327.009618
  0
ARC
  8
CSLAYER1
  6
CONTINUOUS
 62
     7
 10
64.581651
 20
304.891747
 40
0.500000
 50
270.000018
 51
360.000000
  0
ARC
  8
CSLAYER1
  6
CONTINUOUS
 62
     7
 10
64.831651
 20
305.516747
 40
0.250000
 50
0.000000
 51
89.999980
  0
ARC
  8
CSLAYER1
  6
CONTINUOUS
 62
     7
 10
60.320668
 20
304.891747
 40
0.500000
 50
270.000018
 51
360.000000
  0
ARC
  8
CSLAYER1
  6
CONTINUOUS
 62
     7
 10
60.570668
 20
305.516747
 40
0.250000
 50
0.000000
 51
89.999980
  0
ARC
  8
CSLAYER1
  6
CONTINUOUS
 62
     7
 10
51.052343
 20
308.027070
 40
13.750000
 50
346.926775
 51
354.217596
  0
ARC
  8
CSLAYER1
  6
CONTINUOUS
 62
     7
 10
61.519378
 20
305.576847
 40
3.000000
 50
317.400756
 51
347.301152
  0
ARC
  8
CSLAYER1
  6
CONTINUOUS
 62
     7
 10
62.247826
 20
304.891747
 40
2.000000
 50
218.682180
 51
317.721556
  0
ARC
  8
CSLAYER1
  6
CONTINUOUS
 62
     7
 10
54.999978
 20
304.891747
 40
2.000000
 50
179.999980
 51
360.000000
  0
ARC
  8
CSLAYER1
  6
CONTINUOUS
 62
     7
 10
57.249978
 20
305.516747
 40
0.250000
 50
90.000000
 51
179.999980
  0
ARC
  8
CSLAYER1
  6
CONTINUOUS
 62
     7
 10
45.418305
 20
304.891747
 40
0.500000
 50
179.999980
 51
269.999963
  0
ARC
  8
CSLAYER1
  6
CONTINUOUS
 62
     7
 10
45.168305
 20
305.516747
 40
0.250000
 50
90.000000
 51
179.999980
  0
ARC
  8
CSLAYER1
  6
CONTINUOUS
 62
     7
 10
49.679288
 20
304.891747
 40
0.500000
 50
179.999980
 51
269.999963
  0
ARC
  8
CSLAYER1
  6
CONTINUOUS
 62
     7
 10
49.429288
 20
305.516747
 40
0.250000
 50
90.000000
 51
179.999980
  0
ARC
  8
CSLAYER1
  6
CONTINUOUS
 62
     7
 10
58.947613
 20
308.027070
 40
13.750000
 50
185.782420
 51
193.073240
  0
ARC
  8
CSLAYER1
  6
CONTINUOUS
 62
     7
 10
48.480576
 20
305.576847
 40
3.000000
 50
192.698830
 51
222.599270
  0
ARC
  8
CSLAYER1
  6
CONTINUOUS
 62
     7
 10
47.752129
 20
304.891747
 40
2.000000
 50
222.278470
 51
321.317814
  0
ARC
  8
CSLAYER1
  6
CONTINUOUS
 62
     7
 10
52.749978
 20
305.516747
 40
0.250000
 50
0.000020
 51
89.999980
  0
ARC
  8
CSLAYER1
  6
CONTINUOUS
 62
     7
 10
53.819943
 20
308.027070
 40
13.750000
 50
346.926775
 51
354.217596
  0
ARC
  8
CSLAYER1
  6
CONTINUOUS
 62
     7
 10
64.286981
 20
305.576847
 40
3.000000
 50
317.400756
 51
347.301152
  0
ARC
  8
CSLAYER1
  6
CONTINUOUS
 62
     7
 10
65.015428
 20
304.891747
 40
2.000000
 50
226.219270
 51
317.721556
  0
ARC
  8
CSLAYER1
  6
CONTINUOUS
 62
     7
 10
56.180013
 20
308.027070
 40
13.750000
 50
185.782420
 51
193.073240
  0
ARC
  8
CSLAYER1
  6
CONTINUOUS
 62
     7
 10
45.712975
 20
305.576847
 40
3.000000
 50
192.698830
 51
222.599270
  0
ARC
  8
CSLAYER1
  6
CONTINUOUS
 62
     7
 10
44.984528
 20
304.891747
 40
2.000000
 50
222.278470
 51
313.780728
  0
ARC
  8
CSLAYER1
  6
CONTINUOUS
 62
     7
 10
54.999978
 20
338.125000
 40
7.875000
 50
52.528005
 51
204.835920
  0
ARC
  8
CSLAYER1
  6
CONTINUOUS
 62
     7
 10
60.124978
 20
323.264442
 40
1.750000
 50
141.786810
 51
180.000020
  0
ARC
  8
CSLAYER1
  6
CONTINUOUS
 62
     7
 10
35.374978
 20
329.042049
 40
13.750000
 50
0.219960
 51
24.835910
  0
ARC
  8
CSLAYER1
  6
CONTINUOUS
 62
     7
 10
74.624978
 20
329.042049
 40
13.750000
 50
168.110037
 51
179.780030
  0
ARC
  8
CSLAYER1
  6
CONTINUOUS
 62
     7
 10
49.874978
 20
323.264442
 40
1.750000
 50
-0.000019
 51
38.213210
  0
LINE
  8
CSLAYER1
  6
CENTER
 62
     2
 10
112.335714
 20
328.370484
 11
101.301880
 21
326.175717
  0
CIRCLE
  8
CSLAYER1
  6
CONTINUOUS
 62
     7
 10
106.818797
 20
327.273101
 40
3.125000
  0
LINE
  8
CSLAYER1
  6
CONTINUOUS
 62
     7
 10
92.438544
 20
298.959757
 11
88.952256
 21
301.223779
  0
LINE
  8
CSLAYER1
  6
CONTINUOUS
 62
     7
 10
88.952256
 20
301.223779
 11
89.169812
 21
305.375004
  0
LINE
  8
CSLAYER1
  6
CONTINUOUS
 62
     7
 10
96.359945
 20
304.998185
 11
96.142388
 21
300.846960
  0
LINE
  8
CSLAYER1
  6
CONTINUOUS
 62
     7
 10
96.142388
 20
300.846960
 11
92.438544
 21
298.959757
  0
CIRCLE
  8
CSLAYER1
  6
CONTINUOUS
 62
     7
 10
92.656100
 20
303.110982
 40
3.600000
  0
LINE
  8
CSLAYER1
  6
CONTINUOUS
 62
     7
 10
92.873657
 20
307.262207
 11
96.359945
 21
304.998185
  0
LINE
  8
CSLAYER1
  6
CONTINUOUS
 62
     7
 10
89.169812
 20
305.375004
 11
92.873657
 21
307.262207
  0
LINE
  8
CSLAYER1
  6
CENTER
 62
     2
 10
119.801498
 20
310.346488
 11
110.447465
 21
304.096323
  0
CIRCLE
  8
CSLAYER1
  6
CONTINUOUS
 62
     7
 10
115.124481
 20
307.221405
 40
3.125000
  0
LINE
  8
CSLAYER1
  6
CENTER
 62
     2
 10
97.668012
 20
305.664679
 11
87.644189
 21
300.557286
  0
LINE
  8
CSLAYER1
  6
CENTER
 62
     2
 10
133.596467
 20
296.551519
 11
127.346302
 21
287.197486
  0
CIRCLE
  8
CSLAYER1
  6
CONTINUOUS
 62
     7
 10
130.471384
 20
291.874503
 40
3.125000
  0
LINE
  8
CSLAYER1
  6
CENTER
 62
     2
 10
151.620462
 20
289.085736
 11
149.425696
 21
278.051901
  0
CIRCLE
  8
CSLAYER1
  6
CONTINUOUS
 62
     7
 10
150.523079
 20
283.568818
 40
3.125000
  0
LINE
  8
CSLAYER1
  6
CENTER
 62
     2
 10
210.414242
 20
328.370484
 11
221.448077
 21
326.175717
  0
CIRCLE
  8
CSLAYER1
  6
CONTINUOUS
 62
     7
 10
215.931160
 20
327.273101
 40
3.125000
  0
LINE
  8
CSLAYER1
  6
CENTER
 62
     2
 10
202.948459
 20
310.346488
 11
212.302492
 21
304.096323
  0
CIRCLE
  8
CSLAYER1
  6
CONTINUOUS
 62
     7
 10
207.625476
 20
307.221405
 40
3.125000
  0
LINE
  8
CSLAYER1
  6
CENTER
 62
     2
 10
189.153490
 20
296.551519
 11
195.403655
 21
287.197486
  0
CIRCLE
  8
CSLAYER1
  6
CONTINUOUS
 62
     7
 10
192.278573
 20
291.874503
 40
3.125000
  0
LINE
  8
CSLAYER1
  6
CENTER
 62
     2
 10
171.129495
 20
289.085736
 11
173.324261
 21
278.051901
  0
CIRCLE
  8
CSLAYER1
  6
CONTINUOUS
 62
     7
 10
172.226878
 20
283.568818
 40
3.125000
  0
LINE
  8
CSLAYER1
  6
CENTER
 62
     2
 10
210.414242
 20
347.879516
 11
221.448077
 21
350.074282
  0
CIRCLE
  8
CSLAYER1
  6
CONTINUOUS
 62
     7
 10
215.931160
 20
348.976899
 40
3.125000
  0
LINE
  8
CSLAYER1
  6
CENTER
 62
     2
 10
202.948459
 20
365.903511
 11
212.302492
 21
372.153676
  0
CIRCLE
  8
CSLAYER1
  6
CONTINUOUS
 62
     7
 10
207.625476
 20
369.028594
 40
3.125000
  0
LINE
  8
CSLAYER1
  6
CENTER
 62
     2
 10
189.153490
 20
379.698480
 11
195.403655
 21
389.052513
  0
CIRCLE
  8
CSLAYER1
  6
CONTINUOUS
 62
     7
 10
192.278573
 20
384.375497
 40
3.125000
  0
LINE
  8
CSLAYER1
  6
CENTER
 62
     2
 10
171.129495
 20
387.164264
 11
173.324261
 21
398.198098
  0
CIRCLE
  8
CSLAYER1
  6
CONTINUOUS
 62
     7
 10
172.226878
 20
392.681181
 40
3.125000
  0
LINE
  8
CSLAYER1
  6
CENTER
 62
     2
 10
112.335714
 20
347.879516
 11
101.301880
 21
350.074282
  0
CIRCLE
  8
CSLAYER1
  6
CONTINUOUS
 62
     7
 10
106.818797
 20
348.976899
 40
3.125000
  0
LINE
  8
CSLAYER1
  6
CENTER
 62
     2
 10
119.801498
 20
365.903511
 11
110.447465
 21
372.153676
  0
CIRCLE
  8
CSLAYER1
  6
CONTINUOUS
 62
     7
 10
115.124481
 20
369.028594
 40
3.125000
  0
LINE
  8
CSLAYER1
  6
CENTER
 62
     2
 10
133.596467
 20
379.698480
 11
127.346302
 21
389.052513
  0
CIRCLE
  8
CSLAYER1
  6
CONTINUOUS
 62
     7
 10
130.471384
 20
384.375497
 40
3.125000
  0
LINE
  8
CSLAYER1
  6
CENTER
 62
     2
 10
151.620462
 20
387.164264
 11
149.425696
 21
398.198098
  0
CIRCLE
  8
CSLAYER1
  6
CONTINUOUS
 62
     7
 10
150.523079
 20
392.681181
 40
3.125000
  0
LINE
  8
CSLAYER1
  6
CONTINUOUS
 62
     7
 10
102.824090
 20
284.665280
 11
103.899980
 21
280.650002
  0
LINE
  8
CSLAYER1
  6
CONTINUOUS
 62
     7
 10
103.899980
 20
280.650002
 11
107.915259
 21
279.574111
  0
LINE
  8
CSLAYER1
  6
CONTINUOUS
 62
     7
 10
109.778756
 20
286.528777
 11
105.763477
 21
287.604667
  0
LINE
  8
CSLAYER1
  6
CONTINUOUS
 62
     7
 10
105.763477
 20
287.604667
 11
102.824090
 21
284.665280
  0
CIRCLE
  8
CSLAYER1
  6
CONTINUOUS
 62
     7
 10
106.839368
 20
283.589389
 40
3.600000
  0
LINE
  8
CSLAYER1
  6
CONTINUOUS
 62
     7
 10
110.854646
 20
282.513499
 11
109.778756
 21
286.528777
  0
LINE
  8
CSLAYER1
  6
CONTINUOUS
 62
     7
 10
107.915259
 20
279.574111
 11
110.854646
 21
282.513499
  0
LINE
  8
CSLAYER1
  6
CENTER
 62
     2
 10
110.816844
 20
287.566865
 11
102.861892
 21
279.611914
  0
LINE
  8
CSLAYER1
  6
CONTINUOUS
 62
     7
 10
122.209736
 20
269.188565
 11
124.473758
 21
265.702277
  0
LINE
  8
CSLAYER1
  6
CONTINUOUS
 62
     7
 10
124.473758
 20
265.702277
 11
128.624983
 21
265.919833
  0
LINE
  8
CSLAYER1
  6
CONTINUOUS
 62
     7
 10
128.248164
 20
273.109966
 11
124.096939
 21
272.892410
  0
LINE
  8
CSLAYER1
  6
CONTINUOUS
 62
     7
 10
124.096939
 20
272.892410
 11
122.209736
 21
269.188565
  0
CIRCLE
  8
CSLAYER1
  6
CONTINUOUS
 62
     7
 10
126.360961
 20
269.406122
 40
3.600000
  0
LINE
  8
CSLAYER1
  6
CONTINUOUS
 62
     7
 10
130.512186
 20
269.623678
 11
128.248164
 21
273.109966
  0
LINE
  8
CSLAYER1
  6
CONTINUOUS
 62
     7
 10
128.624983
 20
265.919833
 11
130.512186
 21
269.623678
  0
LINE
  8
CSLAYER1
  6
CENTER
 62
     2
 10
128.914658
 20
274.418033
 11
123.807265
 21
264.394210
  0
LINE
  8
CSLAYER1
  6
CONTINUOUS
 62
     7
 10
152.540505
 20
259.333501
 11
148.659684
 21
257.843793
  0
LINE
  8
CSLAYER1
  6
CONTINUOUS
 62
     7
 10
148.659684
 20
257.843793
 11
145.429149
 21
260.459829
  0
LINE
  8
CSLAYER1
  6
CONTINUOUS
 62
     7
 10
149.960256
 20
266.055280
 11
153.190791
 21
263.439244
  0
LINE
  8
CSLAYER1
  6
CONTINUOUS
 62
     7
 10
153.190791
 20
263.439244
 11
152.540505
 21
259.333501
  0
CIRCLE
  8
CSLAYER1
  6
CONTINUOUS
 62
     7
 10
149.309970
 20
261.949536
 40
3.600000
  0
LINE
  8
CSLAYER1
  6
CONTINUOUS
 62
     7
 10
146.079435
 20
264.565572
 11
149.960256
 21
266.055280
  0
LINE
  8
CSLAYER1
  6
CONTINUOUS
 62
     7
 10
145.429149
 20
260.459829
 11
146.079435
 21
264.565572
  0
LINE
  8
CSLAYER1
  6
CENTER
 62
     2
 10
150.189914
 20
267.505283
 11
148.430026
 21
256.393790
  0
LINE
  8
CSLAYER1
  6
CONTINUOUS
 62
     7
 10
200.540221
 20
269.188565
 11
198.276199
 21
265.702277
  0
LINE
  8
CSLAYER1
  6
CONTINUOUS
 62
     7
 10
198.276199
 20
265.702277
 11
194.124974
 21
265.919833
  0
LINE
  8
CSLAYER1
  6
CONTINUOUS
 62
     7
 10
194.501793
 20
273.109966
 11
198.653018
 21
272.892410
  0
LINE
  8
CSLAYER1
  6
CONTINUOUS
 62
     7
 10
198.653018
 20
272.892410
 11
200.540221
 21
269.188565
  0
CIRCLE
  8
CSLAYER1
  6
CONTINUOUS
 62
     7
 10
196.388996
 20
269.406122
 40
3.600000
  0
LINE
  8
CSLAYER1
  6
CONTINUOUS
 62
     7
 10
192.237771
 20
269.623678
 11
194.501793
 21
273.109966
  0
LINE
  8
CSLAYER1
  6
CONTINUOUS
 62
     7
 10
194.124974
 20
265.919833
 11
192.237771
 21
269.623678
  0
LINE
  8
CSLAYER1
  6
CENTER
 62
     2
 10
193.835299
 20
274.418033
 11
198.942692
 21
264.394210
  0
LINE
  8
CSLAYER1
  6
CONTINUOUS
 62
     7
 10
170.209451
 20
259.333501
 11
174.090272
 21
257.843793
  0
LINE
  8
CSLAYER1
  6
CONTINUOUS
 62
     7
 10
174.090272
 20
257.843793
 11
177.320808
 21
260.459829
  0
LINE
  8
CSLAYER1
  6
CONTINUOUS
 62
     7
 10
172.789701
 20
266.055280
 11
169.559166
 21
263.439244
  0
LINE
  8
CSLAYER1
  6
CONTINUOUS
 62
     7
 10
169.559166
 20
263.439244
 11
170.209451
 21
259.333501
  0
CIRCLE
  8
CSLAYER1
  6
CONTINUOUS
 62
     7
 10
173.439987
 20
261.949536
 40
3.600000
  0
LINE
  8
CSLAYER1
  6
CONTINUOUS
 62
     7
 10
176.670522
 20
264.565572
 11
172.789701
 21
266.055280
  0
LINE
  8
CSLAYER1
  6
CONTINUOUS
 62
     7
 10
177.320808
 20
260.459829
 11
176.670522
 21
264.565572
  0
LINE
  8
CSLAYER1
  6
CENTER
 62
     2
 10
172.560043
 20
267.505283
 11
174.319930
 21
256.393790
  0
LINE
  8
CSLAYER1
  6
CONTINUOUS
 62
     7
 10
230.311413
 20
298.959757
 11
233.797701
 21
301.223779
  0
LINE
  8
CSLAYER1
  6
CONTINUOUS
 62
     7
 10
233.797701
 20
301.223779
 11
233.580145
 21
305.375004
  0
LINE
  8
CSLAYER1
  6
CONTINUOUS
 62
     7
 10
226.390012
 20
304.998185
 11
226.607569
 21
300.846960
  0
LINE
  8
CSLAYER1
  6
CONTINUOUS
 62
     7
 10
226.607569
 20
300.846960
 11
230.311413
 21
298.959757
  0
CIRCLE
  8
CSLAYER1
  6
CONTINUOUS
 62
     7
 10
230.093857
 20
303.110982
 40
3.600000
  0
LINE
  8
CSLAYER1
  6
CONTINUOUS
 62
     7
 10
229.876300
 20
307.262207
 11
226.390012
 21
304.998185
  0
LINE
  8
CSLAYER1
  6
CONTINUOUS
 62
     7
 10
233.580145
 20
305.375004
 11
229.876300
 21
307.262207
  0
LINE
  8
CSLAYER1
  6
CENTER
 62
     2
 10
225.081945
 20
305.664679
 11
235.105768
 21
300.557286
  0
LINE
  8
CSLAYER1
  6
CONTINUOUS
 62
     7
 10
219.925867
 20
284.665280
 11
218.849977
 21
280.650002
  0
LINE
  8
CSLAYER1
  6
CONTINUOUS
 62
     7
 10
218.849977
 20
280.650002
 11
214.834698
 21
279.574111
  0
LINE
  8
CSLAYER1
  6
CONTINUOUS
 62
     7
 10
212.971201
 20
286.528777
 11
216.986480
 21
287.604667
  0
LINE
  8
CSLAYER1
  6
CONTINUOUS
 62
     7
 10
216.986480
 20
287.604667
 11
219.925867
 21
284.665280
  0
CIRCLE
  8
CSLAYER1
  6
CONTINUOUS
 62
     7
 10
215.910589
 20
283.589389
 40
3.600000
  0
LINE
  8
CSLAYER1
  6
CONTINUOUS
 62
     7
 10
211.895311
 20
282.513499
 11
212.971201
 21
286.528777
  0
LINE
  8
CSLAYER1
  6
CONTINUOUS
 62
     7
 10
214.834698
 20
279.574111
 11
211.895311
 21
282.513499
  0
LINE
  8
CSLAYER1
  6
CENTER
 62
     2
 10
211.933113
 20
287.566865
 11
219.888065
 21
279.611914
  0
LINE
  8
CSLAYER1
  6
CONTINUOUS
 62
     7
 10
239.040149
 20
322.179171
 11
241.656185
 21
325.409706
  0
LINE
  8
CSLAYER1
  6
CONTINUOUS
 62
     7
 10
241.656185
 20
325.409706
 11
240.166477
 21
329.290527
  0
LINE
  8
CSLAYER1
  6
CONTINUOUS
 62
     7
 10
233.444698
 20
326.710277
 11
234.934406
 21
322.829456
  0
LINE
  8
CSLAYER1
  6
CONTINUOUS
 62
     7
 10
234.934406
 20
322.829456
 11
239.040149
 21
322.179171
  0
CIRCLE
  8
CSLAYER1
  6
CONTINUOUS
 62
     7
 10
237.550442
 20
326.059992
 40
3.600000
  0
LINE
  8
CSLAYER1
  6
CONTINUOUS
 62
     7
 10
236.060734
 20
329.940813
 11
233.444698
 21
326.710277
  0
LINE
  8
CSLAYER1
  6
CONTINUOUS
 62
     7
 10
240.166477
 20
329.290527
 11
236.060734
 21
329.940813
  0
LINE
  8
CSLAYER1
  6
CENTER
 62
     2
 10
231.994695
 20
326.939935
 11
243.106189
 21
325.180048
  0
LINE
  8
CSLAYER1
  6
CONTINUOUS
 62
     7
 10
230.311413
 20
377.290242
 11
233.797701
 21
375.026220
  0
LINE
  8
CSLAYER1
  6
CONTINUOUS
 62
     7
 10
233.797701
 20
375.026220
 11
233.580145
 21
370.874995
  0
LINE
  8
CSLAYER1
  6
CONTINUOUS
 62
     7
 10
226.390012
 20
371.251814
 11
226.607569
 21
375.403039
  0
LINE
  8
CSLAYER1
  6
CONTINUOUS
 62
     7
 10
226.607569
 20
375.403039
 11
230.311413
 21
377.290242
  0
CIRCLE
  8
CSLAYER1
  6
CONTINUOUS
 62
     7
 10
230.093857
 20
373.139017
 40
3.600000
  0
LINE
  8
CSLAYER1
  6
CONTINUOUS
 62
     7
 10
229.876300
 20
368.987792
 11
226.390012
 21
371.251814
  0
LINE
  8
CSLAYER1
  6
CONTINUOUS
 62
     7
 10
233.580145
 20
370.874995
 11
229.876300
 21
368.987792
  0
LINE
  8
CSLAYER1
  6
CENTER
 62
     2
 10
225.081945
 20
370.585320
 11
235.105768
 21
375.692714
  0
LINE
  8
CSLAYER1
  6
CONTINUOUS
 62
     7
 10
239.040149
 20
354.070829
 11
241.656185
 21
350.840294
  0
LINE
  8
CSLAYER1
  6
CONTINUOUS
 62
     7
 10
241.656185
 20
350.840294
 11
240.166477
 21
346.959473
  0
LINE
  8
CSLAYER1
  6
CONTINUOUS
 62
     7
 10
233.444698
 20
349.539722
 11
234.934406
 21
353.420543
  0
LINE
  8
CSLAYER1
  6
CONTINUOUS
 62
     7
 10
234.934406
 20
353.420543
 11
239.040149
 21
354.070829
  0
CIRCLE
  8
CSLAYER1
  6
CONTINUOUS
 62
     7
 10
237.550442
 20
350.190008
 40
3.600000
  0
LINE
  8
CSLAYER1
  6
CONTINUOUS
 62
     7
 10
236.060734
 20
346.309187
 11
233.444698
 21
349.539722
  0
LINE
  8
CSLAYER1
  6
CONTINUOUS
 62
     7
 10
240.166477
 20
346.959473
 11
236.060734
 21
346.309187
  0
LINE
  8
CSLAYER1
  6
CENTER
 62
     2
 10
231.994695
 20
349.310064
 11
243.106189
 21
351.069952
  0
LINE
  8
CSLAYER1
  6
CONTINUOUS
 62
     7
 10
200.540221
 20
407.061434
 11
198.276199
 21
410.547722
  0
LINE
  8
CSLAYER1
  6
CONTINUOUS
 62
     7
 10
198.276199
 20
410.547722
 11
194.124974
 21
410.330166
  0
LINE
  8
CSLAYER1
  6
CONTINUOUS
 62
     7
 10
194.501793
 20
403.140033
 11
198.653018
 21
403.357590
  0
LINE
  8
CSLAYER1
  6
CONTINUOUS
 62
     7
 10
198.653018
 20
403.357590
 11
200.540221
 21
407.061434
  0
CIRCLE
  8
CSLAYER1
  6
CONTINUOUS
 62
     7
 10
196.388996
 20
406.843878
 40
3.600000
  0
LINE
  8
CSLAYER1
  6
CONTINUOUS
 62
     7
 10
192.237771
 20
406.626321
 11
194.501793
 21
403.140033
  0
LINE
  8
CSLAYER1
  6
CONTINUOUS
 62
     7
 10
194.124974
 20
410.330166
 11
192.237771
 21
406.626321
  0
LINE
  8
CSLAYER1
  6
CENTER
 62
     2
 10
193.835299
 20
401.831966
 11
198.942692
 21
411.855790
  0
LINE
  8
CSLAYER1
  6
CONTINUOUS
 62
     7
 10
219.925867
 20
391.584720
 11
218.849977
 21
395.599998
  0
LINE
  8
CSLAYER1
  6
CONTINUOUS
 62
     7
 10
218.849977
 20
395.599998
 11
214.834698
 21
396.675888
  0
LINE
  8
CSLAYER1
  6
CONTINUOUS
 62
     7
 10
212.971201
 20
389.721223
 11
216.986480
 21
388.645332
  0
LINE
  8
CSLAYER1
  6
CONTINUOUS
 62
     7
 10
216.986480
 20
388.645332
 11
219.925867
 21
391.584720
  0
CIRCLE
  8
CSLAYER1
  6
CONTINUOUS
 62
     7
 10
215.910589
 20
392.660610
 40
3.600000
  0
LINE
  8
CSLAYER1
  6
CONTINUOUS
 62
     7
 10
211.895311
 20
393.736501
 11
212.971201
 21
389.721223
  0
LINE
  8
CSLAYER1
  6
CONTINUOUS
 62
     7
 10
214.834698
 20
396.675888
 11
211.895311
 21
393.736501
  0
LINE
  8
CSLAYER1
  6
CENTER
 62
     2
 10
211.933113
 20
388.683135
 11
219.888065
 21
396.638086
  0
LINE
  8
CSLAYER1
  6
CONTINUOUS
 62
     7
 10
122.209736
 20
407.061434
 11
124.473758
 21
410.547722
  0
LINE
  8
CSLAYER1
  6
CONTINUOUS
 62
     7
 10
124.473758
 20
410.547722
 11
128.624983
 21
410.330166
  0
LINE
  8
CSLAYER1
  6
CONTINUOUS
 62
     7
 10
128.248164
 20
403.140033
 11
124.096939
 21
403.357590
  0
LINE
  8
CSLAYER1
  6
CONTINUOUS
 62
     7
 10
124.096939
 20
403.357590
 11
122.209736
 21
407.061434
  0
CIRCLE
  8
CSLAYER1
  6
CONTINUOUS
 62
     7
 10
126.360961
 20
406.843878
 40
3.600000
  0
LINE
  8
CSLAYER1
  6
CONTINUOUS
 62
     7
 10
130.512186
 20
406.626321
 11
128.248164
 21
403.140033
  0
LINE
  8
CSLAYER1
  6
CONTINUOUS
 62
     7
 10
128.624983
 20
410.330166
 11
130.512186
 21
406.626321
  0
LINE
  8
CSLAYER1
  6
CENTER
 62
     2
 10
128.914658
 20
401.831966
 11
123.807265
 21
411.855790
  0
LINE
  8
CSLAYER1
  6
CONTINUOUS
 62
     7
 10
152.540505
 20
416.916499
 11
148.659684
 21
418.406206
  0
LINE
  8
CSLAYER1
  6
CONTINUOUS
 62
     7
 10
148.659684
 20
418.406206
 11
145.429149
 21
415.790171
  0
LINE
  8
CSLAYER1
  6
CONTINUOUS
 62
     7
 10
149.960256
 20
410.194720
 11
153.190791
 21
412.810755
  0
LINE
  8
CSLAYER1
  6
CONTINUOUS
 62
     7
 10
153.190791
 20
412.810755
 11
152.540505
 21
416.916499
  0
CIRCLE
  8
CSLAYER1
  6
CONTINUOUS
 62
     7
 10
149.309970
 20
414.300463
 40
3.600000
  0
LINE
  8
CSLAYER1
  6
CONTINUOUS
 62
     7
 10
146.079435
 20
411.684427
 11
149.960256
 21
410.194720
  0
LINE
  8
CSLAYER1
  6
CONTINUOUS
 62
     7
 10
145.429149
 20
415.790171
 11
146.079435
 21
411.684427
  0
LINE
  8
CSLAYER1
  6
CENTER
 62
     2
 10
150.189914
 20
408.744716
 11
148.430026
 21
419.856210
  0
LINE
  8
CSLAYER1
  6
CONTINUOUS
 62
     7
 10
170.209451
 20
416.916499
 11
174.090272
 21
418.406206
  0
LINE
  8
CSLAYER1
  6
CONTINUOUS
 62
     7
 10
174.090272
 20
418.406206
 11
177.320808
 21
415.790171
  0
LINE
  8
CSLAYER1
  6
CONTINUOUS
 62
     7
 10
172.789701
 20
410.194720
 11
169.559166
 21
412.810755
  0
LINE
  8
CSLAYER1
  6
CONTINUOUS
 62
     7
 10
169.559166
 20
412.810755
 11
170.209451
 21
416.916499
  0
CIRCLE
  8
CSLAYER1
  6
CONTINUOUS
 62
     7
 10
173.439987
 20
414.300463
 40
3.600000
  0
LINE
  8
CSLAYER1
  6
CONTINUOUS
 62
     7
 10
176.670522
 20
411.684427
 11
172.789701
 21
410.194720
  0
LINE
  8
CSLAYER1
  6
CONTINUOUS
 62
     7
 10
177.320808
 20
415.790171
 11
176.670522
 21
411.684427
  0
LINE
  8
CSLAYER1
  6
CENTER
 62
     2
 10
172.560043
 20
408.744716
 11
174.319930
 21
419.856210
  0
LINE
  8
CSLAYER1
  6
CONTINUOUS
 62
     7
 10
92.438544
 20
377.290242
 11
88.952256
 21
375.026220
  0
LINE
  8
CSLAYER1
  6
CONTINUOUS
 62
     7
 10
88.952256
 20
375.026220
 11
89.169812
 21
370.874995
  0
LINE
  8
CSLAYER1
  6
CONTINUOUS
 62
     7
 10
96.359945
 20
371.251814
 11
96.142388
 21
375.403039
  0
LINE
  8
CSLAYER1
  6
CONTINUOUS
 62
     7
 10
96.142388
 20
375.403039
 11
92.438544
 21
377.290242
  0
CIRCLE
  8
CSLAYER1
  6
CONTINUOUS
 62
     7
 10
92.656100
 20
373.139017
 40
3.600000
  0
LINE
  8
CSLAYER1
  6
CONTINUOUS
 62
     7
 10
92.873657
 20
368.987792
 11
96.359945
 21
371.251814
  0
LINE
  8
CSLAYER1
  6
CONTINUOUS
 62
     7
 10
89.169812
 20
370.874995
 11
92.873657
 21
368.987792
  0
LINE
  8
CSLAYER1
  6
CENTER
 62
     2
 10
97.668012
 20
370.585320
 11
87.644189
 21
375.692714
  0
LINE
  8
CSLAYER1
  6
CONTINUOUS
 62
     7
 10
102.824090
 20
391.584720
 11
103.899980
 21
395.599998
  0
LINE
  8
CSLAYER1
  6
CONTINUOUS
 62
     7
 10
103.899980
 20
395.599998
 11
107.915259
 21
396.675888
  0
LINE
  8
CSLAYER1
  6
CONTINUOUS
 62
     7
 10
109.778756
 20
389.721223
 11
105.763477
 21
388.645332
  0
LINE
  8
CSLAYER1
  6
CONTINUOUS
 62
     7
 10
105.763477
 20
388.645332
 11
102.824090
 21
391.584720
  0
CIRCLE
  8
CSLAYER1
  6
CONTINUOUS
 62
     7
 10
106.839368
 20
392.660610
 40
3.600000
  0
LINE
  8
CSLAYER1
  6
CONTINUOUS
 62
     7
 10
110.854646
 20
393.736501
 11
109.778756
 21
389.721223
  0
LINE
  8
CSLAYER1
  6
CONTINUOUS
 62
     7
 10
107.915259
 20
396.675888
 11
110.854646
 21
393.736501
  0
LINE
  8
CSLAYER1
  6
CENTER
 62
     2
 10
110.816844
 20
388.683135
 11
102.861892
 21
396.638086
  0
LINE
  8
CSLAYER1
  6
CONTINUOUS
 62
     7
 10
83.709808
 20
322.179171
 11
83.249978
 21
322.747012
  0
LINE
  8
CSLAYER1
  6
CONTINUOUS
 62
     7
 10
89.305258
 20
326.710277
 11
87.815551
 21
322.829456
  0
LINE
  8
CSLAYER1
  6
CONTINUOUS
 62
     7
 10
87.815551
 20
322.829456
 11
83.709808
 21
322.179171
  0
ARC
  8
CSLAYER1
  6
CONTINUOUS
 62
     7
 10
85.199515
 20
326.059992
 40
3.600000
 50
-122.788397
 51
19.913660
  0
LINE
  8
CSLAYER1
  6
CONTINUOUS
 62
     7
 10
88.838914
 20
327.286165
 11
89.305258
 21
326.710277
  0
LINE
  8
CSLAYER1
  6
CENTER
 62
     2
 10
90.755262
 20
326.939935
 11
79.643768
 21
325.180048
  0
ARC
  8
CSLAYER1
  6
CONTINUOUS
 62
     7
 10
85.199515
 20
350.190008
 40
3.600000
 50
-19.913660
 51
122.788397
  0
LINE
  8
CSLAYER1
  6
CONTINUOUS
 62
     7
 10
83.709808
 20
354.070829
 11
83.249978
 21
353.502987
  0
LINE
  8
CSLAYER1
  6
CONTINUOUS
 62
     7
 10
87.815551
 20
353.420543
 11
83.709808
 21
354.070829
  0
LINE
  8
CSLAYER1
  6
CONTINUOUS
 62
     7
 10
89.305258
 20
349.539722
 11
87.815551
 21
353.420543
  0
LINE
  8
CSLAYER1
  6
CONTINUOUS
 62
     7
 10
88.838914
 20
348.963834
 11
89.305258
 21
349.539722
  0
LINE
  8
CSLAYER1
  6
CENTER
 62
     2
 10
90.755262
 20
349.310064
 11
79.643768
 21
351.069952
  0
LINE
  8
CSLAYER1
  6
CONTINUOUS
 62
     7
 10
89.449515
 20
153.531250
 11
85.199515
 21
153.531250
  0
LINE
  8
CSLAYER1
  6
CONTINUOUS
 62
     7
 10
87.653254
 20
153.151655
 11
87.653254
 21
150.000000
  0
ARC
  8
CSLAYER1
  6
CONTINUOUS
 62
     7
 10
88.880123
 20
150.322865
 40
3.083385
 50
107.959735
 51
113.446771
  0
ARC
  8
CSLAYER1
  6
CONTINUOUS
 62
     7
 10
85.199515
 20
141.454603
 40
11.951647
 50
78.152618
 51
90.000000
  0
LINE
  8
CSLAYER1
  6
CONTINUOUS
 62
     7
 10
80.949515
 20
153.531250
 11
85.199515
 21
153.531250
  0
LINE
  8
CSLAYER1
  6
CONTINUOUS
 62
     7
 10
80.292038
 20
153.151655
 11
80.292038
 21
150.000000
  0
LINE
  8
CSLAYER1
  6
CONTINUOUS
 62
     7
 10
82.745777
 20
153.151655
 11
82.745777
 21
150.000000
  0
LINE
  8
CSLAYER1
  6
CONTINUOUS
 62
     7
 10
80.949515
 20
153.531250
 11
80.292038
 21
153.151655
  0
ARC
  8
CSLAYER1
  6
CONTINUOUS
 62
     7
 10
81.518907
 20
150.322865
 40
3.083385
 50
66.553229
 51
113.446771
  0
ARC
  8
CSLAYER1
  6
CONTINUOUS
 62
     7
 10
85.199515
 20
141.454603
 40
11.951647
 50
90.000000
 51
101.847382
  0
LINE
  8
CSLAYER1
  6
CONTINUOUS
 62
     7
 10
87.449515
 20
122.500000
 11
85.199515
 21
122.500000
  0
LINE
  8
CSLAYER1
  6
CONTINUOUS
 62
     7
 10
87.949515
 20
123.000000
 11
87.449515
 21
122.500000
  0
LINE
  8
CSLAYER1
  6
CONTINUOUS
 62
     7
 10
87.949515
 20
123.000000
 11
85.199515
 21
123.000000
  0
LINE
  8
CSLAYER1
  6
CONTINUOUS
 62
     7
 10
82.949515
 20
122.500000
 11
85.199515
 21
122.500000
  0
LINE
  8
CSLAYER1
  6
CONTINUOUS
 62
     7
 10
82.449515
 20
123.000000
 11
82.949515
 21
122.500000
  0
LINE
  8
CSLAYER1
  6
CONTINUOUS
 62
     7
 10
82.449515
 20
123.000000
 11
85.199515
 21
123.000000
  0
LINE
  8
CSLAYER1
  6
CONTINUOUS
 62
     7
 10
87.653254
 20
130.000000
 11
87.653254
 21
125.879594
  0
ARC
  8
CSLAYER1
  6
CONTINUOUS
 62
     7
 10
88.880123
 20
128.708385
 40
3.083385
 50
246.553229
 51
252.040265
  0
ARC
  8
CSLAYER1
  6
CONTINUOUS
 62
     7
 10
85.199515
 20
137.576647
 40
11.951647
 50
270.000000
 51
281.847382
  0
LINE
  8
CSLAYER1
  6
CONTINUOUS
 62
     7
 10
89.449515
 20
125.500000
 11
85.199515
 21
125.500000
  0
LINE
  8
CSLAYER1
  6
CONTINUOUS
 62
     7
 10
80.292038
 20
130.000000
 11
80.292038
 21
125.879594
  0
LINE
  8
CSLAYER1
  6
CONTINUOUS
 62
     7
 10
82.745777
 20
130.000000
 11
82.745777
 21
125.879594
  0
LINE
  8
CSLAYER1
  6
CONTINUOUS
 62
     7
 10
80.949515
 20
125.500000
 11
80.292038
 21
125.879594
  0
ARC
  8
CSLAYER1
  6
CONTINUOUS
 62
     7
 10
81.518907
 20
128.708385
 40
3.083385
 50
246.553229
 51
293.446771
  0
ARC
  8
CSLAYER1
  6
CONTINUOUS
 62
     7
 10
85.199515
 20
137.576647
 40
11.951647
 50
258.152618
 51
270.000000
  0
LINE
  8
CSLAYER1
  6
CONTINUOUS
 62
     7
 10
80.949515
 20
125.500000
 11
85.199515
 21
125.500000
  0
LINE
  8
CSLAYER1
  6
CONTINUOUS
 62
     7
 10
87.949515
 20
125.500000
 11
87.949515
 21
123.000000
  0
LINE
  8
CSLAYER1
  6
CONTINUOUS
 62
     7
 10
87.637015
 20
125.500000
 11
87.637015
 21
122.687500
  0
LINE
  8
CSLAYER1
  6
CONTINUOUS
 62
     7
 10
82.762015
 20
125.500000
 11
82.762015
 21
122.687500
  0
LINE
  8
CSLAYER1
  6
CONTINUOUS
 62
     7
 10
82.449515
 20
125.500000
 11
82.449515
 21
123.000000
  0
LINE
  8
CSLAYER1
  6
CENTER
 62
     2
 10
85.199515
 20
117.500000
 11
85.199515
 21
158.531250
  0
LINE
  8
CSLAYER1
  6
CONTINUOUS
 62
     7
 10
96.906100
 20
153.531250
 11
92.656100
 21
153.531250
  0
LINE
  8
CSLAYER1
  6
CONTINUOUS
 62
     7
 10
97.563578
 20
153.151655
 11
97.563578
 21
150.000000
  0
LINE
  8
CSLAYER1
  6
CONTINUOUS
 62
     7
 10
95.109839
 20
153.151655
 11
95.109839
 21
150.000000
  0
LINE
  8
CSLAYER1
  6
CONTINUOUS
 62
     7
 10
96.906100
 20
153.531250
 11
97.563578
 21
153.151655
  0
ARC
  8
CSLAYER1
  6
CONTINUOUS
 62
     7
 10
96.336708
 20
150.322865
 40
3.083385
 50
66.553229
 51
113.446771
  0
ARC
  8
CSLAYER1
  6
CONTINUOUS
 62
     7
 10
92.656100
 20
141.454603
 40
11.951647
 50
78.152618
 51
90.000000
  0
LINE
  8
CSLAYER1
  6
CONTINUOUS
 62
     7
 10
88.406100
 20
153.531250
 11
92.656100
 21
153.531250
  0
LINE
  8
CSLAYER1
  6
CONTINUOUS
 62
     7
 10
87.748623
 20
153.151655
 11
87.748623
 21
150.000000
  0
LINE
  8
CSLAYER1
  6
CONTINUOUS
 62
     7
 10
90.202362
 20
153.151655
 11
90.202362
 21
150.000000
  0
LINE
  8
CSLAYER1
  6
CONTINUOUS
 62
     7
 10
88.406100
 20
153.531250
 11
87.748623
 21
153.151655
  0
ARC
  8
CSLAYER1
  6
CONTINUOUS
 62
     7
 10
88.975492
 20
150.322865
 40
3.083385
 50
66.553229
 51
113.446771
  0
ARC
  8
CSLAYER1
  6
CONTINUOUS
 62
     7
 10
92.656100
 20
141.454603
 40
11.951647
 50
90.000000
 51
101.847382
  0
LINE
  8
CSLAYER1
  6
CONTINUOUS
 62
     7
 10
94.906100
 20
122.500000
 11
92.656100
 21
122.500000
  0
LINE
  8
CSLAYER1
  6
CONTINUOUS
 62
     7
 10
95.406100
 20
123.000000
 11
94.906100
 21
122.500000
  0
LINE
  8
CSLAYER1
  6
CONTINUOUS
 62
     7
 10
95.406100
 20
123.000000
 11
92.656100
 21
123.000000
  0
LINE
  8
CSLAYER1
  6
CONTINUOUS
 62
     7
 10
90.406100
 20
122.500000
 11
92.656100
 21
122.500000
  0
LINE
  8
CSLAYER1
  6
CONTINUOUS
 62
     7
 10
89.906100
 20
123.000000
 11
90.406100
 21
122.500000
  0
LINE
  8
CSLAYER1
  6
CONTINUOUS
 62
     7
 10
89.906100
 20
123.000000
 11
92.656100
 21
123.000000
  0
LINE
  8
CSLAYER1
  6
CONTINUOUS
 62
     7
 10
97.563578
 20
130.000000
 11
97.563578
 21
125.879594
  0
LINE
  8
CSLAYER1
  6
CONTINUOUS
 62
     7
 10
95.109839
 20
130.000000
 11
95.109839
 21
125.879594
  0
LINE
  8
CSLAYER1
  6
CONTINUOUS
 62
     7
 10
96.906100
 20
125.500000
 11
97.563578
 21
125.879594
  0
ARC
  8
CSLAYER1
  6
CONTINUOUS
 62
     7
 10
96.336708
 20
128.708385
 40
3.083385
 50
246.553229
 51
293.446771
  0
ARC
  8
CSLAYER1
  6
CONTINUOUS
 62
     7
 10
92.656100
 20
137.576647
 40
11.951647
 50
270.000000
 51
281.847382
  0
LINE
  8
CSLAYER1
  6
CONTINUOUS
 62
     7
 10
96.906100
 20
125.500000
 11
92.656100
 21
125.500000
  0
LINE
  8
CSLAYER1
  6
CONTINUOUS
 62
     7
 10
87.748623
 20
130.000000
 11
87.748623
 21
125.879594
  0
LINE
  8
CSLAYER1
  6
CONTINUOUS
 62
     7
 10
90.202362
 20
130.000000
 11
90.202362
 21
125.879594
  0
LINE
  8
CSLAYER1
  6
CONTINUOUS
 62
     7
 10
88.406100
 20
125.500000
 11
87.748623
 21
125.879594
  0
ARC
  8
CSLAYER1
  6
CONTINUOUS
 62
     7
 10
88.975492
 20
128.708385
 40
3.083385
 50
246.553229
 51
293.446771
  0
ARC
  8
CSLAYER1
  6
CONTINUOUS
 62
     7
 10
92.656100
 20
137.576647
 40
11.951647
 50
258.152618
 51
270.000000
  0
LINE
  8
CSLAYER1
  6
CONTINUOUS
 62
     7
 10
88.406100
 20
125.500000
 11
92.656100
 21
125.500000
  0
LINE
  8
CSLAYER1
  6
CONTINUOUS
 62
     7
 10
95.406100
 20
125.500000
 11
95.406100
 21
123.000000
  0
LINE
  8
CSLAYER1
  6
CONTINUOUS
 62
     7
 10
95.093600
 20
125.500000
 11
95.093600
 21
122.687500
  0
LINE
  8
CSLAYER1
  6
CONTINUOUS
 62
     7
 10
90.218600
 20
125.500000
 11
90.218600
 21
122.687500
  0
LINE
  8
CSLAYER1
  6
CONTINUOUS
 62
     7
 10
89.906100
 20
125.500000
 11
89.906100
 21
123.000000
  0
LINE
  8
CSLAYER1
  6
CENTER
 62
     2
 10
92.656100
 20
117.500000
 11
92.656100
 21
158.531250
  0
LINE
  8
CSLAYER1
  6
CONTINUOUS
 62
     7
 10
111.089368
 20
153.531250
 11
106.839368
 21
153.531250
  0
LINE
  8
CSLAYER1
  6
CONTINUOUS
 62
     7
 10
111.746845
 20
153.151655
 11
111.746845
 21
150.000000
  0
LINE
  8
CSLAYER1
  6
CONTINUOUS
 62
     7
 10
109.293107
 20
153.151655
 11
109.293107
 21
150.000000
  0
LINE
  8
CSLAYER1
  6
CONTINUOUS
 62
     7
 10
111.089368
 20
153.531250
 11
111.746845
 21
153.151655
  0
ARC
  8
CSLAYER1
  6
CONTINUOUS
 62
     7
 10
110.519976
 20
150.322865
 40
3.083385
 50
66.553229
 51
113.446771
  0
ARC
  8
CSLAYER1
  6
CONTINUOUS
 62
     7
 10
106.839368
 20
141.454603
 40
11.951647
 50
78.152618
 51
90.000000
  0
LINE
  8
CSLAYER1
  6
CONTINUOUS
 62
     7
 10
102.589368
 20
153.531250
 11
106.839368
 21
153.531250
  0
LINE
  8
CSLAYER1
  6
CONTINUOUS
 62
     7
 10
101.931891
 20
153.151655
 11
101.931891
 21
150.000000
  0
LINE
  8
CSLAYER1
  6
CONTINUOUS
 62
     7
 10
104.385629
 20
153.151655
 11
104.385629
 21
150.000000
  0
LINE
  8
CSLAYER1
  6
CONTINUOUS
 62
     7
 10
102.589368
 20
153.531250
 11
101.931891
 21
153.151655
  0
ARC
  8
CSLAYER1
  6
CONTINUOUS
 62
     7
 10
103.158760
 20
150.322865
 40
3.083385
 50
66.553229
 51
113.446771
  0
ARC
  8
CSLAYER1
  6
CONTINUOUS
 62
     7
 10
106.839368
 20
141.454603
 40
11.951647
 50
90.000000
 51
101.847382
  0
LINE
  8
CSLAYER1
  6
CONTINUOUS
 62
     7
 10
109.089368
 20
122.500000
 11
106.839368
 21
122.500000
  0
LINE
  8
CSLAYER1
  6
CONTINUOUS
 62
     7
 10
109.589368
 20
123.000000
 11
109.089368
 21
122.500000
  0
LINE
  8
CSLAYER1
  6
CONTINUOUS
 62
     7
 10
109.589368
 20
123.000000
 11
106.839368
 21
123.000000
  0
LINE
  8
CSLAYER1
  6
CONTINUOUS
 62
     7
 10
104.589368
 20
122.500000
 11
106.839368
 21
122.500000
  0
LINE
  8
CSLAYER1
  6
CONTINUOUS
 62
     7
 10
104.089368
 20
123.000000
 11
104.589368
 21
122.500000
  0
LINE
  8
CSLAYER1
  6
CONTINUOUS
 62
     7
 10
104.089368
 20
123.000000
 11
106.839368
 21
123.000000
  0
LINE
  8
CSLAYER1
  6
CONTINUOUS
 62
     7
 10
111.746845
 20
130.000000
 11
111.746845
 21
125.879594
  0
LINE
  8
CSLAYER1
  6
CONTINUOUS
 62
     7
 10
109.293107
 20
130.000000
 11
109.293107
 21
125.879594
  0
LINE
  8
CSLAYER1
  6
CONTINUOUS
 62
     7
 10
111.089368
 20
125.500000
 11
111.746845
 21
125.879594
  0
ARC
  8
CSLAYER1
  6
CONTINUOUS
 62
     7
 10
110.519976
 20
128.708385
 40
3.083385
 50
246.553229
 51
293.446771
  0
ARC
  8
CSLAYER1
  6
CONTINUOUS
 62
     7
 10
106.839368
 20
137.576647
 40
11.951647
 50
270.000000
 51
281.847382
  0
LINE
  8
CSLAYER1
  6
CONTINUOUS
 62
     7
 10
111.089368
 20
125.500000
 11
106.839368
 21
125.500000
  0
LINE
  8
CSLAYER1
  6
CONTINUOUS
 62
     7
 10
101.931891
 20
130.000000
 11
101.931891
 21
125.879594
  0
LINE
  8
CSLAYER1
  6
CONTINUOUS
 62
     7
 10
104.385629
 20
130.000000
 11
104.385629
 21
125.879594
  0
LINE
  8
CSLAYER1
  6
CONTINUOUS
 62
     7
 10
102.589368
 20
125.500000
 11
101.931891
 21
125.879594
  0
ARC
  8
CSLAYER1
  6
CONTINUOUS
 62
     7
 10
103.158760
 20
128.708385
 40
3.083385
 50
246.553229
 51
293.446771
  0
ARC
  8
CSLAYER1
  6
CONTINUOUS
 62
     7
 10
106.839368
 20
137.576647
 40
11.951647
 50
258.152618
 51
270.000000
  0
LINE
  8
CSLAYER1
  6
CONTINUOUS
 62
     7
 10
102.589368
 20
125.500000
 11
106.839368
 21
125.500000
  0
LINE
  8
CSLAYER1
  6
CONTINUOUS
 62
     7
 10
109.589368
 20
125.500000
 11
109.589368
 21
123.000000
  0
LINE
  8
CSLAYER1
  6
CONTINUOUS
 62
     7
 10
109.276868
 20
125.500000
 11
109.276868
 21
122.687500
  0
LINE
  8
CSLAYER1
  6
CONTINUOUS
 62
     7
 10
104.401868
 20
125.500000
 11
104.401868
 21
122.687500
  0
LINE
  8
CSLAYER1
  6
CONTINUOUS
 62
     7
 10
104.089368
 20
125.500000
 11
104.089368
 21
123.000000
  0
LINE
  8
CSLAYER1
  6
CENTER
 62
     2
 10
106.839368
 20
117.500000
 11
106.839368
 21
158.531250
  0
LINE
  8
CSLAYER1
  6
CONTINUOUS
 62
     7
 10
130.610961
 20
153.531250
 11
126.360961
 21
153.531250
  0
LINE
  8
CSLAYER1
  6
CONTINUOUS
 62
     7
 10
131.268438
 20
153.151655
 11
131.268438
 21
150.000000
  0
LINE
  8
CSLAYER1
  6
CONTINUOUS
 62
     7
 10
128.814700
 20
153.151655
 11
128.814700
 21
150.000000
  0
LINE
  8
CSLAYER1
  6
CONTINUOUS
 62
     7
 10
130.610961
 20
153.531250
 11
131.268438
 21
153.151655
  0
ARC
  8
CSLAYER1
  6
CONTINUOUS
 62
     7
 10
130.041569
 20
150.322865
 40
3.083385
 50
66.553229
 51
113.446771
  0
ARC
  8
CSLAYER1
  6
CONTINUOUS
 62
     7
 10
126.360961
 20
141.454603
 40
11.951647
 50
78.152618
 51
90.000000
  0
LINE
  8
CSLAYER1
  6
CONTINUOUS
 62
     7
 10
122.110961
 20
153.531250
 11
126.360961
 21
153.531250
  0
LINE
  8
CSLAYER1
  6
CONTINUOUS
 62
     7
 10
121.453484
 20
153.151655
 11
121.453484
 21
150.000000
  0
LINE
  8
CSLAYER1
  6
CONTINUOUS
 62
     7
 10
123.907223
 20
153.151655
 11
123.907223
 21
150.000000
  0
LINE
  8
CSLAYER1
  6
CONTINUOUS
 62
     7
 10
122.110961
 20
153.531250
 11
121.453484
 21
153.151655
  0
ARC
  8
CSLAYER1
  6
CONTINUOUS
 62
     7
 10
122.680353
 20
150.322865
 40
3.083385
 50
66.553229
 51
113.446771
  0
ARC
  8
CSLAYER1
  6
CONTINUOUS
 62
     7
 10
126.360961
 20
141.454603
 40
11.951647
 50
90.000000
 51
101.847382
  0
LINE
  8
CSLAYER1
  6
CONTINUOUS
 62
     7
 10
128.610961
 20
122.500000
 11
126.360961
 21
122.500000
  0
LINE
  8
CSLAYER1
  6
CONTINUOUS
 62
     7
 10
129.110961
 20
123.000000
 11
128.610961
 21
122.500000
  0
LINE
  8
CSLAYER1
  6
CONTINUOUS
 62
     7
 10
129.110961
 20
123.000000
 11
126.360961
 21
123.000000
  0
LINE
  8
CSLAYER1
  6
CONTINUOUS
 62
     7
 10
124.110961
 20
122.500000
 11
126.360961
 21
122.500000
  0
LINE
  8
CSLAYER1
  6
CONTINUOUS
 62
     7
 10
123.610961
 20
123.000000
 11
124.110961
 21
122.500000
  0
LINE
  8
CSLAYER1
  6
CONTINUOUS
 62
     7
 10
123.610961
 20
123.000000
 11
126.360961
 21
123.000000
  0
LINE
  8
CSLAYER1
  6
CONTINUOUS
 62
     7
 10
131.268438
 20
130.000000
 11
131.268438
 21
125.879594
  0
LINE
  8
CSLAYER1
  6
CONTINUOUS
 62
     7
 10
128.814700
 20
130.000000
 11
128.814700
 21
125.879594
  0
LINE
  8
CSLAYER1
  6
CONTINUOUS
 62
     7
 10
130.610961
 20
125.500000
 11
131.268438
 21
125.879594
  0
ARC
  8
CSLAYER1
  6
CONTINUOUS
 62
     7
 10
130.041569
 20
128.708385
 40
3.083385
 50
246.553229
 51
293.446771
  0
ARC
  8
CSLAYER1
  6
CONTINUOUS
 62
     7
 10
126.360961
 20
137.576647
 40
11.951647
 50
270.000000
 51
281.847382
  0
LINE
  8
CSLAYER1
  6
CONTINUOUS
 62
     7
 10
130.610961
 20
125.500000
 11
126.360961
 21
125.500000
  0
LINE
  8
CSLAYER1
  6
CONTINUOUS
 62
     7
 10
121.453484
 20
130.000000
 11
121.453484
 21
125.879594
  0
LINE
  8
CSLAYER1
  6
CONTINUOUS
 62
     7
 10
123.907223
 20
130.000000
 11
123.907223
 21
125.879594
  0
LINE
  8
CSLAYER1
  6
CONTINUOUS
 62
     7
 10
122.110961
 20
125.500000
 11
121.453484
 21
125.879594
  0
ARC
  8
CSLAYER1
  6
CONTINUOUS
 62
     7
 10
122.680353
 20
128.708385
 40
3.083385
 50
246.553229
 51
293.446771
  0
ARC
  8
CSLAYER1
  6
CONTINUOUS
 62
     7
 10
126.360961
 20
137.576647
 40
11.951647
 50
258.152618
 51
270.000000
  0
LINE
  8
CSLAYER1
  6
CONTINUOUS
 62
     7
 10
122.110961
 20
125.500000
 11
126.360961
 21
125.500000
  0
LINE
  8
CSLAYER1
  6
CONTINUOUS
 62
     7
 10
129.110961
 20
125.500000
 11
129.110961
 21
123.000000
  0
LINE
  8
CSLAYER1
  6
CONTINUOUS
 62
     7
 10
128.798461
 20
125.500000
 11
128.798461
 21
122.687500
  0
LINE
  8
CSLAYER1
  6
CONTINUOUS
 62
     7
 10
123.923461
 20
125.500000
 11
123.923461
 21
122.687500
  0
LINE
  8
CSLAYER1
  6
CONTINUOUS
 62
     7
 10
123.610961
 20
125.500000
 11
123.610961
 21
123.000000
  0
LINE
  8
CSLAYER1
  6
CENTER
 62
     2
 10
126.360961
 20
117.500000
 11
126.360961
 21
158.531250
  0
LINE
  8
CSLAYER1
  6
CONTINUOUS
 62
     7
 10
153.559970
 20
153.531250
 11
149.309970
 21
153.531250
  0
LINE
  8
CSLAYER1
  6
CONTINUOUS
 62
     7
 10
154.217448
 20
153.151655
 11
154.217448
 21
150.000000
  0
LINE
  8
CSLAYER1
  6
CONTINUOUS
 62
     7
 10
151.763709
 20
153.151655
 11
151.763709
 21
150.000000
  0
LINE
  8
CSLAYER1
  6
CONTINUOUS
 62
     7
 10
153.559970
 20
153.531250
 11
154.217448
 21
153.151655
  0
ARC
  8
CSLAYER1
  6
CONTINUOUS
 62
     7
 10
152.990578
 20
150.322865
 40
3.083385
 50
66.553229
 51
113.446771
  0
ARC
  8
CSLAYER1
  6
CONTINUOUS
 62
     7
 10
149.309970
 20
141.454603
 40
11.951647
 50
78.152618
 51
90.000000
  0
LINE
  8
CSLAYER1
  6
CONTINUOUS
 62
     7
 10
145.059970
 20
153.531250
 11
149.309970
 21
153.531250
  0
LINE
  8
CSLAYER1
  6
CONTINUOUS
 62
     7
 10
144.402493
 20
153.151655
 11
144.402493
 21
150.000000
  0
LINE
  8
CSLAYER1
  6
CONTINUOUS
 62
     7
 10
146.856232
 20
153.151655
 11
146.856232
 21
150.000000
  0
LINE
  8
CSLAYER1
  6
CONTINUOUS
 62
     7
 10
145.059970
 20
153.531250
 11
144.402493
 21
153.151655
  0
ARC
  8
CSLAYER1
  6
CONTINUOUS
 62
     7
 10
145.629362
 20
150.322865
 40
3.083385
 50
66.553229
 51
113.446771
  0
ARC
  8
CSLAYER1
  6
CONTINUOUS
 62
     7
 10
149.309970
 20
141.454603
 40
11.951647
 50
90.000000
 51
101.847382
  0
LINE
  8
CSLAYER1
  6
CONTINUOUS
 62
     7
 10
151.559970
 20
122.500000
 11
149.309970
 21
122.500000
  0
LINE
  8
CSLAYER1
  6
CONTINUOUS
 62
     7
 10
152.059970
 20
123.000000
 11
151.559970
 21
122.500000
  0
LINE
  8
CSLAYER1
  6
CONTINUOUS
 62
     7
 10
152.059970
 20
123.000000
 11
149.309970
 21
123.000000
  0
LINE
  8
CSLAYER1
  6
CONTINUOUS
 62
     7
 10
147.059970
 20
122.500000
 11
149.309970
 21
122.500000
  0
LINE
  8
CSLAYER1
  6
CONTINUOUS
 62
     7
 10
146.559970
 20
123.000000
 11
147.059970
 21
122.500000
  0
LINE
  8
CSLAYER1
  6
CONTINUOUS
 62
     7
 10
146.559970
 20
123.000000
 11
149.309970
 21
123.000000
  0
LINE
  8
CSLAYER1
  6
CONTINUOUS
 62
     7
 10
154.217448
 20
130.000000
 11
154.217448
 21
125.879594
  0
LINE
  8
CSLAYER1
  6
CONTINUOUS
 62
     7
 10
151.763709
 20
130.000000
 11
151.763709
 21
125.879594
  0
LINE
  8
CSLAYER1
  6
CONTINUOUS
 62
     7
 10
153.559970
 20
125.500000
 11
154.217448
 21
125.879594
  0
ARC
  8
CSLAYER1
  6
CONTINUOUS
 62
     7
 10
152.990578
 20
128.708385
 40
3.083385
 50
246.553229
 51
293.446771
  0
ARC
  8
CSLAYER1
  6
CONTINUOUS
 62
     7
 10
149.309970
 20
137.576647
 40
11.951647
 50
270.000000
 51
281.847382
  0
LINE
  8
CSLAYER1
  6
CONTINUOUS
 62
     7
 10
153.559970
 20
125.500000
 11
149.309970
 21
125.500000
  0
LINE
  8
CSLAYER1
  6
CONTINUOUS
 62
     7
 10
144.402493
 20
130.000000
 11
144.402493
 21
125.879594
  0
LINE
  8
CSLAYER1
  6
CONTINUOUS
 62
     7
 10
146.856232
 20
130.000000
 11
146.856232
 21
125.879594
  0
LINE
  8
CSLAYER1
  6
CONTINUOUS
 62
     7
 10
145.059970
 20
125.500000
 11
144.402493
 21
125.879594
  0
ARC
  8
CSLAYER1
  6
CONTINUOUS
 62
     7
 10
145.629362
 20
128.708385
 40
3.083385
 50
246.553229
 51
293.446771
  0
ARC
  8
CSLAYER1
  6
CONTINUOUS
 62
     7
 10
149.309970
 20
137.576647
 40
11.951647
 50
258.152618
 51
270.000000
  0
LINE
  8
CSLAYER1
  6
CONTINUOUS
 62
     7
 10
145.059970
 20
125.500000
 11
149.309970
 21
125.500000
  0
LINE
  8
CSLAYER1
  6
CONTINUOUS
 62
     7
 10
152.059970
 20
125.500000
 11
152.059970
 21
123.000000
  0
LINE
  8
CSLAYER1
  6
CONTINUOUS
 62
     7
 10
151.747470
 20
125.500000
 11
151.747470
 21
122.687500
  0
LINE
  8
CSLAYER1
  6
CONTINUOUS
 62
     7
 10
146.872470
 20
125.500000
 11
146.872470
 21
122.687500
  0
LINE
  8
CSLAYER1
  6
CONTINUOUS
 62
     7
 10
146.559970
 20
125.500000
 11
146.559970
 21
123.000000
  0
LINE
  8
CSLAYER1
  6
CENTER
 62
     2
 10
149.309970
 20
117.500000
 11
149.309970
 21
158.531250
  0
LINE
  8
CSLAYER1
  6
CONTINUOUS
 62
     7
 10
235.300442
 20
122.500000
 11
237.550442
 21
122.500000
  0
LINE
  8
CSLAYER1
  6
CONTINUOUS
 62
     7
 10
234.800442
 20
123.000000
 11
235.300442
 21
122.500000
  0
LINE
  8
CSLAYER1
  6
CONTINUOUS
 62
     7
 10
234.800442
 20
123.000000
 11
237.550442
 21
123.000000
  0
LINE
  8
CSLAYER1
  6
CONTINUOUS
 62
     7
 10
239.800442
 20
122.500000
 11
237.550442
 21
122.500000
  0
LINE
  8
CSLAYER1
  6
CONTINUOUS
 62
     7
 10
240.300442
 20
123.000000
 11
239.800442
 21
122.500000
  0
LINE
  8
CSLAYER1
  6
CONTINUOUS
 62
     7
 10
240.300442
 20
123.000000
 11
237.550442
 21
123.000000
  0
LINE
  8
CSLAYER1
  6
CONTINUOUS
 62
     7
 10
235.096703
 20
130.000000
 11
235.096703
 21
125.879594
  0
ARC
  8
CSLAYER1
  6
CONTINUOUS
 62
     7
 10
233.869834
 20
128.708385
 40
3.083385
 50
287.959735
 51
293.446771
  0
ARC
  8
CSLAYER1
  6
CONTINUOUS
 62
     7
 10
237.550442
 20
137.576647
 40
11.951647
 50
258.152618
 51
270.000000
  0
LINE
  8
CSLAYER1
  6
CONTINUOUS
 62
     7
 10
233.300442
 20
125.500000
 11
237.550442
 21
125.500000
  0
LINE
  8
CSLAYER1
  6
CONTINUOUS
 62
     7
 10
242.457919
 20
130.000000
 11
242.457919
 21
125.879594
  0
LINE
  8
CSLAYER1
  6
CONTINUOUS
 62
     7
 10
240.004180
 20
130.000000
 11
240.004180
 21
125.879594
  0
LINE
  8
CSLAYER1
  6
CONTINUOUS
 62
     7
 10
241.800442
 20
125.500000
 11
242.457919
 21
125.879594
  0
ARC
  8
CSLAYER1
  6
CONTINUOUS
 62
     7
 10
241.231050
 20
128.708385
 40
3.083385
 50
246.553229
 51
293.446771
  0
ARC
  8
CSLAYER1
  6
CONTINUOUS
 62
     7
 10
237.550442
 20
137.576647
 40
11.951647
 50
270.000000
 51
281.847382
  0
LINE
  8
CSLAYER1
  6
CONTINUOUS
 62
     7
 10
241.800442
 20
125.500000
 11
237.550442
 21
125.500000
  0
LINE
  8
CSLAYER1
  6
CONTINUOUS
 62
     7
 10
234.800442
 20
125.500000
 11
234.800442
 21
123.000000
  0
LINE
  8
CSLAYER1
  6
CONTINUOUS
 62
     7
 10
235.112942
 20
125.500000
 11
235.112942
 21
122.687500
  0
LINE
  8
CSLAYER1
  6
CONTINUOUS
 62
     7
 10
239.987942
 20
125.500000
 11
239.987942
 21
122.687500
  0
LINE
  8
CSLAYER1
  6
CONTINUOUS
 62
     7
 10
240.300442
 20
125.500000
 11
240.300442
 21
123.000000
  0
LINE
  8
CSLAYER1
  6
CONTINUOUS
 62
     7
 10
227.843857
 20
122.500000
 11
230.093857
 21
122.500000
  0
LINE
  8
CSLAYER1
  6
CONTINUOUS
 62
     7
 10
227.343857
 20
123.000000
 11
227.843857
 21
122.500000
  0
LINE
  8
CSLAYER1
  6
CONTINUOUS
 62
     7
 10
227.343857
 20
123.000000
 11
230.093857
 21
123.000000
  0
LINE
  8
CSLAYER1
  6
CONTINUOUS
 62
     7
 10
232.343857
 20
122.500000
 11
230.093857
 21
122.500000
  0
LINE
  8
CSLAYER1
  6
CONTINUOUS
 62
     7
 10
232.843857
 20
123.000000
 11
232.343857
 21
122.500000
  0
LINE
  8
CSLAYER1
  6
CONTINUOUS
 62
     7
 10
232.843857
 20
123.000000
 11
230.093857
 21
123.000000
  0
LINE
  8
CSLAYER1
  6
CONTINUOUS
 62
     7
 10
225.186379
 20
130.000000
 11
225.186379
 21
125.879594
  0
LINE
  8
CSLAYER1
  6
CONTINUOUS
 62
     7
 10
227.640118
 20
130.000000
 11
227.640118
 21
125.879594
  0
LINE
  8
CSLAYER1
  6
CONTINUOUS
 62
     7
 10
225.843857
 20
125.500000
 11
225.186379
 21
125.879594
  0
ARC
  8
CSLAYER1
  6
CONTINUOUS
 62
     7
 10
226.413249
 20
128.708385
 40
3.083385
 50
246.553229
 51
293.446771
  0
ARC
  8
CSLAYER1
  6
CONTINUOUS
 62
     7
 10
230.093857
 20
137.576647
 40
11.951647
 50
258.152618
 51
270.000000
  0
LINE
  8
CSLAYER1
  6
CONTINUOUS
 62
     7
 10
225.843857
 20
125.500000
 11
230.093857
 21
125.500000
  0
LINE
  8
CSLAYER1
  6
CONTINUOUS
 62
     7
 10
235.001334
 20
130.000000
 11
235.001334
 21
125.879594
  0
LINE
  8
CSLAYER1
  6
CONTINUOUS
 62
     7
 10
232.547595
 20
130.000000
 11
232.547595
 21
125.879594
  0
LINE
  8
CSLAYER1
  6
CONTINUOUS
 62
     7
 10
234.343857
 20
125.500000
 11
235.001334
 21
125.879594
  0
ARC
  8
CSLAYER1
  6
CONTINUOUS
 62
     7
 10
233.774465
 20
128.708385
 40
3.083385
 50
246.553229
 51
293.446771
  0
ARC
  8
CSLAYER1
  6
CONTINUOUS
 62
     7
 10
230.093857
 20
137.576647
 40
11.951647
 50
270.000000
 51
281.847382
  0
LINE
  8
CSLAYER1
  6
CONTINUOUS
 62
     7
 10
234.343857
 20
125.500000
 11
230.093857
 21
125.500000
  0
LINE
  8
CSLAYER1
  6
CONTINUOUS
 62
     7
 10
227.343857
 20
125.500000
 11
227.343857
 21
123.000000
  0
LINE
  8
CSLAYER1
  6
CONTINUOUS
 62
     7
 10
227.656357
 20
125.500000
 11
227.656357
 21
122.687500
  0
LINE
  8
CSLAYER1
  6
CONTINUOUS
 62
     7
 10
232.531357
 20
125.500000
 11
232.531357
 21
122.687500
  0
LINE
  8
CSLAYER1
  6
CONTINUOUS
 62
     7
 10
232.843857
 20
125.500000
 11
232.843857
 21
123.000000
  0
LINE
  8
CSLAYER1
  6
CONTINUOUS
 62
     7
 10
213.660589
 20
122.500000
 11
215.910589
 21
122.500000
  0
LINE
  8
CSLAYER1
  6
CONTINUOUS
 62
     7
 10
213.160589
 20
123.000000
 11
213.660589
 21
122.500000
  0
LINE
  8
CSLAYER1
  6
CONTINUOUS
 62
     7
 10
213.160589
 20
123.000000
 11
215.910589
 21
123.000000
  0
LINE
  8
CSLAYER1
  6
CONTINUOUS
 62
     7
 10
218.160589
 20
122.500000
 11
215.910589
 21
122.500000
  0
LINE
  8
CSLAYER1
  6
CONTINUOUS
 62
     7
 10
218.660589
 20
123.000000
 11
218.160589
 21
122.500000
  0
LINE
  8
CSLAYER1
  6
CONTINUOUS
 62
     7
 10
218.660589
 20
123.000000
 11
215.910589
 21
123.000000
  0
LINE
  8
CSLAYER1
  6
CONTINUOUS
 62
     7
 10
211.003112
 20
130.000000
 11
211.003112
 21
125.879594
  0
LINE
  8
CSLAYER1
  6
CONTINUOUS
 62
     7
 10
213.456850
 20
130.000000
 11
213.456850
 21
125.879594
  0
LINE
  8
CSLAYER1
  6
CONTINUOUS
 62
     7
 10
211.660589
 20
125.500000
 11
211.003112
 21
125.879594
  0
ARC
  8
CSLAYER1
  6
CONTINUOUS
 62
     7
 10
212.229981
 20
128.708385
 40
3.083385
 50
246.553229
 51
293.446771
  0
ARC
  8
CSLAYER1
  6
CONTINUOUS
 62
     7
 10
215.910589
 20
137.576647
 40
11.951647
 50
258.152618
 51
270.000000
  0
LINE
  8
CSLAYER1
  6
CONTINUOUS
 62
     7
 10
211.660589
 20
125.500000
 11
215.910589
 21
125.500000
  0
LINE
  8
CSLAYER1
  6
CONTINUOUS
 62
     7
 10
220.818066
 20
130.000000
 11
220.818066
 21
125.879594
  0
LINE
  8
CSLAYER1
  6
CONTINUOUS
 62
     7
 10
218.364328
 20
130.000000
 11
218.364328
 21
125.879594
  0
LINE
  8
CSLAYER1
  6
CONTINUOUS
 62
     7
 10
220.160589
 20
125.500000
 11
220.818066
 21
125.879594
  0
ARC
  8
CSLAYER1
  6
CONTINUOUS
 62
     7
 10
219.591197
 20
128.708385
 40
3.083385
 50
246.553229
 51
293.446771
  0
ARC
  8
CSLAYER1
  6
CONTINUOUS
 62
     7
 10
215.910589
 20
137.576647
 40
11.951647
 50
270.000000
 51
281.847382
  0
LINE
  8
CSLAYER1
  6
CONTINUOUS
 62
     7
 10
220.160589
 20
125.500000
 11
215.910589
 21
125.500000
  0
LINE
  8
CSLAYER1
  6
CONTINUOUS
 62
     7
 10
213.160589
 20
125.500000
 11
213.160589
 21
123.000000
  0
LINE
  8
CSLAYER1
  6
CONTINUOUS
 62
     7
 10
213.473089
 20
125.500000
 11
213.473089
 21
122.687500
  0
LINE
  8
CSLAYER1
  6
CONTINUOUS
 62
     7
 10
218.348089
 20
125.500000
 11
218.348089
 21
122.687500
  0
LINE
  8
CSLAYER1
  6
CONTINUOUS
 62
     7
 10
218.660589
 20
125.500000
 11
218.660589
 21
123.000000
  0
LINE
  8
CSLAYER1
  6
CONTINUOUS
 62
     7
 10
194.138996
 20
122.500000
 11
196.388996
 21
122.500000
  0
LINE
  8
CSLAYER1
  6
CONTINUOUS
 62
     7
 10
193.638996
 20
123.000000
 11
194.138996
 21
122.500000
  0
LINE
  8
CSLAYER1
  6
CONTINUOUS
 62
     7
 10
193.638996
 20
123.000000
 11
196.388996
 21
123.000000
  0
LINE
  8
CSLAYER1
  6
CONTINUOUS
 62
     7
 10
198.638996
 20
122.500000
 11
196.388996
 21
122.500000
  0
LINE
  8
CSLAYER1
  6
CONTINUOUS
 62
     7
 10
199.138996
 20
123.000000
 11
198.638996
 21
122.500000
  0
LINE
  8
CSLAYER1
  6
CONTINUOUS
 62
     7
 10
199.138996
 20
123.000000
 11
196.388996
 21
123.000000
  0
LINE
  8
CSLAYER1
  6
CONTINUOUS
 62
     7
 10
191.481518
 20
130.000000
 11
191.481518
 21
125.879594
  0
LINE
  8
CSLAYER1
  6
CONTINUOUS
 62
     7
 10
193.935257
 20
130.000000
 11
193.935257
 21
125.879594
  0
LINE
  8
CSLAYER1
  6
CONTINUOUS
 62
     7
 10
192.138996
 20
125.500000
 11
191.481518
 21
125.879594
  0
ARC
  8
CSLAYER1
  6
CONTINUOUS
 62
     7
 10
192.708388
 20
128.708385
 40
3.083385
 50
246.553229
 51
293.446771
  0
ARC
  8
CSLAYER1
  6
CONTINUOUS
 62
     7
 10
196.388996
 20
137.576647
 40
11.951647
 50
258.152618
 51
270.000000
  0
LINE
  8
CSLAYER1
  6
CONTINUOUS
 62
     7
 10
192.138996
 20
125.500000
 11
196.388996
 21
125.500000
  0
LINE
  8
CSLAYER1
  6
CONTINUOUS
 62
     7
 10
201.296473
 20
130.000000
 11
201.296473
 21
125.879594
  0
LINE
  8
CSLAYER1
  6
CONTINUOUS
 62
     7
 10
198.842734
 20
130.000000
 11
198.842734
 21
125.879594
  0
LINE
  8
CSLAYER1
  6
CONTINUOUS
 62
     7
 10
200.638996
 20
125.500000
 11
201.296473
 21
125.879594
  0
ARC
  8
CSLAYER1
  6
CONTINUOUS
 62
     7
 10
200.069604
 20
128.708385
 40
3.083385
 50
246.553229
 51
293.446771
  0
ARC
  8
CSLAYER1
  6
CONTINUOUS
 62
     7
 10
196.388996
 20
137.576647
 40
11.951647
 50
270.000000
 51
281.847382
  0
LINE
  8
CSLAYER1
  6
CONTINUOUS
 62
     7
 10
200.638996
 20
125.500000
 11
196.388996
 21
125.500000
  0
LINE
  8
CSLAYER1
  6
CONTINUOUS
 62
     7
 10
193.638996
 20
125.500000
 11
193.638996
 21
123.000000
  0
LINE
  8
CSLAYER1
  6
CONTINUOUS
 62
     7
 10
193.951496
 20
125.500000
 11
193.951496
 21
122.687500
  0
LINE
  8
CSLAYER1
  6
CONTINUOUS
 62
     7
 10
198.826496
 20
125.500000
 11
198.826496
 21
122.687500
  0
LINE
  8
CSLAYER1
  6
CONTINUOUS
 62
     7
 10
199.138996
 20
125.500000
 11
199.138996
 21
123.000000
  0
LINE
  8
CSLAYER1
  6
CONTINUOUS
 62
     7
 10
171.189987
 20
122.500000
 11
173.439987
 21
122.500000
  0
LINE
  8
CSLAYER1
  6
CONTINUOUS
 62
     7
 10
170.689987
 20
123.000000
 11
171.189987
 21
122.500000
  0
LINE
  8
CSLAYER1
  6
CONTINUOUS
 62
     7
 10
170.689987
 20
123.000000
 11
173.439987
 21
123.000000
  0
LINE
  8
CSLAYER1
  6
CONTINUOUS
 62
     7
 10
175.689987
 20
122.500000
 11
173.439987
 21
122.500000
  0
LINE
  8
CSLAYER1
  6
CONTINUOUS
 62
     7
 10
176.189987
 20
123.000000
 11
175.689987
 21
122.500000
  0
LINE
  8
CSLAYER1
  6
CONTINUOUS
 62
     7
 10
176.189987
 20
123.000000
 11
173.439987
 21
123.000000
  0
LINE
  8
CSLAYER1
  6
CONTINUOUS
 62
     7
 10
168.532509
 20
130.000000
 11
168.532509
 21
125.879594
  0
LINE
  8
CSLAYER1
  6
CONTINUOUS
 62
     7
 10
170.986248
 20
130.000000
 11
170.986248
 21
125.879594
  0
LINE
  8
CSLAYER1
  6
CONTINUOUS
 62
     7
 10
169.189987
 20
125.500000
 11
168.532509
 21
125.879594
  0
ARC
  8
CSLAYER1
  6
CONTINUOUS
 62
     7
 10
169.759379
 20
128.708385
 40
3.083385
 50
246.553229
 51
293.446771
  0
ARC
  8
CSLAYER1
  6
CONTINUOUS
 62
     7
 10
173.439987
 20
137.576647
 40
11.951647
 50
258.152618
 51
270.000000
  0
LINE
  8
CSLAYER1
  6
CONTINUOUS
 62
     7
 10
169.189987
 20
125.500000
 11
173.439987
 21
125.500000
  0
LINE
  8
CSLAYER1
  6
CONTINUOUS
 62
     7
 10
178.347464
 20
130.000000
 11
178.347464
 21
125.879594
  0
LINE
  8
CSLAYER1
  6
CONTINUOUS
 62
     7
 10
175.893725
 20
130.000000
 11
175.893725
 21
125.879594
  0
LINE
  8
CSLAYER1
  6
CONTINUOUS
 62
     7
 10
177.689987
 20
125.500000
 11
178.347464
 21
125.879594
  0
ARC
  8
CSLAYER1
  6
CONTINUOUS
 62
     7
 10
177.120595
 20
128.708385
 40
3.083385
 50
246.553229
 51
293.446771
  0
ARC
  8
CSLAYER1
  6
CONTINUOUS
 62
     7
 10
173.439987
 20
137.576647
 40
11.951647
 50
270.000000
 51
281.847382
  0
LINE
  8
CSLAYER1
  6
CONTINUOUS
 62
     7
 10
177.689987
 20
125.500000
 11
173.439987
 21
125.500000
  0
LINE
  8
CSLAYER1
  6
CONTINUOUS
 62
     7
 10
170.689987
 20
125.500000
 11
170.689987
 21
123.000000
  0
LINE
  8
CSLAYER1
  6
CONTINUOUS
 62
     7
 10
171.002487
 20
125.500000
 11
171.002487
 21
122.687500
  0
LINE
  8
CSLAYER1
  6
CONTINUOUS
 62
     7
 10
175.877487
 20
125.500000
 11
175.877487
 21
122.687500
  0
LINE
  8
CSLAYER1
  6
CONTINUOUS
 62
     7
 10
176.189987
 20
125.500000
 11
176.189987
 21
123.000000
  0
LINE
  8
CSLAYER1
  6
CENTER
 62
     2
 10
237.550442
 20
117.500000
 11
237.550442
 21
158.531250
  0
LINE
  8
CSLAYER1
  6
CENTER
 62
     2
 10
230.093857
 20
117.500000
 11
230.093857
 21
158.531250
  0
LINE
  8
CSLAYER1
  6
CENTER
 62
     2
 10
215.910589
 20
117.500000
 11
215.910589
 21
158.531250
  0
LINE
  8
CSLAYER1
  6
CENTER
 62
     2
 10
196.388996
 20
117.500000
 11
196.388996
 21
158.531250
  0
LINE
  8
CSLAYER1
  6
CENTER
 62
     2
 10
173.439987
 20
117.500000
 11
173.439987
 21
158.531250
  0
LINE
  8
CSLAYER1
  6
CONTINUOUS
 62
     7
 10
233.300442
 20
153.531250
 11
237.550442
 21
153.531250
  0
LINE
  8
CSLAYER1
  6
CONTINUOUS
 62
     7
 10
235.096703
 20
153.151655
 11
235.096703
 21
150.000000
  0
ARC
  8
CSLAYER1
  6
CONTINUOUS
 62
     7
 10
233.869834
 20
150.322865
 40
3.083385
 50
66.553229
 51
72.040265
  0
ARC
  8
CSLAYER1
  6
CONTINUOUS
 62
     7
 10
237.550442
 20
141.454603
 40
11.951647
 50
90.000000
 51
101.847382
  0
LINE
  8
CSLAYER1
  6
CONTINUOUS
 62
     7
 10
241.800442
 20
153.531250
 11
237.550442
 21
153.531250
  0
LINE
  8
CSLAYER1
  6
CONTINUOUS
 62
     7
 10
242.457919
 20
153.151655
 11
242.457919
 21
150.000000
  0
LINE
  8
CSLAYER1
  6
CONTINUOUS
 62
     7
 10
240.004180
 20
153.151655
 11
240.004180
 21
150.000000
  0
LINE
  8
CSLAYER1
  6
CONTINUOUS
 62
     7
 10
241.800442
 20
153.531250
 11
242.457919
 21
153.151655
  0
ARC
  8
CSLAYER1
  6
CONTINUOUS
 62
     7
 10
241.231050
 20
150.322865
 40
3.083385
 50
66.553229
 51
113.446771
  0
ARC
  8
CSLAYER1
  6
CONTINUOUS
 62
     7
 10
237.550442
 20
141.454603
 40
11.951647
 50
78.152618
 51
90.000000
  0
LINE
  8
CSLAYER1
  6
CONTINUOUS
 62
     7
 10
225.843857
 20
153.531250
 11
230.093857
 21
153.531250
  0
LINE
  8
CSLAYER1
  6
CONTINUOUS
 62
     7
 10
225.186379
 20
153.151655
 11
225.186379
 21
150.000000
  0
LINE
  8
CSLAYER1
  6
CONTINUOUS
 62
     7
 10
227.640118
 20
153.151655
 11
227.640118
 21
150.000000
  0
LINE
  8
CSLAYER1
  6
CONTINUOUS
 62
     7
 10
225.843857
 20
153.531250
 11
225.186379
 21
153.151655
  0
ARC
  8
CSLAYER1
  6
CONTINUOUS
 62
     7
 10
226.413249
 20
150.322865
 40
3.083385
 50
66.553229
 51
113.446771
  0
ARC
  8
CSLAYER1
  6
CONTINUOUS
 62
     7
 10
230.093857
 20
141.454603
 40
11.951647
 50
90.000000
 51
101.847382
  0
LINE
  8
CSLAYER1
  6
CONTINUOUS
 62
     7
 10
234.343857
 20
153.531250
 11
230.093857
 21
153.531250
  0
LINE
  8
CSLAYER1
  6
CONTINUOUS
 62
     7
 10
235.001334
 20
153.151655
 11
235.001334
 21
150.000000
  0
LINE
  8
CSLAYER1
  6
CONTINUOUS
 62
     7
 10
232.547595
 20
153.151655
 11
232.547595
 21
150.000000
  0
LINE
  8
CSLAYER1
  6
CONTINUOUS
 62
     7
 10
234.343857
 20
153.531250
 11
235.001334
 21
153.151655
  0
ARC
  8
CSLAYER1
  6
CONTINUOUS
 62
     7
 10
233.774465
 20
150.322865
 40
3.083385
 50
66.553229
 51
113.446771
  0
ARC
  8
CSLAYER1
  6
CONTINUOUS
 62
     7
 10
230.093857
 20
141.454603
 40
11.951647
 50
78.152618
 51
90.000000
  0
LINE
  8
CSLAYER1
  6
CONTINUOUS
 62
     7
 10
211.660589
 20
153.531250
 11
215.910589
 21
153.531250
  0
LINE
  8
CSLAYER1
  6
CONTINUOUS
 62
     7
 10
211.003112
 20
153.151655
 11
211.003112
 21
150.000000
  0
LINE
  8
CSLAYER1
  6
CONTINUOUS
 62
     7
 10
213.456850
 20
153.151655
 11
213.456850
 21
150.000000
  0
LINE
  8
CSLAYER1
  6
CONTINUOUS
 62
     7
 10
211.660589
 20
153.531250
 11
211.003112
 21
153.151655
  0
ARC
  8
CSLAYER1
  6
CONTINUOUS
 62
     7
 10
212.229981
 20
150.322865
 40
3.083385
 50
66.553229
 51
113.446771
  0
ARC
  8
CSLAYER1
  6
CONTINUOUS
 62
     7
 10
215.910589
 20
141.454603
 40
11.951647
 50
90.000000
 51
101.847382
  0
LINE
  8
CSLAYER1
  6
CONTINUOUS
 62
     7
 10
220.160589
 20
153.531250
 11
215.910589
 21
153.531250
  0
LINE
  8
CSLAYER1
  6
CONTINUOUS
 62
     7
 10
220.818066
 20
153.151655
 11
220.818066
 21
150.000000
  0
LINE
  8
CSLAYER1
  6
CONTINUOUS
 62
     7
 10
218.364328
 20
153.151655
 11
218.364328
 21
150.000000
  0
LINE
  8
CSLAYER1
  6
CONTINUOUS
 62
     7
 10
220.160589
 20
153.531250
 11
220.818066
 21
153.151655
  0
ARC
  8
CSLAYER1
  6
CONTINUOUS
 62
     7
 10
219.591197
 20
150.322865
 40
3.083385
 50
66.553229
 51
113.446771
  0
ARC
  8
CSLAYER1
  6
CONTINUOUS
 62
     7
 10
215.910589
 20
141.454603
 40
11.951647
 50
78.152618
 51
90.000000
  0
LINE
  8
CSLAYER1
  6
CONTINUOUS
 62
     7
 10
192.138996
 20
153.531250
 11
196.388996
 21
153.531250
  0
LINE
  8
CSLAYER1
  6
CONTINUOUS
 62
     7
 10
191.481518
 20
153.151655
 11
191.481518
 21
150.000000
  0
LINE
  8
CSLAYER1
  6
CONTINUOUS
 62
     7
 10
193.935257
 20
153.151655
 11
193.935257
 21
150.000000
  0
LINE
  8
CSLAYER1
  6
CONTINUOUS
 62
     7
 10
192.138996
 20
153.531250
 11
191.481518
 21
153.151655
  0
ARC
  8
CSLAYER1
  6
CONTINUOUS
 62
     7
 10
192.708388
 20
150.322865
 40
3.083385
 50
66.553229
 51
113.446771
  0
ARC
  8
CSLAYER1
  6
CONTINUOUS
 62
     7
 10
196.388996
 20
141.454603
 40
11.951647
 50
90.000000
 51
101.847382
  0
LINE
  8
CSLAYER1
  6
CONTINUOUS
 62
     7
 10
200.638996
 20
153.531250
 11
196.388996
 21
153.531250
  0
LINE
  8
CSLAYER1
  6
CONTINUOUS
 62
     7
 10
201.296473
 20
153.151655
 11
201.296473
 21
150.000000
  0
LINE
  8
CSLAYER1
  6
CONTINUOUS
 62
     7
 10
198.842734
 20
153.151655
 11
198.842734
 21
150.000000
  0
LINE
  8
CSLAYER1
  6
CONTINUOUS
 62
     7
 10
200.638996
 20
153.531250
 11
201.296473
 21
153.151655
  0
ARC
  8
CSLAYER1
  6
CONTINUOUS
 62
     7
 10
200.069604
 20
150.322865
 40
3.083385
 50
66.553229
 51
113.446771
  0
ARC
  8
CSLAYER1
  6
CONTINUOUS
 62
     7
 10
196.388996
 20
141.454603
 40
11.951647
 50
78.152618
 51
90.000000
  0
LINE
  8
CSLAYER1
  6
CONTINUOUS
 62
     7
 10
169.189987
 20
153.531250
 11
173.439987
 21
153.531250
  0
LINE
  8
CSLAYER1
  6
CONTINUOUS
 62
     7
 10
168.532509
 20
153.151655
 11
168.532509
 21
150.000000
  0
LINE
  8
CSLAYER1
  6
CONTINUOUS
 62
     7
 10
170.986248
 20
153.151655
 11
170.986248
 21
150.000000
  0
LINE
  8
CSLAYER1
  6
CONTINUOUS
 62
     7
 10
169.189987
 20
153.531250
 11
168.532509
 21
153.151655
  0
ARC
  8
CSLAYER1
  6
CONTINUOUS
 62
     7
 10
169.759379
 20
150.322865
 40
3.083385
 50
66.553229
 51
113.446771
  0
ARC
  8
CSLAYER1
  6
CONTINUOUS
 62
     7
 10
173.439987
 20
141.454603
 40
11.951647
 50
90.000000
 51
101.847382
  0
LINE
  8
CSLAYER1
  6
CONTINUOUS
 62
     7
 10
177.689987
 20
153.531250
 11
173.439987
 21
153.531250
  0
LINE
  8
CSLAYER1
  6
CONTINUOUS
 62
     7
 10
178.347464
 20
153.151655
 11
178.347464
 21
150.000000
  0
LINE
  8
CSLAYER1
  6
CONTINUOUS
 62
     7
 10
175.893725
 20
153.151655
 11
175.893725
 21
150.000000
  0
LINE
  8
CSLAYER1
  6
CONTINUOUS
 62
     7
 10
177.689987
 20
153.531250
 11
178.347464
 21
153.151655
  0
ARC
  8
CSLAYER1
  6
CONTINUOUS
 62
     7
 10
177.120595
 20
150.322865
 40
3.083385
 50
66.553229
 51
113.446771
  0
ARC
  8
CSLAYER1
  6
CONTINUOUS
 62
     7
 10
173.439987
 20
141.454603
 40
11.951647
 50
78.152618
 51
90.000000
  0
LINE
  8
CSLAYER1
  6
CONTINUOUS
 62
     7
 10
306.199515
 20
153.531250
 11
301.949515
 21
153.531250
  0
LINE
  8
CSLAYER1
  6
CONTINUOUS
 62
     7
 10
304.403254
 20
153.151655
 11
304.403254
 21
150.000000
  0
ARC
  8
CSLAYER1
  6
CONTINUOUS
 62
     7
 10
305.630123
 20
150.322865
 40
3.083385
 50
107.959735
 51
113.446771
  0
ARC
  8
CSLAYER1
  6
CONTINUOUS
 62
     7
 10
301.949515
 20
141.454603
 40
11.951647
 50
78.152618
 51
90.000000
  0
LINE
  8
CSLAYER1
  6
CONTINUOUS
 62
     7
 10
297.699515
 20
153.531250
 11
301.949515
 21
153.531250
  0
LINE
  8
CSLAYER1
  6
CONTINUOUS
 62
     7
 10
297.042038
 20
153.151655
 11
297.042038
 21
150.000000
  0
LINE
  8
CSLAYER1
  6
CONTINUOUS
 62
     7
 10
299.495777
 20
153.151655
 11
299.495777
 21
150.000000
  0
LINE
  8
CSLAYER1
  6
CONTINUOUS
 62
     7
 10
297.699515
 20
153.531250
 11
297.042038
 21
153.151655
  0
ARC
  8
CSLAYER1
  6
CONTINUOUS
 62
     7
 10
298.268907
 20
150.322865
 40
3.083385
 50
66.553229
 51
113.446771
  0
ARC
  8
CSLAYER1
  6
CONTINUOUS
 62
     7
 10
301.949515
 20
141.454603
 40
11.951647
 50
90.000000
 51
101.847382
  0
LINE
  8
CSLAYER1
  6
CONTINUOUS
 62
     7
 10
313.656100
 20
153.531250
 11
309.406100
 21
153.531250
  0
LINE
  8
CSLAYER1
  6
CONTINUOUS
 62
     7
 10
314.313578
 20
153.151655
 11
314.313578
 21
150.000000
  0
LINE
  8
CSLAYER1
  6
CONTINUOUS
 62
     7
 10
311.859839
 20
153.151655
 11
311.859839
 21
150.000000
  0
LINE
  8
CSLAYER1
  6
CONTINUOUS
 62
     7
 10
313.656100
 20
153.531250
 11
314.313578
 21
153.151655
  0
ARC
  8
CSLAYER1
  6
CONTINUOUS
 62
     7
 10
313.086708
 20
150.322865
 40
3.083385
 50
66.553229
 51
113.446771
  0
ARC
  8
CSLAYER1
  6
CONTINUOUS
 62
     7
 10
309.406100
 20
141.454603
 40
11.951647
 50
78.152618
 51
90.000000
  0
LINE
  8
CSLAYER1
  6
CONTINUOUS
 62
     7
 10
305.156100
 20
153.531250
 11
309.406100
 21
153.531250
  0
LINE
  8
CSLAYER1
  6
CONTINUOUS
 62
     7
 10
304.498623
 20
153.151655
 11
304.498623
 21
150.000000
  0
LINE
  8
CSLAYER1
  6
CONTINUOUS
 62
     7
 10
306.952362
 20
153.151655
 11
306.952362
 21
150.000000
  0
LINE
  8
CSLAYER1
  6
CONTINUOUS
 62
     7
 10
305.156100
 20
153.531250
 11
304.498623
 21
153.151655
  0
ARC
  8
CSLAYER1
  6
CONTINUOUS
 62
     7
 10
305.725492
 20
150.322865
 40
3.083385
 50
66.553229
 51
113.446771
  0
ARC
  8
CSLAYER1
  6
CONTINUOUS
 62
     7
 10
309.406100
 20
141.454603
 40
11.951647
 50
90.000000
 51
101.847382
  0
LINE
  8
CSLAYER1
  6
CONTINUOUS
 62
     7
 10
327.839368
 20
153.531250
 11
323.589368
 21
153.531250
  0
LINE
  8
CSLAYER1
  6
CONTINUOUS
 62
     7
 10
328.496845
 20
153.151655
 11
328.496845
 21
150.000000
  0
LINE
  8
CSLAYER1
  6
CONTINUOUS
 62
     7
 10
326.043107
 20
153.151655
 11
326.043107
 21
150.000000
  0
LINE
  8
CSLAYER1
  6
CONTINUOUS
 62
     7
 10
327.839368
 20
153.531250
 11
328.496845
 21
153.151655
  0
ARC
  8
CSLAYER1
  6
CONTINUOUS
 62
     7
 10
327.269976
 20
150.322865
 40
3.083385
 50
66.553229
 51
113.446771
  0
ARC
  8
CSLAYER1
  6
CONTINUOUS
 62
     7
 10
323.589368
 20
141.454603
 40
11.951647
 50
78.152618
 51
90.000000
  0
LINE
  8
CSLAYER1
  6
CONTINUOUS
 62
     7
 10
319.339368
 20
153.531250
 11
323.589368
 21
153.531250
  0
LINE
  8
CSLAYER1
  6
CONTINUOUS
 62
     7
 10
318.681891
 20
153.151655
 11
318.681891
 21
150.000000
  0
LINE
  8
CSLAYER1
  6
CONTINUOUS
 62
     7
 10
321.135629
 20
153.151655
 11
321.135629
 21
150.000000
  0
LINE
  8
CSLAYER1
  6
CONTINUOUS
 62
     7
 10
319.339368
 20
153.531250
 11
318.681891
 21
153.151655
  0
ARC
  8
CSLAYER1
  6
CONTINUOUS
 62
     7
 10
319.908760
 20
150.322865
 40
3.083385
 50
66.553229
 51
113.446771
  0
ARC
  8
CSLAYER1
  6
CONTINUOUS
 62
     7
 10
323.589368
 20
141.454603
 40
11.951647
 50
90.000000
 51
101.847382
  0
LINE
  8
CSLAYER1
  6
CONTINUOUS
 62
     7
 10
347.360961
 20
153.531250
 11
343.110961
 21
153.531250
  0
LINE
  8
CSLAYER1
  6
CONTINUOUS
 62
     7
 10
348.018438
 20
153.151655
 11
348.018438
 21
150.000000
  0
LINE
  8
CSLAYER1
  6
CONTINUOUS
 62
     7
 10
345.564700
 20
153.151655
 11
345.564700
 21
150.000000
  0
LINE
  8
CSLAYER1
  6
CONTINUOUS
 62
     7
 10
347.360961
 20
153.531250
 11
348.018438
 21
153.151655
  0
ARC
  8
CSLAYER1
  6
CONTINUOUS
 62
     7
 10
346.791569
 20
150.322865
 40
3.083385
 50
66.553229
 51
113.446771
  0
ARC
  8
CSLAYER1
  6
CONTINUOUS
 62
     7
 10
343.110961
 20
141.454603
 40
11.951647
 50
78.152618
 51
90.000000
  0
LINE
  8
CSLAYER1
  6
CONTINUOUS
 62
     7
 10
338.860961
 20
153.531250
 11
343.110961
 21
153.531250
  0
LINE
  8
CSLAYER1
  6
CONTINUOUS
 62
     7
 10
338.203484
 20
153.151655
 11
338.203484
 21
150.000000
  0
LINE
  8
CSLAYER1
  6
CONTINUOUS
 62
     7
 10
340.657223
 20
153.151655
 11
340.657223
 21
150.000000
  0
LINE
  8
CSLAYER1
  6
CONTINUOUS
 62
     7
 10
338.860961
 20
153.531250
 11
338.203484
 21
153.151655
  0
ARC
  8
CSLAYER1
  6
CONTINUOUS
 62
     7
 10
339.430353
 20
150.322865
 40
3.083385
 50
66.553229
 51
113.446771
  0
ARC
  8
CSLAYER1
  6
CONTINUOUS
 62
     7
 10
343.110961
 20
141.454603
 40
11.951647
 50
90.000000
 51
101.847382
  0
LINE
  8
CSLAYER1
  6
CONTINUOUS
 62
     7
 10
370.309970
 20
153.531250
 11
366.059970
 21
153.531250
  0
LINE
  8
CSLAYER1
  6
CONTINUOUS
 62
     7
 10
370.967448
 20
152.641490
 11
370.967448
 21
150.000000
  0
LINE
  8
CSLAYER1
  6
CONTINUOUS
 62
     7
 10
368.513709
 20
153.151655
 11
368.513709
 21
150.000000
  0
LINE
  8
CSLAYER1
  6
CONTINUOUS
 62
     7
 10
370.309970
 20
153.531250
 11
370.562478
 21
153.385464
  0
ARC
  8
CSLAYER1
  6
CONTINUOUS
 62
     7
 10
369.740578
 20
150.322865
 40
3.083385
 50
74.540464
 51
113.446771
  0
ARC
  8
CSLAYER1
  6
CONTINUOUS
 62
     7
 10
366.059970
 20
141.454603
 40
11.951647
 50
78.152618
 51
90.000000
  0
LINE
  8
CSLAYER1
  6
CONTINUOUS
 62
     7
 10
361.809970
 20
153.531250
 11
366.059970
 21
153.531250
  0
LINE
  8
CSLAYER1
  6
CONTINUOUS
 62
     7
 10
361.152493
 20
153.151655
 11
361.152493
 21
150.000000
  0
LINE
  8
CSLAYER1
  6
CONTINUOUS
 62
     7
 10
363.606232
 20
153.151655
 11
363.606232
 21
150.000000
  0
LINE
  8
CSLAYER1
  6
CONTINUOUS
 62
     7
 10
361.809970
 20
153.531250
 11
361.152493
 21
153.151655
  0
ARC
  8
CSLAYER1
  6
CONTINUOUS
 62
     7
 10
362.379362
 20
150.322865
 40
3.083385
 50
66.553229
 51
113.446771
  0
ARC
  8
CSLAYER1
  6
CONTINUOUS
 62
     7
 10
366.059970
 20
141.454603
 40
11.951647
 50
90.000000
 51
101.847382
  0
LINE
  8
CSLAYER1
  6
CENTER
 62
     2
 10
366.059970
 20
117.500000
 11
366.059970
 21
158.531250
  0
LINE
  8
CSLAYER1
  6
CENTER
 62
     2
 10
343.110961
 20
117.500000
 11
343.110961
 21
158.531250
  0
LINE
  8
CSLAYER1
  6
CENTER
 62
     2
 10
323.589368
 20
117.500000
 11
323.589368
 21
158.531250
  0
LINE
  8
CSLAYER1
  6
CENTER
 62
     2
 10
309.406100
 20
117.500000
 11
309.406100
 21
158.531250
  0
LINE
  8
CSLAYER1
  6
CENTER
 62
     2
 10
301.949515
 20
117.500000
 11
301.949515
 21
158.531250
  0
LINE
  8
CSLAYER1
  6
CONTINUOUS
 62
     7
 10
304.199515
 20
122.500000
 11
301.949515
 21
122.500000
  0
LINE
  8
CSLAYER1
  6
CONTINUOUS
 62
     7
 10
304.699515
 20
123.000000
 11
304.199515
 21
122.500000
  0
LINE
  8
CSLAYER1
  6
CONTINUOUS
 62
     7
 10
304.699515
 20
123.000000
 11
301.949515
 21
123.000000
  0
LINE
  8
CSLAYER1
  6
CONTINUOUS
 62
     7
 10
299.699515
 20
122.500000
 11
301.949515
 21
122.500000
  0
LINE
  8
CSLAYER1
  6
CONTINUOUS
 62
     7
 10
299.199515
 20
123.000000
 11
299.699515
 21
122.500000
  0
LINE
  8
CSLAYER1
  6
CONTINUOUS
 62
     7
 10
299.199515
 20
123.000000
 11
301.949515
 21
123.000000
  0
LINE
  8
CSLAYER1
  6
CONTINUOUS
 62
     7
 10
304.403254
 20
130.000000
 11
304.403254
 21
125.879594
  0
ARC
  8
CSLAYER1
  6
CONTINUOUS
 62
     7
 10
305.630123
 20
128.708385
 40
3.083385
 50
246.553229
 51
252.040265
  0
ARC
  8
CSLAYER1
  6
CONTINUOUS
 62
     7
 10
301.949515
 20
137.576647
 40
11.951647
 50
270.000000
 51
281.847382
  0
LINE
  8
CSLAYER1
  6
CONTINUOUS
 62
     7
 10
306.199515
 20
125.500000
 11
301.949515
 21
125.500000
  0
LINE
  8
CSLAYER1
  6
CONTINUOUS
 62
     7
 10
297.042038
 20
130.000000
 11
297.042038
 21
125.879594
  0
LINE
  8
CSLAYER1
  6
CONTINUOUS
 62
     7
 10
299.495777
 20
130.000000
 11
299.495777
 21
125.879594
  0
LINE
  8
CSLAYER1
  6
CONTINUOUS
 62
     7
 10
297.699515
 20
125.500000
 11
297.042038
 21
125.879594
  0
ARC
  8
CSLAYER1
  6
CONTINUOUS
 62
     7
 10
298.268907
 20
128.708385
 40
3.083385
 50
246.553229
 51
293.446771
  0
ARC
  8
CSLAYER1
  6
CONTINUOUS
 62
     7
 10
301.949515
 20
137.576647
 40
11.951647
 50
258.152618
 51
270.000000
  0
LINE
  8
CSLAYER1
  6
CONTINUOUS
 62
     7
 10
297.699515
 20
125.500000
 11
301.949515
 21
125.500000
  0
LINE
  8
CSLAYER1
  6
CONTINUOUS
 62
     7
 10
304.699515
 20
125.500000
 11
304.699515
 21
123.000000
  0
LINE
  8
CSLAYER1
  6
CONTINUOUS
 62
     7
 10
304.387015
 20
125.500000
 11
304.387015
 21
122.687500
  0
LINE
  8
CSLAYER1
  6
CONTINUOUS
 62
     7
 10
299.512015
 20
125.500000
 11
299.512015
 21
122.687500
  0
LINE
  8
CSLAYER1
  6
CONTINUOUS
 62
     7
 10
299.199515
 20
125.500000
 11
299.199515
 21
123.000000
  0
LINE
  8
CSLAYER1
  6
CONTINUOUS
 62
     7
 10
311.656100
 20
122.500000
 11
309.406100
 21
122.500000
  0
LINE
  8
CSLAYER1
  6
CONTINUOUS
 62
     7
 10
312.156100
 20
123.000000
 11
311.656100
 21
122.500000
  0
LINE
  8
CSLAYER1
  6
CONTINUOUS
 62
     7
 10
312.156100
 20
123.000000
 11
309.406100
 21
123.000000
  0
LINE
  8
CSLAYER1
  6
CONTINUOUS
 62
     7
 10
307.156100
 20
122.500000
 11
309.406100
 21
122.500000
  0
LINE
  8
CSLAYER1
  6
CONTINUOUS
 62
     7
 10
306.656100
 20
123.000000
 11
307.156100
 21
122.500000
  0
LINE
  8
CSLAYER1
  6
CONTINUOUS
 62
     7
 10
306.656100
 20
123.000000
 11
309.406100
 21
123.000000
  0
LINE
  8
CSLAYER1
  6
CONTINUOUS
 62
     7
 10
314.313578
 20
130.000000
 11
314.313578
 21
125.879594
  0
LINE
  8
CSLAYER1
  6
CONTINUOUS
 62
     7
 10
311.859839
 20
130.000000
 11
311.859839
 21
125.879594
  0
LINE
  8
CSLAYER1
  6
CONTINUOUS
 62
     7
 10
313.656100
 20
125.500000
 11
314.313578
 21
125.879594
  0
ARC
  8
CSLAYER1
  6
CONTINUOUS
 62
     7
 10
313.086708
 20
128.708385
 40
3.083385
 50
246.553229
 51
293.446771
  0
ARC
  8
CSLAYER1
  6
CONTINUOUS
 62
     7
 10
309.406100
 20
137.576647
 40
11.951647
 50
270.000000
 51
281.847382
  0
LINE
  8
CSLAYER1
  6
CONTINUOUS
 62
     7
 10
313.656100
 20
125.500000
 11
309.406100
 21
125.500000
  0
LINE
  8
CSLAYER1
  6
CONTINUOUS
 62
     7
 10
304.498623
 20
130.000000
 11
304.498623
 21
125.879594
  0
LINE
  8
CSLAYER1
  6
CONTINUOUS
 62
     7
 10
306.952362
 20
130.000000
 11
306.952362
 21
125.879594
  0
LINE
  8
CSLAYER1
  6
CONTINUOUS
 62
     7
 10
305.156100
 20
125.500000
 11
304.498623
 21
125.879594
  0
ARC
  8
CSLAYER1
  6
CONTINUOUS
 62
     7
 10
305.725492
 20
128.708385
 40
3.083385
 50
246.553229
 51
293.446771
  0
ARC
  8
CSLAYER1
  6
CONTINUOUS
 62
     7
 10
309.406100
 20
137.576647
 40
11.951647
 50
258.152618
 51
270.000000
  0
LINE
  8
CSLAYER1
  6
CONTINUOUS
 62
     7
 10
305.156100
 20
125.500000
 11
309.406100
 21
125.500000
  0
LINE
  8
CSLAYER1
  6
CONTINUOUS
 62
     7
 10
312.156100
 20
125.500000
 11
312.156100
 21
123.000000
  0
LINE
  8
CSLAYER1
  6
CONTINUOUS
 62
     7
 10
311.843600
 20
125.500000
 11
311.843600
 21
122.687500
  0
LINE
  8
CSLAYER1
  6
CONTINUOUS
 62
     7
 10
306.968600
 20
125.500000
 11
306.968600
 21
122.687500
  0
LINE
  8
CSLAYER1
  6
CONTINUOUS
 62
     7
 10
306.656100
 20
125.500000
 11
306.656100
 21
123.000000
  0
LINE
  8
CSLAYER1
  6
CONTINUOUS
 62
     7
 10
325.839368
 20
122.500000
 11
323.589368
 21
122.500000
  0
LINE
  8
CSLAYER1
  6
CONTINUOUS
 62
     7
 10
326.339368
 20
123.000000
 11
325.839368
 21
122.500000
  0
LINE
  8
CSLAYER1
  6
CONTINUOUS
 62
     7
 10
326.339368
 20
123.000000
 11
323.589368
 21
123.000000
  0
LINE
  8
CSLAYER1
  6
CONTINUOUS
 62
     7
 10
321.339368
 20
122.500000
 11
323.589368
 21
122.500000
  0
LINE
  8
CSLAYER1
  6
CONTINUOUS
 62
     7
 10
320.839368
 20
123.000000
 11
321.339368
 21
122.500000
  0
LINE
  8
CSLAYER1
  6
CONTINUOUS
 62
     7
 10
320.839368
 20
123.000000
 11
323.589368
 21
123.000000
  0
LINE
  8
CSLAYER1
  6
CONTINUOUS
 62
     7
 10
328.496845
 20
130.000000
 11
328.496845
 21
125.879594
  0
LINE
  8
CSLAYER1
  6
CONTINUOUS
 62
     7
 10
326.043107
 20
130.000000
 11
326.043107
 21
125.879594
  0
LINE
  8
CSLAYER1
  6
CONTINUOUS
 62
     7
 10
327.839368
 20
125.500000
 11
328.496845
 21
125.879594
  0
ARC
  8
CSLAYER1
  6
CONTINUOUS
 62
     7
 10
327.269976
 20
128.708385
 40
3.083385
 50
246.553229
 51
293.446771
  0
ARC
  8
CSLAYER1
  6
CONTINUOUS
 62
     7
 10
323.589368
 20
137.576647
 40
11.951647
 50
270.000000
 51
281.847382
  0
LINE
  8
CSLAYER1
  6
CONTINUOUS
 62
     7
 10
327.839368
 20
125.500000
 11
323.589368
 21
125.500000
  0
LINE
  8
CSLAYER1
  6
CONTINUOUS
 62
     7
 10
318.681891
 20
130.000000
 11
318.681891
 21
125.879594
  0
LINE
  8
CSLAYER1
  6
CONTINUOUS
 62
     7
 10
321.135629
 20
130.000000
 11
321.135629
 21
125.879594
  0
LINE
  8
CSLAYER1
  6
CONTINUOUS
 62
     7
 10
319.339368
 20
125.500000
 11
318.681891
 21
125.879594
  0
ARC
  8
CSLAYER1
  6
CONTINUOUS
 62
     7
 10
319.908760
 20
128.708385
 40
3.083385
 50
246.553229
 51
293.446771
  0
ARC
  8
CSLAYER1
  6
CONTINUOUS
 62
     7
 10
323.589368
 20
137.576647
 40
11.951647
 50
258.152618
 51
270.000000
  0
LINE
  8
CSLAYER1
  6
CONTINUOUS
 62
     7
 10
319.339368
 20
125.500000
 11
323.589368
 21
125.500000
  0
LINE
  8
CSLAYER1
  6
CONTINUOUS
 62
     7
 10
326.339368
 20
125.500000
 11
326.339368
 21
123.000000
  0
LINE
  8
CSLAYER1
  6
CONTINUOUS
 62
     7
 10
326.026868
 20
125.500000
 11
326.026868
 21
122.687500
  0
LINE
  8
CSLAYER1
  6
CONTINUOUS
 62
     7
 10
321.151868
 20
125.500000
 11
321.151868
 21
122.687500
  0
LINE
  8
CSLAYER1
  6
CONTINUOUS
 62
     7
 10
320.839368
 20
125.500000
 11
320.839368
 21
123.000000
  0
LINE
  8
CSLAYER1
  6
CONTINUOUS
 62
     7
 10
345.360961
 20
122.500000
 11
343.110961
 21
122.500000
  0
LINE
  8
CSLAYER1
  6
CONTINUOUS
 62
     7
 10
345.860961
 20
123.000000
 11
345.360961
 21
122.500000
  0
LINE
  8
CSLAYER1
  6
CONTINUOUS
 62
     7
 10
345.860961
 20
123.000000
 11
343.110961
 21
123.000000
  0
LINE
  8
CSLAYER1
  6
CONTINUOUS
 62
     7
 10
340.860961
 20
122.500000
 11
343.110961
 21
122.500000
  0
LINE
  8
CSLAYER1
  6
CONTINUOUS
 62
     7
 10
340.360961
 20
123.000000
 11
340.860961
 21
122.500000
  0
LINE
  8
CSLAYER1
  6
CONTINUOUS
 62
     7
 10
340.360961
 20
123.000000
 11
343.110961
 21
123.000000
  0
LINE
  8
CSLAYER1
  6
CONTINUOUS
 62
     7
 10
348.018438
 20
130.000000
 11
348.018438
 21
125.879594
  0
LINE
  8
CSLAYER1
  6
CONTINUOUS
 62
     7
 10
345.564700
 20
130.000000
 11
345.564700
 21
125.879594
  0
LINE
  8
CSLAYER1
  6
CONTINUOUS
 62
     7
 10
347.360961
 20
125.500000
 11
348.018438
 21
125.879594
  0
ARC
  8
CSLAYER1
  6
CONTINUOUS
 62
     7
 10
346.791569
 20
128.708385
 40
3.083385
 50
246.553229
 51
293.446771
  0
ARC
  8
CSLAYER1
  6
CONTINUOUS
 62
     7
 10
343.110961
 20
137.576647
 40
11.951647
 50
270.000000
 51
281.847382
  0
LINE
  8
CSLAYER1
  6
CONTINUOUS
 62
     7
 10
347.360961
 20
125.500000
 11
343.110961
 21
125.500000
  0
LINE
  8
CSLAYER1
  6
CONTINUOUS
 62
     7
 10
338.203484
 20
130.000000
 11
338.203484
 21
125.879594
  0
LINE
  8
CSLAYER1
  6
CONTINUOUS
 62
     7
 10
340.657223
 20
130.000000
 11
340.657223
 21
125.879594
  0
LINE
  8
CSLAYER1
  6
CONTINUOUS
 62
     7
 10
338.860961
 20
125.500000
 11
338.203484
 21
125.879594
  0
ARC
  8
CSLAYER1
  6
CONTINUOUS
 62
     7
 10
339.430353
 20
128.708385
 40
3.083385
 50
246.553229
 51
293.446771
  0
ARC
  8
CSLAYER1
  6
CONTINUOUS
 62
     7
 10
343.110961
 20
137.576647
 40
11.951647
 50
258.152618
 51
270.000000
  0
LINE
  8
CSLAYER1
  6
CONTINUOUS
 62
     7
 10
338.860961
 20
125.500000
 11
343.110961
 21
125.500000
  0
LINE
  8
CSLAYER1
  6
CONTINUOUS
 62
     7
 10
345.860961
 20
125.500000
 11
345.860961
 21
123.000000
  0
LINE
  8
CSLAYER1
  6
CONTINUOUS
 62
     7
 10
345.548461
 20
125.500000
 11
345.548461
 21
122.687500
  0
LINE
  8
CSLAYER1
  6
CONTINUOUS
 62
     7
 10
340.673461
 20
125.500000
 11
340.673461
 21
122.687500
  0
LINE
  8
CSLAYER1
  6
CONTINUOUS
 62
     7
 10
340.360961
 20
125.500000
 11
340.360961
 21
123.000000
  0
LINE
  8
CSLAYER1
  6
CONTINUOUS
 62
     7
 10
368.309970
 20
122.500000
 11
366.059970
 21
122.500000
  0
LINE
  8
CSLAYER1
  6
CONTINUOUS
 62
     7
 10
368.809970
 20
123.000000
 11
368.309970
 21
122.500000
  0
LINE
  8
CSLAYER1
  6
CONTINUOUS
 62
     7
 10
368.809970
 20
123.000000
 11
366.059970
 21
123.000000
  0
LINE
  8
CSLAYER1
  6
CONTINUOUS
 62
     7
 10
363.809970
 20
122.500000
 11
366.059970
 21
122.500000
  0
LINE
  8
CSLAYER1
  6
CONTINUOUS
 62
     7
 10
363.309970
 20
123.000000
 11
363.809970
 21
122.500000
  0
LINE
  8
CSLAYER1
  6
CONTINUOUS
 62
     7
 10
363.309970
 20
123.000000
 11
366.059970
 21
123.000000
  0
LINE
  8
CSLAYER1
  6
CONTINUOUS
 62
     7
 10
370.967448
 20
129.750000
 11
370.967448
 21
125.879594
  0
LINE
  8
CSLAYER1
  6
CONTINUOUS
 62
     7
 10
368.513709
 20
130.000000
 11
368.513709
 21
125.879594
  0
LINE
  8
CSLAYER1
  6
CONTINUOUS
 62
     7
 10
370.309970
 20
125.500000
 11
370.967448
 21
125.879594
  0
ARC
  8
CSLAYER1
  6
CONTINUOUS
 62
     7
 10
369.740578
 20
128.708385
 40
3.083385
 50
246.553229
 51
293.446771
  0
ARC
  8
CSLAYER1
  6
CONTINUOUS
 62
     7
 10
366.059970
 20
137.576647
 40
11.951647
 50
270.000000
 51
281.847382
  0
LINE
  8
CSLAYER1
  6
CONTINUOUS
 62
     7
 10
370.309970
 20
125.500000
 11
366.059970
 21
125.500000
  0
LINE
  8
CSLAYER1
  6
CONTINUOUS
 62
     7
 10
361.152493
 20
130.000000
 11
361.152493
 21
125.879594
  0
LINE
  8
CSLAYER1
  6
CONTINUOUS
 62
     7
 10
363.606232
 20
130.000000
 11
363.606232
 21
125.879594
  0
LINE
  8
CSLAYER1
  6
CONTINUOUS
 62
     7
 10
361.809970
 20
125.500000
 11
361.152493
 21
125.879594
  0
ARC
  8
CSLAYER1
  6
CONTINUOUS
 62
     7
 10
362.379362
 20
128.708385
 40
3.083385
 50
246.553229
 51
293.446771
  0
ARC
  8
CSLAYER1
  6
CONTINUOUS
 62
     7
 10
366.059970
 20
137.576647
 40
11.951647
 50
258.152618
 51
270.000000
  0
LINE
  8
CSLAYER1
  6
CONTINUOUS
 62
     7
 10
361.809970
 20
125.500000
 11
366.059970
 21
125.500000
  0
LINE
  8
CSLAYER1
  6
CONTINUOUS
 62
     7
 10
368.809970
 20
125.500000
 11
368.809970
 21
123.000000
  0
LINE
  8
CSLAYER1
  6
CONTINUOUS
 62
     7
 10
368.497470
 20
125.500000
 11
368.497470
 21
122.687500
  0
LINE
  8
CSLAYER1
  6
CONTINUOUS
 62
     7
 10
363.622470
 20
125.500000
 11
363.622470
 21
122.687500
  0
LINE
  8
CSLAYER1
  6
CONTINUOUS
 62
     7
 10
363.309970
 20
125.500000
 11
363.309970
 21
123.000000
  0
LINE
  8
CSLAYER1
  6
CONTINUOUS
 62
     7
 10
428.410589
 20
153.531250
 11
432.660589
 21
153.531250
  0
LINE
  8
CSLAYER1
  6
CONTINUOUS
 62
     7
 10
427.753112
 20
153.151655
 11
427.753112
 21
150.000000
  0
LINE
  8
CSLAYER1
  6
CONTINUOUS
 62
     7
 10
430.206850
 20
153.151655
 11
430.206850
 21
150.000000
  0
LINE
  8
CSLAYER1
  6
CONTINUOUS
 62
     7
 10
428.410589
 20
153.531250
 11
427.753112
 21
153.151655
  0
ARC
  8
CSLAYER1
  6
CONTINUOUS
 62
     7
 10
428.979981
 20
150.322865
 40
3.083385
 50
66.553229
 51
113.446771
  0
ARC
  8
CSLAYER1
  6
CONTINUOUS
 62
     7
 10
432.660589
 20
141.454603
 40
11.951647
 50
90.000000
 51
101.847382
  0
LINE
  8
CSLAYER1
  6
CONTINUOUS
 62
     7
 10
436.910589
 20
153.531250
 11
432.660589
 21
153.531250
  0
LINE
  8
CSLAYER1
  6
CONTINUOUS
 62
     7
 10
437.568066
 20
153.151655
 11
437.568066
 21
150.000000
  0
LINE
  8
CSLAYER1
  6
CONTINUOUS
 62
     7
 10
435.114328
 20
153.151655
 11
435.114328
 21
150.000000
  0
LINE
  8
CSLAYER1
  6
CONTINUOUS
 62
     7
 10
436.910589
 20
153.531250
 11
437.568066
 21
153.151655
  0
ARC
  8
CSLAYER1
  6
CONTINUOUS
 62
     7
 10
436.341197
 20
150.322865
 40
3.083385
 50
66.553229
 51
113.446771
  0
ARC
  8
CSLAYER1
  6
CONTINUOUS
 62
     7
 10
432.660589
 20
141.454603
 40
11.951647
 50
78.152618
 51
90.000000
  0
LINE
  8
CSLAYER1
  6
CONTINUOUS
 62
     7
 10
413.252795
 20
153.531250
 11
413.138996
 21
153.531250
  0
LINE
  8
CSLAYER1
  6
CONTINUOUS
 62
     7
 10
408.231518
 20
153.151655
 11
408.231518
 21
150.000000
  0
LINE
  8
CSLAYER1
  6
CONTINUOUS
 62
     7
 10
408.888996
 20
153.531250
 11
408.231518
 21
153.151655
  0
ARC
  8
CSLAYER1
  6
CONTINUOUS
 62
     7
 10
409.458388
 20
150.322865
 40
3.083385
 50
101.223823
 51
113.446771
  0
LINE
  8
CSLAYER1
  6
CONTINUOUS
 62
     7
 10
417.388996
 20
153.531250
 11
413.138996
 21
153.531250
  0
LINE
  8
CSLAYER1
  6
CONTINUOUS
 62
     7
 10
418.046473
 20
153.151655
 11
418.046473
 21
150.000000
  0
LINE
  8
CSLAYER1
  6
CONTINUOUS
 62
     7
 10
415.592734
 20
153.151655
 11
415.592734
 21
150.000000
  0
LINE
  8
CSLAYER1
  6
CONTINUOUS
 62
     7
 10
417.388996
 20
153.531250
 11
418.046473
 21
153.151655
  0
ARC
  8
CSLAYER1
  6
CONTINUOUS
 62
     7
 10
416.819604
 20
150.322865
 40
3.083385
 50
66.553229
 51
113.446771
  0
ARC
  8
CSLAYER1
  6
CONTINUOUS
 62
     7
 10
413.138996
 20
141.454603
 40
11.951647
 50
78.152618
 51
89.272086
  0
LINE
  8
CSLAYER1
  6
CENTER
 62
     2
 10
413.138996
 20
117.500000
 11
413.138996
 21
158.531250
  0
LINE
  8
CSLAYER1
  6
CENTER
 62
     2
 10
432.660589
 20
117.500000
 11
432.660589
 21
158.531250
  0
LINE
  8
CSLAYER1
  6
CONTINUOUS
 62
     7
 10
430.410589
 20
122.500000
 11
432.660589
 21
122.500000
  0
LINE
  8
CSLAYER1
  6
CONTINUOUS
 62
     7
 10
429.910589
 20
123.000000
 11
430.410589
 21
122.500000
  0
LINE
  8
CSLAYER1
  6
CONTINUOUS
 62
     7
 10
429.910589
 20
123.000000
 11
432.660589
 21
123.000000
  0
LINE
  8
CSLAYER1
  6
CONTINUOUS
 62
     7
 10
434.910589
 20
122.500000
 11
432.660589
 21
122.500000
  0
LINE
  8
CSLAYER1
  6
CONTINUOUS
 62
     7
 10
435.410589
 20
123.000000
 11
434.910589
 21
122.500000
  0
LINE
  8
CSLAYER1
  6
CONTINUOUS
 62
     7
 10
435.410589
 20
123.000000
 11
432.660589
 21
123.000000
  0
LINE
  8
CSLAYER1
  6
CONTINUOUS
 62
     7
 10
427.753112
 20
130.000000
 11
427.753112
 21
125.879594
  0
LINE
  8
CSLAYER1
  6
CONTINUOUS
 62
     7
 10
430.206850
 20
130.000000
 11
430.206850
 21
125.879594
  0
LINE
  8
CSLAYER1
  6
CONTINUOUS
 62
     7
 10
428.410589
 20
125.500000
 11
427.753112
 21
125.879594
  0
ARC
  8
CSLAYER1
  6
CONTINUOUS
 62
     7
 10
428.979981
 20
128.708385
 40
3.083385
 50
246.553229
 51
293.446771
  0
ARC
  8
CSLAYER1
  6
CONTINUOUS
 62
     7
 10
432.660589
 20
137.576647
 40
11.951647
 50
258.152618
 51
270.000000
  0
LINE
  8
CSLAYER1
  6
CONTINUOUS
 62
     7
 10
428.410589
 20
125.500000
 11
432.660589
 21
125.500000
  0
LINE
  8
CSLAYER1
  6
CONTINUOUS
 62
     7
 10
437.568066
 20
130.000000
 11
437.568066
 21
125.879594
  0
LINE
  8
CSLAYER1
  6
CONTINUOUS
 62
     7
 10
435.114328
 20
130.000000
 11
435.114328
 21
125.879594
  0
LINE
  8
CSLAYER1
  6
CONTINUOUS
 62
     7
 10
436.910589
 20
125.500000
 11
437.568066
 21
125.879594
  0
ARC
  8
CSLAYER1
  6
CONTINUOUS
 62
     7
 10
436.341197
 20
128.708385
 40
3.083385
 50
246.553229
 51
293.446771
  0
ARC
  8
CSLAYER1
  6
CONTINUOUS
 62
     7
 10
432.660589
 20
137.576647
 40
11.951647
 50
270.000000
 51
281.847382
  0
LINE
  8
CSLAYER1
  6
CONTINUOUS
 62
     7
 10
436.910589
 20
125.500000
 11
432.660589
 21
125.500000
  0
LINE
  8
CSLAYER1
  6
CONTINUOUS
 62
     7
 10
429.910589
 20
125.500000
 11
429.910589
 21
123.000000
  0
LINE
  8
CSLAYER1
  6
CONTINUOUS
 62
     7
 10
430.223089
 20
125.500000
 11
430.223089
 21
122.687500
  0
LINE
  8
CSLAYER1
  6
CONTINUOUS
 62
     7
 10
435.098089
 20
125.500000
 11
435.098089
 21
122.687500
  0
LINE
  8
CSLAYER1
  6
CONTINUOUS
 62
     7
 10
435.410589
 20
125.500000
 11
435.410589
 21
123.000000
  0
LINE
  8
CSLAYER1
  6
CONTINUOUS
 62
     7
 10
410.888996
 20
122.500000
 11
413.138996
 21
122.500000
  0
LINE
  8
CSLAYER1
  6
CONTINUOUS
 62
     7
 10
410.388996
 20
123.000000
 11
410.888996
 21
122.500000
  0
LINE
  8
CSLAYER1
  6
CONTINUOUS
 62
     7
 10
410.388996
 20
123.000000
 11
413.138996
 21
123.000000
  0
LINE
  8
CSLAYER1
  6
CONTINUOUS
 62
     7
 10
415.388996
 20
122.500000
 11
413.138996
 21
122.500000
  0
LINE
  8
CSLAYER1
  6
CONTINUOUS
 62
     7
 10
415.888996
 20
123.000000
 11
415.388996
 21
122.500000
  0
LINE
  8
CSLAYER1
  6
CONTINUOUS
 62
     7
 10
415.888996
 20
123.000000
 11
413.138996
 21
123.000000
  0
LINE
  8
CSLAYER1
  6
CONTINUOUS
 62
     7
 10
408.231518
 20
130.000000
 11
408.231518
 21
125.879594
  0
LINE
  8
CSLAYER1
  6
CONTINUOUS
 62
     7
 10
410.685257
 20
130.000000
 11
410.685257
 21
125.879594
  0
LINE
  8
CSLAYER1
  6
CONTINUOUS
 62
     7
 10
408.888996
 20
125.500000
 11
408.231518
 21
125.879594
  0
ARC
  8
CSLAYER1
  6
CONTINUOUS
 62
     7
 10
409.458388
 20
128.708385
 40
3.083385
 50
246.553229
 51
293.446771
  0
ARC
  8
CSLAYER1
  6
CONTINUOUS
 62
     7
 10
413.138996
 20
137.576647
 40
11.951647
 50
258.152618
 51
270.000000
  0
LINE
  8
CSLAYER1
  6
CONTINUOUS
 62
     7
 10
408.888996
 20
125.500000
 11
413.138996
 21
125.500000
  0
LINE
  8
CSLAYER1
  6
CONTINUOUS
 62
     7
 10
418.046473
 20
130.000000
 11
418.046473
 21
125.879594
  0
LINE
  8
CSLAYER1
  6
CONTINUOUS
 62
     7
 10
415.592734
 20
130.000000
 11
415.592734
 21
125.879594
  0
LINE
  8
CSLAYER1
  6
CONTINUOUS
 62
     7
 10
417.388996
 20
125.500000
 11
418.046473
 21
125.879594
  0
ARC
  8
CSLAYER1
  6
CONTINUOUS
 62
     7
 10
416.819604
 20
128.708385
 40
3.083385
 50
246.553229
 51
293.446771
  0
ARC
  8
CSLAYER1
  6
CONTINUOUS
 62
     7
 10
413.138996
 20
137.576647
 40
11.951647
 50
270.000000
 51
281.847382
  0
LINE
  8
CSLAYER1
  6
CONTINUOUS
 62
     7
 10
417.388996
 20
125.500000
 11
413.138996
 21
125.500000
  0
LINE
  8
CSLAYER1
  6
CONTINUOUS
 62
     7
 10
410.388996
 20
125.500000
 11
410.388996
 21
123.000000
  0
LINE
  8
CSLAYER1
  6
CONTINUOUS
 62
     7
 10
410.701496
 20
125.500000
 11
410.701496
 21
122.687500
  0
LINE
  8
CSLAYER1
  6
CONTINUOUS
 62
     7
 10
415.576496
 20
125.500000
 11
415.576496
 21
122.687500
  0
LINE
  8
CSLAYER1
  6
CONTINUOUS
 62
     7
 10
415.888996
 20
125.500000
 11
415.888996
 21
123.000000
  0
LINE
  8
CSLAYER1
  6
CONTINUOUS
 62
     7
 10
387.939987
 20
122.500000
 11
390.189987
 21
122.500000
  0
LINE
  8
CSLAYER1
  6
CONTINUOUS
 62
     7
 10
387.439987
 20
123.000000
 11
387.939987
 21
122.500000
  0
LINE
  8
CSLAYER1
  6
CONTINUOUS
 62
     7
 10
387.439987
 20
123.000000
 11
390.189987
 21
123.000000
  0
LINE
  8
CSLAYER1
  6
CONTINUOUS
 62
     7
 10
392.439987
 20
122.500000
 11
390.189987
 21
122.500000
  0
LINE
  8
CSLAYER1
  6
CONTINUOUS
 62
     7
 10
392.939987
 20
123.000000
 11
392.439987
 21
122.500000
  0
LINE
  8
CSLAYER1
  6
CONTINUOUS
 62
     7
 10
392.939987
 20
123.000000
 11
390.189987
 21
123.000000
  0
LINE
  8
CSLAYER1
  6
CONTINUOUS
 62
     7
 10
385.282509
 20
129.750000
 11
385.282509
 21
125.879594
  0
LINE
  8
CSLAYER1
  6
CONTINUOUS
 62
     7
 10
387.736248
 20
130.000000
 11
387.736248
 21
125.879594
  0
LINE
  8
CSLAYER1
  6
CONTINUOUS
 62
     7
 10
385.939987
 20
125.500000
 11
385.282509
 21
125.879594
  0
ARC
  8
CSLAYER1
  6
CONTINUOUS
 62
     7
 10
386.509379
 20
128.708385
 40
3.083385
 50
246.553229
 51
293.446771
  0
ARC
  8
CSLAYER1
  6
CONTINUOUS
 62
     7
 10
390.189987
 20
137.576647
 40
11.951647
 50
258.152618
 51
270.000000
  0
LINE
  8
CSLAYER1
  6
CONTINUOUS
 62
     7
 10
385.939987
 20
125.500000
 11
390.189987
 21
125.500000
  0
LINE
  8
CSLAYER1
  6
CONTINUOUS
 62
     7
 10
395.097464
 20
130.000000
 11
395.097464
 21
125.879594
  0
LINE
  8
CSLAYER1
  6
CONTINUOUS
 62
     7
 10
392.643725
 20
130.000000
 11
392.643725
 21
125.879594
  0
LINE
  8
CSLAYER1
  6
CONTINUOUS
 62
     7
 10
394.439987
 20
125.500000
 11
395.097464
 21
125.879594
  0
ARC
  8
CSLAYER1
  6
CONTINUOUS
 62
     7
 10
393.870595
 20
128.708385
 40
3.083385
 50
246.553229
 51
293.446771
  0
ARC
  8
CSLAYER1
  6
CONTINUOUS
 62
     7
 10
390.189987
 20
137.576647
 40
11.951647
 50
270.000000
 51
281.847382
  0
LINE
  8
CSLAYER1
  6
CONTINUOUS
 62
     7
 10
394.439987
 20
125.500000
 11
390.189987
 21
125.500000
  0
LINE
  8
CSLAYER1
  6
CONTINUOUS
 62
     7
 10
387.439987
 20
125.500000
 11
387.439987
 21
123.000000
  0
LINE
  8
CSLAYER1
  6
CONTINUOUS
 62
     7
 10
387.752487
 20
125.500000
 11
387.752487
 21
122.687500
  0
LINE
  8
CSLAYER1
  6
CONTINUOUS
 62
     7
 10
392.627487
 20
125.500000
 11
392.627487
 21
122.687500
  0
LINE
  8
CSLAYER1
  6
CONTINUOUS
 62
     7
 10
392.939987
 20
125.500000
 11
392.939987
 21
123.000000
  0
LINE
  8
CSLAYER1
  6
CENTER
 62
     2
 10
390.189987
 20
117.500000
 11
390.189987
 21
158.531250
  0
LINE
  8
CSLAYER1
  6
CONTINUOUS
 62
     7
 10
385.939987
 20
153.531250
 11
390.189987
 21
153.531250
  0
LINE
  8
CSLAYER1
  6
CONTINUOUS
 62
     7
 10
385.282509
 20
152.641490
 11
385.282509
 21
150.000000
  0
LINE
  8
CSLAYER1
  6
CONTINUOUS
 62
     7
 10
387.736248
 20
153.151655
 11
387.736248
 21
150.000000
  0
LINE
  8
CSLAYER1
  6
CONTINUOUS
 62
     7
 10
385.939987
 20
153.531250
 11
385.687478
 21
153.385464
  0
ARC
  8
CSLAYER1
  6
CONTINUOUS
 62
     7
 10
386.509379
 20
150.322865
 40
3.083385
 50
66.553229
 51
105.459536
  0
ARC
  8
CSLAYER1
  6
CONTINUOUS
 62
     7
 10
390.189987
 20
141.454603
 40
11.951647
 50
90.000000
 51
101.847382
  0
LINE
  8
CSLAYER1
  6
CONTINUOUS
 62
     7
 10
394.439987
 20
153.531250
 11
390.189987
 21
153.531250
  0
LINE
  8
CSLAYER1
  6
CONTINUOUS
 62
     7
 10
395.097464
 20
153.151655
 11
395.097464
 21
150.000000
  0
LINE
  8
CSLAYER1
  6
CONTINUOUS
 62
     7
 10
392.643725
 20
153.151655
 11
392.643725
 21
150.000000
  0
LINE
  8
CSLAYER1
  6
CONTINUOUS
 62
     7
 10
394.439987
 20
153.531250
 11
395.097464
 21
153.151655
  0
ARC
  8
CSLAYER1
  6
CONTINUOUS
 62
     7
 10
393.870595
 20
150.322865
 40
3.083385
 50
66.553229
 51
113.446771
  0
ARC
  8
CSLAYER1
  6
CONTINUOUS
 62
     7
 10
390.189987
 20
141.454603
 40
11.951647
 50
78.152618
 51
90.000000
  0
LINE
  8
CSLAYER1
  6
CONTINUOUS
 62
     7
 10
449.812478
 20
140.000000
 11
449.812478
 21
139.500000
  0
LINE
  8
CSLAYER1
  6
CONTINUOUS
 62
     7
 10
450.050442
 20
153.531250
 11
454.300442
 21
153.531250
  0
LINE
  8
CSLAYER1
  6
CONTINUOUS
 62
     7
 10
451.846703
 20
153.151655
 11
451.846703
 21
150.000000
  0
ARC
  8
CSLAYER1
  6
CONTINUOUS
 62
     7
 10
450.619834
 20
150.322865
 40
3.083385
 50
66.553229
 51
72.040265
  0
ARC
  8
CSLAYER1
  6
CONTINUOUS
 62
     7
 10
454.300442
 20
141.454603
 40
11.951647
 50
90.000000
 51
101.847382
  0
LINE
  8
CSLAYER1
  6
CONTINUOUS
 62
     7
 10
458.550442
 20
153.531250
 11
454.300442
 21
153.531250
  0
LINE
  8
CSLAYER1
  6
CONTINUOUS
 62
     7
 10
459.207919
 20
153.151655
 11
459.207919
 21
150.000000
  0
LINE
  8
CSLAYER1
  6
CONTINUOUS
 62
     7
 10
456.754180
 20
153.151655
 11
456.754180
 21
150.000000
  0
LINE
  8
CSLAYER1
  6
CONTINUOUS
 62
     7
 10
458.550442
 20
153.531250
 11
459.207919
 21
153.151655
  0
ARC
  8
CSLAYER1
  6
CONTINUOUS
 62
     7
 10
457.981050
 20
150.322865
 40
3.083385
 50
66.553229
 51
113.446771
  0
ARC
  8
CSLAYER1
  6
CONTINUOUS
 62
     7
 10
454.300442
 20
141.454603
 40
11.951647
 50
78.152618
 51
90.000000
  0
LINE
  8
CSLAYER1
  6
CONTINUOUS
 62
     7
 10
442.593857
 20
153.531250
 11
446.843857
 21
153.531250
  0
LINE
  8
CSLAYER1
  6
CONTINUOUS
 62
     7
 10
441.936379
 20
153.151655
 11
441.936379
 21
150.000000
  0
LINE
  8
CSLAYER1
  6
CONTINUOUS
 62
     7
 10
444.390118
 20
153.151655
 11
444.390118
 21
150.000000
  0
LINE
  8
CSLAYER1
  6
CONTINUOUS
 62
     7
 10
442.593857
 20
153.531250
 11
441.936379
 21
153.151655
  0
ARC
  8
CSLAYER1
  6
CONTINUOUS
 62
     7
 10
443.163249
 20
150.322865
 40
3.083385
 50
66.553229
 51
113.446771
  0
ARC
  8
CSLAYER1
  6
CONTINUOUS
 62
     7
 10
446.843857
 20
141.454603
 40
11.951647
 50
90.000000
 51
101.847382
  0
LINE
  8
CSLAYER1
  6
CONTINUOUS
 62
     7
 10
451.093857
 20
153.531250
 11
446.843857
 21
153.531250
  0
LINE
  8
CSLAYER1
  6
CONTINUOUS
 62
     7
 10
451.751334
 20
153.151655
 11
451.751334
 21
150.000000
  0
LINE
  8
CSLAYER1
  6
CONTINUOUS
 62
     7
 10
449.297595
 20
153.151655
 11
449.297595
 21
150.000000
  0
LINE
  8
CSLAYER1
  6
CONTINUOUS
 62
     7
 10
451.093857
 20
153.531250
 11
451.751334
 21
153.151655
  0
ARC
  8
CSLAYER1
  6
CONTINUOUS
 62
     7
 10
450.524465
 20
150.322865
 40
3.083385
 50
66.553229
 51
113.446771
  0
ARC
  8
CSLAYER1
  6
CONTINUOUS
 62
     7
 10
446.843857
 20
141.454603
 40
11.951647
 50
78.152618
 51
90.000000
  0
LINE
  8
CSLAYER1
  6
CENTER
 62
     2
 10
446.843857
 20
117.500000
 11
446.843857
 21
158.531250
  0
LINE
  8
CSLAYER1
  6
CENTER
 62
     2
 10
454.300442
 20
117.500000
 11
454.300442
 21
158.531250
  0
LINE
  8
CSLAYER1
  6
CONTINUOUS
 62
     7
 10
452.050442
 20
122.500000
 11
454.300442
 21
122.500000
  0
LINE
  8
CSLAYER1
  6
CONTINUOUS
 62
     7
 10
451.550442
 20
123.000000
 11
452.050442
 21
122.500000
  0
LINE
  8
CSLAYER1
  6
CONTINUOUS
 62
     7
 10
451.550442
 20
123.000000
 11
454.300442
 21
123.000000
  0
LINE
  8
CSLAYER1
  6
CONTINUOUS
 62
     7
 10
456.550442
 20
122.500000
 11
454.300442
 21
122.500000
  0
LINE
  8
CSLAYER1
  6
CONTINUOUS
 62
     7
 10
457.050442
 20
123.000000
 11
456.550442
 21
122.500000
  0
LINE
  8
CSLAYER1
  6
CONTINUOUS
 62
     7
 10
457.050442
 20
123.000000
 11
454.300442
 21
123.000000
  0
LINE
  8
CSLAYER1
  6
CONTINUOUS
 62
     7
 10
451.846703
 20
130.000000
 11
451.846703
 21
125.879594
  0
ARC
  8
CSLAYER1
  6
CONTINUOUS
 62
     7
 10
450.619834
 20
128.708385
 40
3.083385
 50
287.959735
 51
293.446771
  0
ARC
  8
CSLAYER1
  6
CONTINUOUS
 62
     7
 10
454.300442
 20
137.576647
 40
11.951647
 50
258.152618
 51
270.000000
  0
LINE
  8
CSLAYER1
  6
CONTINUOUS
 62
     7
 10
450.050442
 20
125.500000
 11
454.300442
 21
125.500000
  0
LINE
  8
CSLAYER1
  6
CONTINUOUS
 62
     7
 10
459.207919
 20
130.000000
 11
459.207919
 21
125.879594
  0
LINE
  8
CSLAYER1
  6
CONTINUOUS
 62
     7
 10
456.754180
 20
130.000000
 11
456.754180
 21
125.879594
  0
LINE
  8
CSLAYER1
  6
CONTINUOUS
 62
     7
 10
458.550442
 20
125.500000
 11
459.207919
 21
125.879594
  0
ARC
  8
CSLAYER1
  6
CONTINUOUS
 62
     7
 10
457.981050
 20
128.708385
 40
3.083385
 50
246.553229
 51
293.446771
  0
ARC
  8
CSLAYER1
  6
CONTINUOUS
 62
     7
 10
454.300442
 20
137.576647
 40
11.951647
 50
270.000000
 51
281.847382
  0
LINE
  8
CSLAYER1
  6
CONTINUOUS
 62
     7
 10
458.550442
 20
125.500000
 11
454.300442
 21
125.500000
  0
LINE
  8
CSLAYER1
  6
CONTINUOUS
 62
     7
 10
451.550442
 20
125.500000
 11
451.550442
 21
123.000000
  0
LINE
  8
CSLAYER1
  6
CONTINUOUS
 62
     7
 10
451.862942
 20
125.500000
 11
451.862942
 21
122.687500
  0
LINE
  8
CSLAYER1
  6
CONTINUOUS
 62
     7
 10
456.737942
 20
125.500000
 11
456.737942
 21
122.687500
  0
LINE
  8
CSLAYER1
  6
CONTINUOUS
 62
     7
 10
457.050442
 20
125.500000
 11
457.050442
 21
123.000000
  0
LINE
  8
CSLAYER1
  6
CONTINUOUS
 62
     7
 10
444.593857
 20
122.500000
 11
446.843857
 21
122.500000
  0
LINE
  8
CSLAYER1
  6
CONTINUOUS
 62
     7
 10
444.093857
 20
123.000000
 11
444.593857
 21
122.500000
  0
LINE
  8
CSLAYER1
  6
CONTINUOUS
 62
     7
 10
444.093857
 20
123.000000
 11
446.843857
 21
123.000000
  0
LINE
  8
CSLAYER1
  6
CONTINUOUS
 62
     7
 10
449.093857
 20
122.500000
 11
446.843857
 21
122.500000
  0
LINE
  8
CSLAYER1
  6
CONTINUOUS
 62
     7
 10
449.593857
 20
123.000000
 11
449.093857
 21
122.500000
  0
LINE
  8
CSLAYER1
  6
CONTINUOUS
 62
     7
 10
449.593857
 20
123.000000
 11
446.843857
 21
123.000000
  0
LINE
  8
CSLAYER1
  6
CONTINUOUS
 62
     7
 10
441.936379
 20
130.000000
 11
441.936379
 21
125.879594
  0
LINE
  8
CSLAYER1
  6
CONTINUOUS
 62
     7
 10
444.390118
 20
130.000000
 11
444.390118
 21
125.879594
  0
LINE
  8
CSLAYER1
  6
CONTINUOUS
 62
     7
 10
442.593857
 20
125.500000
 11
441.936379
 21
125.879594
  0
ARC
  8
CSLAYER1
  6
CONTINUOUS
 62
     7
 10
443.163249
 20
128.708385
 40
3.083385
 50
246.553229
 51
293.446771
  0
ARC
  8
CSLAYER1
  6
CONTINUOUS
 62
     7
 10
446.843857
 20
137.576647
 40
11.951647
 50
258.152618
 51
270.000000
  0
LINE
  8
CSLAYER1
  6
CONTINUOUS
 62
     7
 10
442.593857
 20
125.500000
 11
446.843857
 21
125.500000
  0
LINE
  8
CSLAYER1
  6
CONTINUOUS
 62
     7
 10
451.751334
 20
130.000000
 11
451.751334
 21
125.879594
  0
LINE
  8
CSLAYER1
  6
CONTINUOUS
 62
     7
 10
449.297595
 20
130.000000
 11
449.297595
 21
125.879594
  0
LINE
  8
CSLAYER1
  6
CONTINUOUS
 62
     7
 10
451.093857
 20
125.500000
 11
451.751334
 21
125.879594
  0
ARC
  8
CSLAYER1
  6
CONTINUOUS
 62
     7
 10
450.524465
 20
128.708385
 40
3.083385
 50
246.553229
 51
293.446771
  0
ARC
  8
CSLAYER1
  6
CONTINUOUS
 62
     7
 10
446.843857
 20
137.576647
 40
11.951647
 50
270.000000
 51
281.847382
  0
LINE
  8
CSLAYER1
  6
CONTINUOUS
 62
     7
 10
451.093857
 20
125.500000
 11
446.843857
 21
125.500000
  0
LINE
  8
CSLAYER1
  6
CONTINUOUS
 62
     7
 10
444.093857
 20
125.500000
 11
444.093857
 21
123.000000
  0
LINE
  8
CSLAYER1
  6
CONTINUOUS
 62
     7
 10
444.406357
 20
125.500000
 11
444.406357
 21
122.687500
  0
LINE
  8
CSLAYER1
  6
CONTINUOUS
 62
     7
 10
449.281357
 20
125.500000
 11
449.281357
 21
122.687500
  0
LINE
  8
CSLAYER1
  6
CONTINUOUS
 62
     7
 10
449.593857
 20
125.500000
 11
449.593857
 21
123.000000
  0
LINE
  8
CSLAYER1
  6
CONTINUOUS
 62
     7
 10
294.749978
 20
130.500000
 11
294.749978
 21
139.125000
  0
LINE
  8
CSLAYER1
  6
CONTINUOUS
 62
     7
 10
135.427976
 20
162.831250
 11
135.427976
 21
189.311250
  0
LINE
  8
CSLAYER1
  6
CONTINUOUS
 62
     7
 10
137.227976
 20
162.831250
 11
137.227976
 21
179.231250
  0
LINE
  8
CSLAYER1
  6
CONTINUOUS
 62
     7
 10
135.427976
 20
189.311250
 11
138.577976
 21
179.231250
  0
LINE
  8
CSLAYER1
  6
CONTINUOUS
 62
     7
 10
137.227976
 20
179.231250
 11
138.577976
 21
179.231250
  0
LINE
  8
CSLAYER1
  6
CONTINUOUS
 62
     7
 10
143.505471
 20
161.031250
 11
144.517971
 21
161.031250
  0
LINE
  8
CSLAYER1
  6
CONTINUOUS
 62
     7
 10
143.505471
 20
169.131252
 11
144.517971
 21
169.131252
  0
LINE
  8
CSLAYER1
  6
CONTINUOUS
 62
     7
 10
143.505471
 20
169.131252
 11
143.505471
 21
161.031250
  0
LINE
  8
CSLAYER1
  6
CONTINUOUS
 62
     7
 10
144.517971
 20
169.131252
 11
144.517971
 21
161.031250
  0
LINE
  8
CSLAYER1
  6
CONTINUOUS
 62
     7
 10
145.732972
 20
167.781251
 11
145.732972
 21
166.226064
  0
LINE
  8
CSLAYER1
  6
CONTINUOUS
 62
     7
 10
150.457973
 20
167.781251
 11
150.457973
 21
167.275001
  0
LINE
  8
CSLAYER1
  6
CONTINUOUS
 62
     7
 10
146.745472
 20
167.443751
 11
146.745472
 21
166.485037
  0
LINE
  8
CSLAYER1
  6
CONTINUOUS
 62
     7
 10
151.672973
 20
169.131252
 11
151.672973
 21
161.031250
  0
LINE
  8
CSLAYER1
  6
CONTINUOUS
 62
     7
 10
152.685474
 20
169.131252
 11
152.685474
 21
165.587501
  0
LINE
  8
CSLAYER1
  6
CONTINUOUS
 62
     7
 10
155.385474
 20
169.131252
 11
155.385474
 21
165.587501
  0
LINE
  8
CSLAYER1
  6
CONTINUOUS
 62
     7
 10
156.397974
 20
169.131252
 11
156.397974
 21
161.031250
  0
LINE
  8
CSLAYER1
  6
CONTINUOUS
 62
     7
 10
152.685474
 20
165.587501
 11
155.385474
 21
165.587501
  0
LINE
  8
CSLAYER1
  6
CONTINUOUS
 62
     7
 10
152.685474
 20
164.575001
 11
155.385474
 21
164.575001
  0
LINE
  8
CSLAYER1
  6
CONTINUOUS
 62
     7
 10
157.612975
 20
169.131252
 11
157.612975
 21
161.031250
  0
LINE
  8
CSLAYER1
  6
CONTINUOUS
 62
     7
 10
158.625475
 20
169.131252
 11
158.625475
 21
161.031250
  0
LINE
  8
CSLAYER1
  6
CONTINUOUS
 62
     7
 10
159.840475
 20
169.131252
 11
159.840475
 21
168.118751
  0
LINE
  8
CSLAYER1
  6
CONTINUOUS
 62
     7
 10
164.565476
 20
169.131252
 11
164.565476
 21
167.950001
  0
LINE
  8
CSLAYER1
  6
CONTINUOUS
 62
     7
 10
159.840475
 20
168.118751
 11
163.314741
 21
168.118751
  0
LINE
  8
CSLAYER1
  6
CONTINUOUS
 62
     7
 10
161.091211
 20
162.043750
 11
164.565476
 21
162.043750
  0
LINE
  8
CSLAYER1
  6
CONTINUOUS
 62
     7
 10
163.314741
 20
168.118751
 11
159.840475
 21
162.212500
  0
LINE
  8
CSLAYER1
  6
CONTINUOUS
 62
     7
 10
161.091211
 20
162.043750
 11
164.565476
 21
167.950001
  0
LINE
  8
CSLAYER1
  6
CONTINUOUS
 62
     7
 10
164.565476
 20
162.043750
 11
164.565476
 21
161.031250
  0
LINE
  8
CSLAYER1
  6
CONTINUOUS
 62
     7
 10
159.840475
 20
162.212500
 11
159.840475
 21
161.031250
  0
LINE
  8
CSLAYER1
  6
CONTINUOUS
 62
     7
 10
167.646999
 20
169.131252
 11
165.533955
 21
161.031250
  0
LINE
  8
CSLAYER1
  6
CONTINUOUS
 62
     7
 10
168.908956
 20
169.131252
 11
171.022000
 21
161.031250
  0
LINE
  8
CSLAYER1
  6
CONTINUOUS
 62
     7
 10
168.277977
 20
167.538860
 11
169.315289
 21
163.562500
  0
LINE
  8
CSLAYER1
  6
CONTINUOUS
 62
     7
 10
168.277977
 20
167.538860
 11
167.240666
 21
163.562500
  0
LINE
  8
CSLAYER1
  6
CONTINUOUS
 62
     7
 10
166.976536
 20
162.550000
 11
169.579419
 21
162.550000
  0
LINE
  8
CSLAYER1
  6
CONTINUOUS
 62
     7
 10
167.240666
 20
163.562500
 11
169.315289
 21
163.562500
  0
LINE
  8
CSLAYER1
  6
CONTINUOUS
 62
     7
 10
166.976536
 20
162.550000
 11
166.580340
 21
161.031250
  0
LINE
  8
CSLAYER1
  6
CONTINUOUS
 62
     7
 10
169.579419
 20
162.550000
 11
169.975615
 21
161.031250
  0
LINE
  8
CSLAYER1
  6
CONTINUOUS
 62
     7
 10
171.990478
 20
169.131252
 11
171.990478
 21
161.031250
  0
LINE
  8
CSLAYER1
  6
CONTINUOUS
 62
     7
 10
173.002979
 20
169.131252
 11
173.002979
 21
166.262501
  0
LINE
  8
CSLAYER1
  6
CONTINUOUS
 62
     7
 10
175.513135
 20
169.131252
 11
173.002979
 21
166.262501
  0
LINE
  8
CSLAYER1
  6
CONTINUOUS
 62
     7
 10
176.858514
 20
169.131252
 11
174.850674
 21
166.836578
  0
LINE
  8
CSLAYER1
  6
CONTINUOUS
 62
     7
 10
174.850674
 20
166.836578
 11
176.771309
 21
161.031250
  0
LINE
  8
CSLAYER1
  6
CONTINUOUS
 62
     7
 10
174.076804
 20
165.952154
 11
175.704835
 21
161.031250
  0
LINE
  8
CSLAYER1
  6
CONTINUOUS
 62
     7
 10
173.002979
 20
164.724926
 11
173.002979
 21
161.031250
  0
LINE
  8
CSLAYER1
  6
CONTINUOUS
 62
     7
 10
174.076804
 20
165.952154
 11
173.002979
 21
164.724926
  0
LINE
  8
CSLAYER1
  6
CONTINUOUS
 62
     7
 10
177.930480
 20
169.131252
 11
177.930480
 21
161.031250
  0
LINE
  8
CSLAYER1
  6
CONTINUOUS
 62
     7
 10
178.942980
 20
169.131252
 11
178.942980
 21
161.031250
  0
LINE
  8
CSLAYER1
  6
CONTINUOUS
 62
     7
 10
147.420472
 20
168.118751
 11
148.770473
 21
168.118751
  0
LINE
  8
CSLAYER1
  6
CONTINUOUS
 62
     7
 10
147.420472
 20
162.043750
 11
148.770473
 21
162.043750
  0
LINE
  8
CSLAYER1
  6
CONTINUOUS
 62
     7
 10
149.445473
 20
167.275001
 11
150.457973
 21
167.275001
  0
LINE
  8
CSLAYER1
  6
CONTINUOUS
 62
     7
 10
145.732972
 20
162.887500
 11
146.745472
 21
162.887500
  0
LINE
  8
CSLAYER1
  6
CONTINUOUS
 62
     7
 10
145.732972
 20
162.887500
 11
145.732972
 21
162.381250
  0
LINE
  8
CSLAYER1
  6
CONTINUOUS
 62
     7
 10
149.445473
 20
163.677465
 11
149.445473
 21
162.718750
  0
LINE
  8
CSLAYER1
  6
CONTINUOUS
 62
     7
 10
147.245769
 20
165.833037
 11
149.457378
 21
165.240438
  0
LINE
  8
CSLAYER1
  6
CONTINUOUS
 62
     7
 10
146.733566
 20
164.922064
 11
148.945175
 21
164.329465
  0
ARC
  8
CSLAYER1
  6
CONTINUOUS
 62
     7
 10
147.420472
 20
167.443751
 40
0.675000
 50
90.000000
 51
180.000000
  0
ARC
  8
CSLAYER1
  6
CONTINUOUS
 62
     7
 10
148.770473
 20
167.443751
 40
0.675000
 50
0.000000
 51
90.000000
  0
ARC
  8
CSLAYER1
  6
CONTINUOUS
 62
     7
 10
147.420472
 20
166.485037
 40
0.675000
 50
180.000000
 51
255.000000
  0
ARC
  8
CSLAYER1
  6
CONTINUOUS
 62
     7
 10
148.770473
 20
163.677465
 40
0.675000
 50
0.000000
 51
75.000000
  0
ARC
  8
CSLAYER1
  6
CONTINUOUS
 62
     7
 10
148.770473
 20
162.718750
 40
0.675000
 50
270.000000
 51
360.000000
  0
ARC
  8
CSLAYER1
  6
CONTINUOUS
 62
     7
 10
147.420472
 20
162.718750
 40
0.675000
 50
180.000000
 51
270.000000
  0
LINE
  8
CSLAYER1
  6
CONTINUOUS
 62
     7
 10
147.082972
 20
169.131252
 11
149.107973
 21
169.131252
  0
LINE
  8
CSLAYER1
  6
CONTINUOUS
 62
     7
 10
147.082972
 20
161.031250
 11
149.107973
 21
161.031250
  0
LINE
  8
CSLAYER1
  6
CONTINUOUS
 62
     7
 10
151.672973
 20
169.131252
 11
152.685474
 21
169.131252
  0
LINE
  8
CSLAYER1
  6
CONTINUOUS
 62
     7
 10
151.672973
 20
161.031250
 11
152.685474
 21
161.031250
  0
LINE
  8
CSLAYER1
  6
CONTINUOUS
 62
     7
 10
157.612975
 20
161.031250
 11
158.625475
 21
161.031250
  0
LINE
  8
CSLAYER1
  6
CONTINUOUS
 62
     7
 10
157.612975
 20
169.131252
 11
158.625475
 21
169.131252
  0
LINE
  8
CSLAYER1
  6
CONTINUOUS
 62
     7
 10
155.385474
 20
169.131252
 11
156.397974
 21
169.131252
  0
LINE
  8
CSLAYER1
  6
CONTINUOUS
 62
     7
 10
155.385474
 20
161.031250
 11
156.397974
 21
161.031250
  0
LINE
  8
CSLAYER1
  6
CONTINUOUS
 62
     7
 10
159.840475
 20
169.131252
 11
164.565476
 21
169.131252
  0
LINE
  8
CSLAYER1
  6
CONTINUOUS
 62
     7
 10
159.840475
 20
161.031250
 11
164.565476
 21
161.031250
  0
LINE
  8
CSLAYER1
  6
CONTINUOUS
 62
     7
 10
167.602977
 20
169.131252
 11
168.952978
 21
169.131252
  0
LINE
  8
CSLAYER1
  6
CONTINUOUS
 62
     7
 10
165.533955
 20
161.031250
 11
166.580340
 21
161.031250
  0
LINE
  8
CSLAYER1
  6
CONTINUOUS
 62
     7
 10
169.975615
 20
161.031250
 11
171.022000
 21
161.031250
  0
LINE
  8
CSLAYER1
  6
CONTINUOUS
 62
     7
 10
171.990478
 20
161.031250
 11
173.002979
 21
161.031250
  0
LINE
  8
CSLAYER1
  6
CONTINUOUS
 62
     7
 10
175.704835
 20
161.031250
 11
176.771309
 21
161.031250
  0
LINE
  8
CSLAYER1
  6
CONTINUOUS
 62
     7
 10
177.930480
 20
161.031250
 11
178.942980
 21
161.031250
  0
LINE
  8
CSLAYER1
  6
CONTINUOUS
 62
     7
 10
177.930480
 20
169.131252
 11
178.942980
 21
169.131252
  0
LINE
  8
CSLAYER1
  6
CONTINUOUS
 62
     7
 10
175.513135
 20
169.131252
 11
176.858514
 21
169.131252
  0
LINE
  8
CSLAYER1
  6
CONTINUOUS
 62
     7
 10
171.990478
 20
169.131252
 11
173.002979
 21
169.131252
  0
ARC
  8
CSLAYER1
  6
CONTINUOUS
 62
     7
 10
147.082972
 20
167.781251
 40
1.350000
 50
90.000000
 51
180.000000
  0
ARC
  8
CSLAYER1
  6
CONTINUOUS
 62
     7
 10
149.107973
 20
167.781251
 40
1.350000
 50
0.000000
 51
90.000000
  0
ARC
  8
CSLAYER1
  6
CONTINUOUS
 62
     7
 10
147.082972
 20
166.226064
 40
1.350000
 50
180.000000
 51
255.000000
  0
ARC
  8
CSLAYER1
  6
CONTINUOUS
 62
     7
 10
149.107973
 20
163.936438
 40
1.350000
 50
0.000000
 51
75.000000
  0
ARC
  8
CSLAYER1
  6
CONTINUOUS
 62
     7
 10
149.107973
 20
162.381250
 40
1.350000
 50
270.000000
 51
360.000000
  0
ARC
  8
CSLAYER1
  6
CONTINUOUS
 62
     7
 10
147.082972
 20
162.381250
 40
1.350000
 50
180.000000
 51
270.000000
  0
LINE
  8
CSLAYER1
  6
CONTINUOUS
 62
     7
 10
152.685474
 20
164.575001
 11
152.685474
 21
161.031250
  0
LINE
  8
CSLAYER1
  6
CONTINUOUS
 62
     7
 10
155.385474
 20
164.575001
 11
155.385474
 21
161.031250
  0
LINE
  8
CSLAYER1
  6
CONTINUOUS
 62
     7
 10
150.457973
 20
163.936438
 11
150.457973
 21
162.381250
  0
LINE
  8
CSLAYER1
  6
CONTINUOUS
 62
     7
 10
149.445473
 20
167.275001
 11
149.445473
 21
167.443751
  0
LINE
  8
CSLAYER1
  6
CONTINUOUS
 62
     7
 10
146.745472
 20
162.718750
 11
146.745472
 21
162.887500
  0
LINE
  8
CSLAYER1
  6
CONTINUOUS
 62
     7
 10
146.777309
 20
171.831250
 11
147.789809
 21
171.831250
  0
LINE
  8
CSLAYER1
  6
CONTINUOUS
 62
     7
 10
146.777309
 20
179.931249
 11
147.789809
 21
179.931249
  0
LINE
  8
CSLAYER1
  6
CONTINUOUS
 62
     7
 10
146.777309
 20
178.522554
 11
146.777309
 21
171.831250
  0
LINE
  8
CSLAYER1
  6
CONTINUOUS
 62
     7
 10
154.944811
 20
179.931249
 11
154.944811
 21
174.648641
  0
LINE
  8
CSLAYER1
  6
CONTINUOUS
 62
     7
 10
155.649159
 20
179.931249
 11
155.649159
 21
178.170380
  0
LINE
  8
CSLAYER1
  6
CONTINUOUS
 62
     7
 10
159.170898
 20
179.931249
 11
159.170898
 21
179.820332
  0
LINE
  8
CSLAYER1
  6
CONTINUOUS
 62
     7
 10
154.944811
 20
174.648641
 11
155.649159
 21
174.648641
  0
LINE
  8
CSLAYER1
  6
CONTINUOUS
 62
     7
 10
150.753673
 20
179.931249
 11
151.980948
 21
179.931249
  0
LINE
  8
CSLAYER1
  6
CONTINUOUS
 62
     7
 10
154.944811
 20
179.931249
 11
155.649159
 21
179.931249
  0
LINE
  8
CSLAYER1
  6
CONTINUOUS
 62
     7
 10
154.944811
 20
172.535597
 11
159.170898
 21
172.535597
  0
LINE
  8
CSLAYER1
  6
CONTINUOUS
 62
     7
 10
154.944811
 20
173.239945
 11
159.170898
 21
173.239945
  0
LINE
  8
CSLAYER1
  6
CONTINUOUS
 62
     7
 10
154.944811
 20
173.239945
 11
154.944811
 21
172.535597
  0
LINE
  8
CSLAYER1
  6
CONTINUOUS
 62
     7
 10
159.170898
 20
173.239945
 11
159.170898
 21
172.535597
  0
LINE
  8
CSLAYER1
  6
CONTINUOUS
 62
     7
 10
158.114376
 20
179.931249
 11
155.649159
 21
178.170380
  0
LINE
  8
CSLAYER1
  6
CONTINUOUS
 62
     7
 10
159.170898
 20
179.820332
 11
156.860965
 21
178.170380
  0
LINE
  8
CSLAYER1
  6
CONTINUOUS
 62
     7
 10
156.860965
 20
178.170380
 11
159.170898
 21
174.648641
  0
LINE
  8
CSLAYER1
  6
CONTINUOUS
 62
     7
 10
156.287361
 20
177.760662
 11
158.328557
 21
174.648641
  0
LINE
  8
CSLAYER1
  6
CONTINUOUS
 62
     7
 10
158.114376
 20
179.931249
 11
159.170898
 21
179.931249
  0
LINE
  8
CSLAYER1
  6
CONTINUOUS
 62
     7
 10
158.328557
 20
174.648641
 11
159.170898
 21
174.648641
  0
LINE
  8
CSLAYER1
  6
CONTINUOUS
 62
     7
 10
155.649159
 20
177.304804
 11
155.649159
 21
174.648641
  0
LINE
  8
CSLAYER1
  6
CONTINUOUS
 62
     7
 10
156.287361
 20
177.760662
 11
155.649159
 21
177.304804
  0
LINE
  8
CSLAYER1
  6
CONTINUOUS
 62
     7
 10
146.425136
 20
178.522554
 11
146.777309
 21
178.522554
  0
LINE
  8
CSLAYER1
  6
CONTINUOUS
 62
     7
 10
146.777309
 20
179.931249
 11
146.425136
 21
178.522554
  0
LINE
  8
CSLAYER1
  6
CONTINUOUS
 62
     7
 10
149.004809
 20
178.170380
 11
149.004809
 21
173.592119
  0
LINE
  8
CSLAYER1
  6
CONTINUOUS
 62
     7
 10
150.017309
 20
178.182386
 11
150.017309
 21
173.592119
  0
LINE
  8
CSLAYER1
  6
CONTINUOUS
 62
     7
 10
150.753673
 20
178.918749
 11
151.980948
 21
178.918749
  0
ARC
  8
CSLAYER1
  6
CONTINUOUS
 62
     7
 10
150.753673
 20
178.182386
 40
0.736364
 50
90.000000
 51
180.000000
  0
ARC
  8
CSLAYER1
  6
CONTINUOUS
 62
     7
 10
150.753673
 20
178.182386
 40
1.748863
 50
90.000000
 51
180.000000
  0
ARC
  8
CSLAYER1
  6
CONTINUOUS
 62
     7
 10
150.753673
 20
173.580113
 40
0.736364
 50
180.000000
 51
270.000000
  0
ARC
  8
CSLAYER1
  6
CONTINUOUS
 62
     7
 10
150.753673
 20
173.580113
 40
1.748863
 50
180.000000
 51
270.000000
  0
LINE
  8
CSLAYER1
  6
CONTINUOUS
 62
     7
 10
153.729811
 20
178.170380
 11
153.729811
 21
173.592119
  0
LINE
  8
CSLAYER1
  6
CONTINUOUS
 62
     7
 10
152.717311
 20
178.182386
 11
152.717311
 21
173.592119
  0
ARC
  8
CSLAYER1
  6
CONTINUOUS
 62
     7
 10
151.980948
 20
178.182386
 40
0.736364
 50
0.000000
 51
90.000000
  0
ARC
  8
CSLAYER1
  6
CONTINUOUS
 62
     7
 10
151.980948
 20
178.182386
 40
1.748863
 50
0.000000
 51
90.000000
  0
ARC
  8
CSLAYER1
  6
CONTINUOUS
 62
     7
 10
151.980948
 20
173.580113
 40
0.736364
 50
270.000000
 51
360.000000
  0
ARC
  8
CSLAYER1
  6
CONTINUOUS
 62
     7
 10
151.980948
 20
173.580113
 40
1.748863
 50
270.000000
 51
360.000000
  0
LINE
  8
CSLAYER1
  6
CONTINUOUS
 62
     7
 10
150.753673
 20
172.843750
 11
151.980948
 21
172.843750
  0
LINE
  8
CSLAYER1
  6
CONTINUOUS
 62
     7
 10
150.753673
 20
171.831250
 11
151.980948
 21
171.831250
  0
LINE
  8
CSLAYER1
  6
CONTINUOUS
 62
     7
 10
147.789809
 20
179.931249
 11
147.789809
 21
171.831250
  0
LINE
  8
CSLAYER1
  6
CONTINUOUS
 62
     7
 10
160.896997
 20
190.731252
 11
158.783953
 21
182.631250
  0
LINE
  8
CSLAYER1
  6
CONTINUOUS
 62
     7
 10
162.158954
 20
190.731252
 11
164.271998
 21
182.631250
  0
LINE
  8
CSLAYER1
  6
CONTINUOUS
 62
     7
 10
161.527976
 20
189.138860
 11
162.565287
 21
185.162500
  0
LINE
  8
CSLAYER1
  6
CONTINUOUS
 62
     7
 10
161.527976
 20
189.138860
 11
160.490665
 21
185.162500
  0
LINE
  8
CSLAYER1
  6
CONTINUOUS
 62
     7
 10
160.226534
 20
184.150000
 11
162.829417
 21
184.150000
  0
LINE
  8
CSLAYER1
  6
CONTINUOUS
 62
     7
 10
160.490665
 20
185.162500
 11
162.565287
 21
185.162500
  0
LINE
  8
CSLAYER1
  6
CONTINUOUS
 62
     7
 10
160.226534
 20
184.150000
 11
159.830338
 21
182.631250
  0
LINE
  8
CSLAYER1
  6
CONTINUOUS
 62
     7
 10
162.829417
 20
184.150000
 11
163.225613
 21
182.631250
  0
LINE
  8
CSLAYER1
  6
CONTINUOUS
 62
     7
 10
160.852976
 20
190.731252
 11
162.202976
 21
190.731252
  0
LINE
  8
CSLAYER1
  6
CONTINUOUS
 62
     7
 10
158.783953
 20
182.631250
 11
159.830338
 21
182.631250
  0
LINE
  8
CSLAYER1
  6
CONTINUOUS
 62
     7
 10
163.225613
 20
182.631250
 11
164.271998
 21
182.631250
  0
LINE
  8
CSLAYER1
  6
CONTINUOUS
 62
     7
 10
152.843952
 20
190.731252
 11
152.843952
 21
182.631250
  0
LINE
  8
CSLAYER1
  6
CONTINUOUS
 62
     7
 10
157.568953
 20
189.381251
 11
157.568953
 21
188.875001
  0
LINE
  8
CSLAYER1
  6
CONTINUOUS
 62
     7
 10
153.856452
 20
187.187500
 11
153.856452
 21
189.718751
  0
LINE
  8
CSLAYER1
  6
CONTINUOUS
 62
     7
 10
153.856452
 20
189.718751
 11
155.881453
 21
189.718751
  0
ARC
  8
CSLAYER1
  6
CONTINUOUS
 62
     7
 10
155.881453
 20
189.043751
 40
0.675000
 50
0.000000
 51
90.000000
  0
LINE
  8
CSLAYER1
  6
CONTINUOUS
 62
     7
 10
152.843952
 20
190.731252
 11
156.218953
 21
190.731252
  0
ARC
  8
CSLAYER1
  6
CONTINUOUS
 62
     7
 10
156.218953
 20
189.381251
 40
1.350000
 50
0.000000
 51
90.000000
  0
LINE
  8
CSLAYER1
  6
CONTINUOUS
 62
     7
 10
156.556453
 20
188.875001
 11
156.556453
 21
189.043751
  0
LINE
  8
CSLAYER1
  6
CONTINUOUS
 62
     7
 10
152.843952
 20
182.631250
 11
153.856452
 21
182.631250
  0
LINE
  8
CSLAYER1
  6
CONTINUOUS
 62
     7
 10
156.556453
 20
188.875001
 11
156.556453
 21
187.862500
  0
LINE
  8
CSLAYER1
  6
CONTINUOUS
 62
     7
 10
157.568953
 20
188.875001
 11
157.568953
 21
187.525000
  0
ARC
  8
CSLAYER1
  6
CONTINUOUS
 62
     7
 10
155.881453
 20
187.862500
 40
0.675000
 50
270.000000
 51
360.000000
  0
ARC
  8
CSLAYER1
  6
CONTINUOUS
 62
     7
 10
156.218953
 20
187.525000
 40
1.350000
 50
270.000000
 51
360.000000
  0
LINE
  8
CSLAYER1
  6
CONTINUOUS
 62
     7
 10
155.881453
 20
187.187500
 11
153.856452
 21
187.187500
  0
LINE
  8
CSLAYER1
  6
CONTINUOUS
 62
     7
 10
156.218953
 20
186.174999
 11
153.856452
 21
186.174999
  0
LINE
  8
CSLAYER1
  6
CONTINUOUS
 62
     7
 10
153.856452
 20
186.174999
 11
153.856452
 21
182.631250
  0
LINE
  8
CSLAYER1
  6
CONTINUOUS
 62
     7
 10
165.486998
 20
190.731252
 11
165.486998
 21
189.718751
  0
LINE
  8
CSLAYER1
  6
CONTINUOUS
 62
     7
 10
170.211999
 20
190.731252
 11
170.211999
 21
189.718751
  0
LINE
  8
CSLAYER1
  6
CONTINUOUS
 62
     7
 10
165.486998
 20
190.731252
 11
170.211999
 21
190.731252
  0
LINE
  8
CSLAYER1
  6
CONTINUOUS
 62
     7
 10
167.343249
 20
189.718751
 11
167.343249
 21
182.631250
  0
LINE
  8
CSLAYER1
  6
CONTINUOUS
 62
     7
 10
168.355749
 20
189.718751
 11
168.355749
 21
182.631250
  0
LINE
  8
CSLAYER1
  6
CONTINUOUS
 62
     7
 10
167.343249
 20
182.631250
 11
168.355749
 21
182.631250
  0
LINE
  8
CSLAYER1
  6
CONTINUOUS
 62
     7
 10
167.343249
 20
190.731252
 11
168.355749
 21
190.731252
  0
LINE
  8
CSLAYER1
  6
CONTINUOUS
 62
     7
 10
165.486998
 20
189.718751
 11
167.343249
 21
189.718751
  0
LINE
  8
CSLAYER1
  6
CONTINUOUS
 62
     7
 10
168.355749
 20
189.718751
 11
170.211999
 21
189.718751
  0
LINE
  8
CSLAYER1
  6
CONTINUOUS
 62
     7
 10
167.343249
 20
182.631250
 11
168.355749
 21
182.631250
  0
LINE
  8
CSLAYER1
  6
CONTINUOUS
 62
     7
 10
173.654437
 20
179.931249
 11
174.881712
 21
179.931249
  0
LINE
  8
CSLAYER1
  6
CONTINUOUS
 62
     7
 10
171.905574
 20
178.170380
 11
171.905574
 21
173.592119
  0
LINE
  8
CSLAYER1
  6
CONTINUOUS
 62
     7
 10
172.918074
 20
178.182386
 11
172.918074
 21
173.592119
  0
LINE
  8
CSLAYER1
  6
CONTINUOUS
 62
     7
 10
173.654437
 20
178.918749
 11
174.881712
 21
178.918749
  0
ARC
  8
CSLAYER1
  6
CONTINUOUS
 62
     7
 10
173.654437
 20
178.182386
 40
0.736364
 50
90.000000
 51
180.000000
  0
ARC
  8
CSLAYER1
  6
CONTINUOUS
 62
     7
 10
173.654437
 20
178.182386
 40
1.748863
 50
90.000000
 51
180.000000
  0
ARC
  8
CSLAYER1
  6
CONTINUOUS
 62
     7
 10
173.654437
 20
173.580113
 40
0.736364
 50
180.000000
 51
270.000000
  0
ARC
  8
CSLAYER1
  6
CONTINUOUS
 62
     7
 10
173.654437
 20
173.580113
 40
1.748863
 50
180.000000
 51
270.000000
  0
LINE
  8
CSLAYER1
  6
CONTINUOUS
 62
     7
 10
176.630576
 20
178.170380
 11
176.630576
 21
173.592119
  0
LINE
  8
CSLAYER1
  6
CONTINUOUS
 62
     7
 10
175.618076
 20
178.182386
 11
175.618076
 21
173.592119
  0
ARC
  8
CSLAYER1
  6
CONTINUOUS
 62
     7
 10
174.881712
 20
178.182386
 40
0.736364
 50
0.000000
 51
90.000000
  0
ARC
  8
CSLAYER1
  6
CONTINUOUS
 62
     7
 10
174.881712
 20
178.182386
 40
1.748863
 50
0.000000
 51
90.000000
  0
ARC
  8
CSLAYER1
  6
CONTINUOUS
 62
     7
 10
174.881712
 20
173.580113
 40
0.736364
 50
270.000000
 51
360.000000
  0
ARC
  8
CSLAYER1
  6
CONTINUOUS
 62
     7
 10
174.881712
 20
173.580113
 40
1.748863
 50
270.000000
 51
360.000000
  0
LINE
  8
CSLAYER1
  6
CONTINUOUS
 62
     7
 10
173.654437
 20
172.843750
 11
174.881712
 21
172.843750
  0
LINE
  8
CSLAYER1
  6
CONTINUOUS
 62
     7
 10
173.654437
 20
171.831250
 11
174.881712
 21
171.831250
  0
LINE
  8
CSLAYER1
  6
CONTINUOUS
 62
     7
 10
161.832230
 20
179.931249
 11
163.059505
 21
179.931249
  0
LINE
  8
CSLAYER1
  6
CONTINUOUS
 62
     7
 10
161.832230
 20
178.918749
 11
163.059505
 21
178.918749
  0
ARC
  8
CSLAYER1
  6
CONTINUOUS
 62
     7
 10
161.832230
 20
178.182386
 40
0.736364
 50
90.000000
 51
180.000000
  0
ARC
  8
CSLAYER1
  6
CONTINUOUS
 62
     7
 10
161.832230
 20
178.182386
 40
1.748863
 50
90.000000
 51
180.000000
  0
ARC
  8
CSLAYER1
  6
CONTINUOUS
 62
     7
 10
161.832230
 20
173.580113
 40
0.736364
 50
180.000000
 51
270.000000
  0
ARC
  8
CSLAYER1
  6
CONTINUOUS
 62
     7
 10
161.832230
 20
173.580113
 40
1.748863
 50
180.000000
 51
270.000000
  0
LINE
  8
CSLAYER1
  6
CONTINUOUS
 62
     7
 10
164.808368
 20
178.170380
 11
164.808368
 21
176.631249
  0
LINE
  8
CSLAYER1
  6
CONTINUOUS
 62
     7
 10
163.795869
 20
178.182386
 11
163.795869
 21
177.137499
  0
ARC
  8
CSLAYER1
  6
CONTINUOUS
 62
     7
 10
163.059505
 20
178.182386
 40
0.736364
 50
0.000000
 51
90.000000
  0
ARC
  8
CSLAYER1
  6
CONTINUOUS
 62
     7
 10
163.059505
 20
178.182386
 40
1.748863
 50
0.000000
 51
90.000000
  0
ARC
  8
CSLAYER1
  6
CONTINUOUS
 62
     7
 10
163.059505
 20
173.580113
 40
0.736364
 50
270.000000
 51
360.000000
  0
ARC
  8
CSLAYER1
  6
CONTINUOUS
 62
     7
 10
163.059505
 20
173.580113
 40
1.748863
 50
270.000000
 51
360.000000
  0
LINE
  8
CSLAYER1
  6
CONTINUOUS
 62
     7
 10
161.832230
 20
172.843750
 11
163.059505
 21
172.843750
  0
LINE
  8
CSLAYER1
  6
CONTINUOUS
 62
     7
 10
161.832230
 20
171.831250
 11
163.059505
 21
171.831250
  0
LINE
  8
CSLAYER1
  6
CONTINUOUS
 62
     7
 10
160.083366
 20
178.170380
 11
161.095866
 21
178.170380
  0
LINE
  8
CSLAYER1
  6
CONTINUOUS
 62
     7
 10
160.083366
 20
173.580113
 11
161.095866
 21
173.580113
  0
LINE
  8
CSLAYER1
  6
CONTINUOUS
 62
     7
 10
161.832230
 20
176.387499
 11
163.045869
 21
176.387499
  0
LINE
  8
CSLAYER1
  6
CONTINUOUS
 62
     7
 10
161.832230
 20
175.374999
 11
163.045869
 21
175.374999
  0
LINE
  8
CSLAYER1
  6
CONTINUOUS
 62
     7
 10
161.832230
 20
176.387499
 11
161.832230
 21
175.374999
  0
LINE
  8
CSLAYER1
  6
CONTINUOUS
 62
     7
 10
164.808368
 20
173.580113
 11
164.808368
 21
175.131249
  0
ARC
  8
CSLAYER1
  6
CONTINUOUS
 62
     7
 10
163.045869
 20
177.137499
 40
0.750000
 50
270.000000
 51
360.000000
  0
LINE
  8
CSLAYER1
  6
CONTINUOUS
 62
     7
 10
163.795869
 20
173.580113
 11
163.795869
 21
174.624999
  0
ARC
  8
CSLAYER1
  6
CONTINUOUS
 62
     7
 10
163.045869
 20
174.624999
 40
0.750000
 50
0.000000
 51
90.000000
  0
ARC
  8
CSLAYER1
  6
CONTINUOUS
 62
     7
 10
164.058368
 20
175.131249
 40
0.750000
 50
0.000000
 51
58.997281
  0
ARC
  8
CSLAYER1
  6
CONTINUOUS
 62
     7
 10
164.058368
 20
176.631249
 40
0.750000
 50
301.002719
 51
360.000000
  0
ARC
  8
CSLAYER1
  6
CONTINUOUS
 62
     7
 10
164.509062
 20
175.881249
 40
0.125000
 50
121.002719
 51
238.997281
  0
LINE
  8
CSLAYER1
  6
CONTINUOUS
 62
     7
 10
135.427976
 20
162.831250
 11
137.227976
 21
162.831250
  0
LINE
  8
CSLAYER1
  6
CONTINUOUS
 62
     7
 10
165.965572
 20
179.931249
 11
165.965572
 21
175.352988
  0
LINE
  8
CSLAYER1
  6
CONTINUOUS
 62
     7
 10
165.965572
 20
179.931249
 11
170.690574
 21
179.931249
  0
LINE
  8
CSLAYER1
  6
CONTINUOUS
 62
     7
 10
168.078615
 20
171.831249
 11
168.577531
 21
171.831249
  0
LINE
  8
CSLAYER1
  6
CONTINUOUS
 62
     7
 10
168.078615
 20
177.466032
 11
168.577531
 21
177.466032
  0
LINE
  8
CSLAYER1
  6
CONTINUOUS
 62
     7
 10
165.965572
 20
175.352988
 11
166.978072
 21
175.352988
  0
LINE
  8
CSLAYER1
  6
CONTINUOUS
 62
     7
 10
165.965572
 20
173.944293
 11
166.978072
 21
173.944293
  0
LINE
  8
CSLAYER1
  6
CONTINUOUS
 62
     7
 10
170.690574
 20
175.352988
 11
170.690574
 21
173.944293
  0
ARC
  8
CSLAYER1
  6
CONTINUOUS
 62
     7
 10
168.078615
 20
173.944293
 40
2.113043
 50
180.000000
 51
270.000000
  0
ARC
  8
CSLAYER1
  6
CONTINUOUS
 62
     7
 10
168.577531
 20
173.944293
 40
2.113043
 50
270.000000
 51
360.000000
  0
ARC
  8
CSLAYER1
  6
CONTINUOUS
 62
     7
 10
168.577531
 20
175.352988
 40
2.113043
 50
0.000000
 51
90.000000
  0
ARC
  8
CSLAYER1
  6
CONTINUOUS
 62
     7
 10
168.078615
 20
175.352988
 40
2.113043
 50
90.000000
 51
121.388166
  0
LINE
  8
CSLAYER1
  6
CONTINUOUS
 62
     7
 10
166.978072
 20
178.918749
 11
170.690574
 21
178.918749
  0
LINE
  8
CSLAYER1
  6
CONTINUOUS
 62
     7
 10
170.690574
 20
179.931249
 11
170.690574
 21
178.918749
  0
LINE
  8
CSLAYER1
  6
CONTINUOUS
 62
     7
 10
166.978072
 20
178.918749
 11
166.978072
 21
177.156805
  0
ARC
  8
CSLAYER1
  6
CONTINUOUS
 62
     7
 10
168.078615
 20
173.944293
 40
1.100543
 50
180.000000
 51
270.000000
  0
LINE
  8
CSLAYER1
  6
CONTINUOUS
 62
     7
 10
168.078615
 20
172.843749
 11
168.577531
 21
172.843749
  0
ARC
  8
CSLAYER1
  6
CONTINUOUS
 62
     7
 10
168.577531
 20
173.944293
 40
1.102016
 50
270.000000
 51
360.000000
  0
LINE
  8
CSLAYER1
  6
CONTINUOUS
 62
     7
 10
169.678074
 20
175.352988
 11
169.678074
 21
173.944293
  0
ARC
  8
CSLAYER1
  6
CONTINUOUS
 62
     7
 10
168.577531
 20
175.352988
 40
1.100543
 50
0.000000
 51
90.000000
  0
LINE
  8
CSLAYER1
  6
CONTINUOUS
 62
     7
 10
168.078615
 20
176.453532
 11
168.577531
 21
176.453532
  0
ARC
  8
CSLAYER1
  6
CONTINUOUS
 62
     7
 10
168.078615
 20
175.352988
 40
1.100543
 50
90.000000
 51
180.000000
  0
INSERT
  8
CSLAYER1
  2
BLKF0002
 10
0.0
 20
0.0
 30
0.0
  0
INSERT
  8
CSLAYER1
  2
BLKF0003
 10
0.0
 20
0.0
 30
0.0
  0
INSERT
  8
CSLAYER1
  2
BLKF0004
 10
0.0
 20
0.0
 30
0.0
  0
INSERT
  8
CSLAYER1
  2
BLKF0005
 10
0.0
 20
0.0
 30
0.0
  0
ENDSEC
  0
EOF
