  0
SECTION
  2
HEADER
  9
$ACADVER
  1
AC1006
  9
$INSBASE
 10
0.655119
 20
4.943719
 30
0.0
  9
$EXTMIN
 10
0.655119
 20
4.943719
  9
$EXTMAX
 10
308.465790
 20
354.555555
  9
$LIMMIN
 10
0.655119
 20
4.943719
  9
$LIMMAX
 10
308.465790
 20
354.555555
  9
$VIEWCTR
 10
154.560454
 20
179.749637
  9
$VIEWSIZE
 40
349.611836
  9
$SNAPMODE
 70
     0
  9
$SNAPUNIT
 10
1.0
 20
1.0
  9
$SNAPBASE
 10
0.0
 20
0.0
  9
$SNAPANG
 50
0.0
  9
$SNAPSTYLE
 70
     0
  9
$SNAPISOPAIR
 70
     0
  9
$GRIDMODE
 70
     0
  9
$GRIDUNIT
 10
0.0
 20
0.0
  9
$ORTHOMODE
 70
     0
  9
$REGENMODE
 70
     1
  9
$FILLMODE
 70
     1
  9
$QTEXTMODE
 70
     0
  9
$DRAGMODE
 70
     2
  9
$LTSCALE
 40
15.000000
  9
$OSMODE
 70
     0
  9
$ATTMODE
 70
     1
  9
$TEXTSIZE
 40
0.2
  9
$TRACEWID
 40
0.05
  9
$TEXTSTYLE
  7
STANDARD
  9
$CLAYER
  8
CSLAYER1
  9
$CELTYPE
  6
BYLAYER
  9
$CECOLOR
 62
   256
  9
$DIMSCALE
 40
1.0
  9
$DIMASZ
 40
0.18
  9
$DIMEXO
 40
0.0625
  9
$DIMDLI
 40
0.38
  9
$DIMRND
 40
0.0
  9
$DIMDLE
 40
0.0
  9
$DIMEXE
 40
0.18
  9
$DIMTP
 40
0.0
  9
$DIMTM
 40
0.0
  9
$DIMTXT
 40
0.18
  9
$DIMCEN
 40
0.09
  9
$DIMTSZ
 40
0.0
  9
$DIMTOL
 70
     0
  9
$DIMLIM
 70
     0
  9
$DIMTIH
 70
     1
  9
$DIMTOH
 70
     1
  9
$DIMSE1
 70
     0
  9
$DIMSE2
 70
     0
  9
$DIMTAD
 70
     0
  9
$DIMZIN
 70
     0
  9
$DIMBLK
  1

  9
$LUNITS
 70
     2
  9
$LUPREC
 70
     4
  9
$AXISMODE
 70
     0
  9
$AXISUNIT
 10
0.0
 20
0.0
  9
$SKETCHINC
 40
0.1
  9
$FILLETRAD
 40
0.0
  9
$AUNITS
 70
     0
  9
$AUPREC
 70
     0
  9
$MENU
  1
ACAD
  9
$ELEVATION
 40
0.0
  9
$THICKNESS
 40
0.0
  9
$VIEWDIR
 10
0.0
 20
0.0
 30
1.0
  9
$LIMCHECK
 70
     0
  9
$BLIPMODE
 70
     1
  9
$CHAMFERA
 40
0.0
  9
$CHAMFERB
 40
0.0
  9
$FASTZOOM
 70
     1
  9
$SKPOLY
 70
     0
  9
$TDCREATE
 40
2456637.000000
  9
$TDUPDATE
 40
2456637.000000
  9
$TDINDWG
 40
0.0
  9
$TDUSRTIMER
 40
0.0
  9
$USRTIMER
 70
     1
  9
$ANGBASE
 50
0.0
  9
$ANGDIR
 70
     0
  9
$PDMODE
 70
     0
  9
$PDSIZE
 40
0.0
  9
$PLINEWID
 40
0.0
  9
$COORDS
 70
     0
  9
$USERI1
 70
     0
  9
$USERI2
 70
     0
  9
$USERI3
 70
     0
  9
$USERI4
 70
     0
  9
$USERI5
 70
     0
  9
$USERR1
 40
0.0
  9
$USERR2
 40
0.0
  9
$USERR3
 40
0.0
  9
$USERR4
 40
0.0
  9
$USERR5
 40
0.0
  0
ENDSEC
  0
SECTION
  2
TABLES
  0
TABLE
  2
LTYPE
 70
     9
  0
LTYPE
  2
CONTINUOUS
 70
    64
  3
Solid line
 72
    65
 73
     0
 40
0.0
  0
LTYPE
  2
DASHED
 70
    64
  3
__ __ __ __ __ __ __ __ __ __ __ __ __ __ __
 72
    65
 73
     2
 40
0.75
 49
0.5
 49
-0.25
  0
LTYPE
  2
HIDDEN
 70
    64
  3
_ _ _ _ _ _ _ _ _ _ _ _ _ _ _ _ _ _ _ _ _ _ _
 72
    65
 73
     2
 40
0.375
 49
0.25
 49
-0.125
  0
LTYPE
  2
DOT
 70
    64
  3
...............................................
 72
    65
 73
     2
 40
0.25
 49
0.0
 49
-0.25
  0
LTYPE
  2
DASHDOT
 70
    64
  3
__ . __ . __ . __ . __ . __ . __ . __ . __ . __
 72
    65
 73
     4
 40
1.0
 49
0.5
 49
-0.25
 49
0.0
 49
-0.25
  0
LTYPE
  2
DIVIDE
 70
    64
  3
__ . . __ . . __ . . __ . . __ . . __ . . __
 72
    65
 73
     6
 40
1.25
 49
0.5
 49
-0.25
 49
0.0
 49
-0.25
 49
0.0
 49
-0.25
  0
LTYPE
  2
CENTER
 70
    64
  3
____ _ ____ _ ____ _ ____ _ ____ _ ____ _ ____ 
 72
    65
 73
     4
 40
2.0
 49
1.25
 49
-0.25
 49
0.25
 49
-0.25
  0
LTYPE
  2
PHANTOM
 70
    64
  3
______  __  __  ______  __  __  ______  __  __ 
 72
    65
 73
     6
 40
2.5
 49
1.25
 49
-0.25
 49
0.25
 49
-0.25
 49
0.25
 49
-0.25
  0
LTYPE
  2
BORDER
 70
    64
  3
__ __ . __ __ . __ __ . __ __ . __ __ . __ __ .
 72
    65
 73
     6
 40
1.75
 49
0.5
 49
-0.25
 49
0.5
 49
-0.25
 49
0.0
 49
-0.25
  0
ENDTAB
  0
TABLE
  2
LAYER
 70
    16
  0
LAYER
  2
CSLAYER1
 70
    64
 62
     7
  6
CONTINUOUS
  0
LAYER
  2
CSLAYER2
 70
    64
 62
     7
  6
CONTINUOUS
  0
LAYER
  2
CSLAYER3
 70
    64
 62
     7
  6
CONTINUOUS
  0
LAYER
  2
CSLAYER4
 70
    64
 62
     7
  6
CONTINUOUS
  0
LAYER
  2
CSLAYER5
 70
    64
 62
     7
  6
CONTINUOUS
  0
LAYER
  2
CSLAYER6
 70
    64
 62
     7
  6
CONTINUOUS
  0
LAYER
  2
CSLAYER7
 70
    64
 62
     7
  6
CONTINUOUS
  0
LAYER
  2
CSLAYER8
 70
    64
 62
     7
  6
CONTINUOUS
  0
LAYER
  2
CSLAYER9
 70
    64
 62
     7
  6
CONTINUOUS
  0
LAYER
  2
CSLAYER10
 70
    64
 62
     7
  6
CONTINUOUS
  0
LAYER
  2
CSLAYER11
 70
    64
 62
     7
  6
CONTINUOUS
  0
LAYER
  2
CSLAYER12
 70
    64
 62
     7
  6
CONTINUOUS
  0
LAYER
  2
CSLAYER13
 70
    64
 62
     7
  6
CONTINUOUS
  0
LAYER
  2
CSLAYER14
 70
    64
 62
     7
  6
CONTINUOUS
  0
LAYER
  2
CSLAYER15
 70
    64
 62
     7
  6
CONTINUOUS
  0
LAYER
  2
CSLAYER16
 70
    64
 62
     7
  6
CONTINUOUS
  0
ENDTAB
  0
TABLE
  2
STYLE
 70
     1
  0
STYLE
  2
EASYDRAW_FONT
 70
     0
 40
1.0
 41
1.0
 50
0.0
 71
     0
 42
1.0
  3
monotxt
  4
bigfont
  0
ENDTAB
  0
TABLE
  2
VIEW
 70
     0
  0
ENDTAB
  0
ENDSEC
  0
SECTION
  2
BLOCKS
  0
BLOCK
  8
CSLAYER1
  2
BLKF0000
 70
   64
 10
0.0
 20
0.0
 30
0.0
  0
LINE
  8
CSLAYER1
  6
CONTINUOUS
 62
     7
 10
40.199999
 20
24.913578
 11
23.999999
 21
24.913578
  0
LINE
  8
CSLAYER1
  6
CONTINUOUS
 62
     7
 10
40.199999
 20
174.913578
 11
23.999999
 21
174.913578
  0
LINE
  8
CSLAYER1
  6
CONTINUOUS
 62
     7
 10
24.999999
 20
24.913578
 11
24.999999
 21
174.913578
  0
LINE
  8
CSLAYER1
  6
CONTINUOUS
 62
     7
 10
24.999999
 20
24.913578
 11
24.223542
 21
27.811356
  0
LINE
  8
CSLAYER1
  6
CONTINUOUS
 62
     7
 10
24.999999
 20
24.913578
 11
25.776456
 21
27.811356
  0
LINE
  8
CSLAYER1
  6
CONTINUOUS
 62
     7
 10
24.999999
 20
174.913578
 11
24.223542
 21
172.015801
  0
LINE
  8
CSLAYER1
  6
CONTINUOUS
 62
     7
 10
24.999999
 20
174.913578
 11
25.776456
 21
172.015801
  0
TEXT
  8
CSLAYER1
 62
     7
 10
24.000000
 20
95.413589
 40
4.000000
 41
0.843750
  1
150
 50
90.000000
 51
0.000000
  7
EASYDRAW_FONT
 72
     5
 11
24.000000
 21
104.413589
  0
ENDBLK
  8
0
  0
BLOCK
  8
CSLAYER4
  2
BLKF0001
 70
   64
 10
0.0
 20
0.0
 30
0.0
  0
LINE
  8
CSLAYER4
  6
CONTINUOUS
 62
     7
 10
114.575215
 20
119.945111
 11
114.440442
 21
119.036899
  0
LINE
  8
CSLAYER4
  6
CONTINUOUS
 62
     7
 10
114.440442
 20
119.036899
 11
114.190942
 21
118.137612
  0
LINE
  8
CSLAYER4
  6
CONTINUOUS
 62
     7
 10
114.190942
 20
118.137612
 11
113.826295
 21
117.273870
  0
LINE
  8
CSLAYER4
  6
CONTINUOUS
 62
     7
 10
113.826295
 20
117.273870
 11
113.356458
 21
116.467891
  0
LINE
  8
CSLAYER4
  6
CONTINUOUS
 62
     7
 10
113.356458
 20
116.467891
 11
112.801267
 21
115.737691
  0
LINE
  8
CSLAYER4
  6
CONTINUOUS
 62
     7
 10
112.801267
 20
115.737691
 11
112.177983
 21
115.098176
  0
LINE
  8
CSLAYER4
  6
CONTINUOUS
 62
     7
 10
112.177983
 20
115.098176
 11
111.467763
 21
114.529863
  0
LINE
  8
CSLAYER4
  6
CONTINUOUS
 62
     7
 10
111.467763
 20
114.529863
 11
110.677148
 21
114.040389
  0
LINE
  8
CSLAYER4
  6
CONTINUOUS
 62
     7
 10
110.677148
 20
114.040389
 11
109.824334
 21
113.649058
  0
LINE
  8
CSLAYER4
  6
CONTINUOUS
 62
     7
 10
109.824334
 20
113.649058
 11
108.929750
 21
113.369746
  0
LINE
  8
CSLAYER4
  6
CONTINUOUS
 62
     7
 10
108.929750
 20
113.369746
 11
108.019296
 21
113.203130
  0
LINE
  8
CSLAYER4
  6
CONTINUOUS
 62
     7
 10
108.019296
 20
113.203130
 11
107.119714
 21
113.147884
  0
LINE
  8
CSLAYER4
  6
CONTINUOUS
 62
     7
 10
107.119714
 20
113.147884
 11
106.220113
 21
113.203130
  0
LINE
  8
CSLAYER4
  6
CONTINUOUS
 62
     7
 10
106.220113
 20
113.203130
 11
105.309659
 21
113.369746
  0
LINE
  8
CSLAYER4
  6
CONTINUOUS
 62
     7
 10
105.309659
 20
113.369746
 11
104.415094
 21
113.649058
  0
LINE
  8
CSLAYER4
  6
CONTINUOUS
 62
     7
 10
104.415094
 20
113.649058
 11
103.562280
 21
114.040389
  0
LINE
  8
CSLAYER4
  6
CONTINUOUS
 62
     7
 10
103.562280
 20
114.040389
 11
102.771665
 21
114.529863
  0
LINE
  8
CSLAYER4
  6
CONTINUOUS
 62
     7
 10
102.771665
 20
114.529863
 11
102.061444
 21
115.098176
  0
LINE
  8
CSLAYER4
  6
CONTINUOUS
 62
     7
 10
102.061444
 20
115.098176
 11
101.438161
 21
115.737691
  0
LINE
  8
CSLAYER4
  6
CONTINUOUS
 62
     7
 10
101.438161
 20
115.737691
 11
100.882970
 21
116.467891
  0
LINE
  8
CSLAYER4
  6
CONTINUOUS
 62
     7
 10
100.882970
 20
116.467891
 11
100.413133
 21
117.273870
  0
LINE
  8
CSLAYER4
  6
CONTINUOUS
 62
     7
 10
100.413133
 20
117.273870
 11
100.048486
 21
118.137612
  0
LINE
  8
CSLAYER4
  6
CONTINUOUS
 62
     7
 10
100.048486
 20
118.137612
 11
99.798967
 21
119.036899
  0
LINE
  8
CSLAYER4
  6
CONTINUOUS
 62
     7
 10
99.798967
 20
119.036899
 11
99.664212
 21
119.945111
  0
ENDBLK
  8
0
  0
BLOCK
  8
CSLAYER4
  2
BLKF0002
 70
   64
 10
0.0
 20
0.0
 30
0.0
  0
LINE
  8
CSLAYER4
  6
CONTINUOUS
 62
     7
 10
99.661580
 20
119.965615
 11
99.645291
 21
120.967746
  0
LINE
  8
CSLAYER4
  6
CONTINUOUS
 62
     7
 10
99.645291
 20
120.967746
 11
99.758016
 21
121.962018
  0
LINE
  8
CSLAYER4
  6
CONTINUOUS
 62
     7
 10
99.758016
 20
121.962018
 11
99.998075
 21
122.934146
  0
LINE
  8
CSLAYER4
  6
CONTINUOUS
 62
     7
 10
99.998075
 20
122.934146
 11
100.359937
 21
123.863263
  0
LINE
  8
CSLAYER4
  6
CONTINUOUS
 62
     7
 10
100.359937
 20
123.863263
 11
100.838090
 21
124.736591
  0
LINE
  8
CSLAYER4
  6
CONTINUOUS
 62
     7
 10
100.838090
 20
124.736591
 11
101.426355
 21
125.541473
  0
LINE
  8
CSLAYER4
  6
CONTINUOUS
 62
     7
 10
101.426355
 20
125.541473
 11
102.113153
 21
126.260934
  0
LINE
  8
CSLAYER4
  6
CONTINUOUS
 62
     7
 10
102.113153
 20
126.260934
 11
102.889024
 21
126.884151
  0
LINE
  8
CSLAYER4
  6
CONTINUOUS
 62
     7
 10
102.889024
 20
126.884151
 11
103.743459
 21
127.400422
  0
LINE
  8
CSLAYER4
  6
CONTINUOUS
 62
     7
 10
103.743459
 20
127.400422
 11
104.659711
 21
127.797647
  0
LINE
  8
CSLAYER4
  6
CONTINUOUS
 62
     7
 10
104.659711
 20
127.797647
 11
105.624639
 21
128.068338
  0
LINE
  8
CSLAYER4
  6
CONTINUOUS
 62
     7
 10
105.624639
 20
128.068338
 11
106.618997
 21
128.205314
  0
LINE
  8
CSLAYER4
  6
CONTINUOUS
 62
     7
 10
106.618997
 20
128.205314
 11
107.623464
 21
128.205104
  0
LINE
  8
CSLAYER4
  6
CONTINUOUS
 62
     7
 10
107.623464
 20
128.205104
 11
108.617765
 21
128.067708
  0
LINE
  8
CSLAYER4
  6
CONTINUOUS
 62
     7
 10
108.617765
 20
128.067708
 11
109.581834
 21
127.796893
  0
LINE
  8
CSLAYER4
  6
CONTINUOUS
 62
     7
 10
109.581834
 20
127.796893
 11
110.499154
 21
127.398772
  0
LINE
  8
CSLAYER4
  6
CONTINUOUS
 62
     7
 10
110.499154
 20
127.398772
 11
111.351281
 21
126.883540
  0
LINE
  8
CSLAYER4
  6
CONTINUOUS
 62
     7
 10
111.351281
 20
126.883540
 11
112.126371
 21
126.260848
  0
LINE
  8
CSLAYER4
  6
CONTINUOUS
 62
     7
 10
112.126371
 20
126.260848
 11
112.814180
 21
125.540157
  0
LINE
  8
CSLAYER4
  6
CONTINUOUS
 62
     7
 10
112.814180
 20
125.540157
 11
113.401338
 21
124.736591
  0
LINE
  8
CSLAYER4
  6
CONTINUOUS
 62
     7
 10
113.401338
 20
124.736591
 11
113.879815
 21
123.862529
  0
LINE
  8
CSLAYER4
  6
CONTINUOUS
 62
     7
 10
113.879815
 20
123.862529
 11
114.242250
 21
122.931390
  0
LINE
  8
CSLAYER4
  6
CONTINUOUS
 62
     7
 10
114.242250
 20
122.931390
 11
114.481374
 21
121.962361
  0
LINE
  8
CSLAYER4
  6
CONTINUOUS
 62
     7
 10
114.481374
 20
121.962361
 11
114.594098
 21
120.968204
  0
LINE
  8
CSLAYER4
  6
CONTINUOUS
 62
     7
 10
114.594098
 20
120.968204
 11
114.577848
 21
119.965615
  0
ENDBLK
  8
0
  0
BLOCK
  8
CSLAYER1
  2
BLKF0003
 70
   64
 10
0.0
 20
0.0
 30
0.0
  0
LINE
  8
CSLAYER4
  6
CONTINUOUS
 62
     7
 10
84.573326
 20
100.194472
 11
84.662645
 21
100.168805
  0
LINE
  8
CSLAYER4
  6
CONTINUOUS
 62
     7
 10
84.662645
 20
100.168805
 11
84.752513
 21
100.145830
  0
LINE
  8
CSLAYER4
  6
CONTINUOUS
 62
     7
 10
84.752513
 20
100.145830
 11
84.842903
 21
100.125656
  0
LINE
  8
CSLAYER4
  6
CONTINUOUS
 62
     7
 10
84.842903
 20
100.125656
 11
84.933794
 21
100.108394
  0
LINE
  8
CSLAYER4
  6
CONTINUOUS
 62
     7
 10
84.933794
 20
100.108394
 11
85.025153
 21
100.094167
  0
LINE
  8
CSLAYER4
  6
CONTINUOUS
 62
     7
 10
85.025153
 20
100.094167
 11
85.116943
 21
100.083071
  0
LINE
  8
CSLAYER4
  6
CONTINUOUS
 62
     7
 10
85.116943
 20
100.083071
 11
85.209146
 21
100.075229
  0
LINE
  8
CSLAYER4
  6
CONTINUOUS
 62
     7
 10
85.209146
 20
100.075229
 11
85.301726
 21
100.070746
  0
LINE
  8
CSLAYER4
  6
CONTINUOUS
 62
     7
 10
85.301726
 20
100.070746
 11
85.394664
 21
100.069729
  0
LINE
  8
CSLAYER4
  6
CONTINUOUS
 62
     7
 10
85.394664
 20
100.069729
 11
85.487478
 21
100.072277
  0
LINE
  8
CSLAYER4
  6
CONTINUOUS
 62
     7
 10
85.487478
 20
100.072277
 11
85.579674
 21
100.078402
  0
LINE
  8
CSLAYER4
  6
CONTINUOUS
 62
     7
 10
85.579674
 20
100.078402
 11
85.671259
 21
100.088104
  0
LINE
  8
CSLAYER4
  6
CONTINUOUS
 62
     7
 10
85.671259
 20
100.088104
 11
85.762225
 21
100.101397
  0
LINE
  8
CSLAYER4
  6
CONTINUOUS
 62
     7
 10
85.762225
 20
100.101397
 11
85.852588
 21
100.118275
  0
LINE
  8
CSLAYER4
  6
CONTINUOUS
 62
     7
 10
85.852588
 20
100.118275
 11
85.942333
 21
100.138744
  0
LINE
  8
CSLAYER4
  6
CONTINUOUS
 62
     7
 10
85.942333
 20
100.138744
 11
86.031445
 21
100.162804
  0
LINE
  8
CSLAYER4
  6
CONTINUOUS
 62
     7
 10
86.031445
 20
100.162804
 11
86.119954
 21
100.190462
  0
LINE
  8
CSLAYER4
  6
CONTINUOUS
 62
     7
 10
86.119954
 20
100.190462
 11
86.207776
 21
100.221691
  0
LINE
  8
CSLAYER4
  6
CONTINUOUS
 62
     7
 10
86.207776
 20
100.221691
 11
86.294293
 21
100.256222
  0
LINE
  8
CSLAYER4
  6
CONTINUOUS
 62
     7
 10
86.294293
 20
100.256222
 11
86.379355
 21
100.293912
  0
LINE
  8
CSLAYER4
  6
CONTINUOUS
 62
     7
 10
86.379355
 20
100.293912
 11
86.462988
 21
100.334644
  0
LINE
  8
CSLAYER4
  6
CONTINUOUS
 62
     7
 10
86.462988
 20
100.334644
 11
86.545180
 21
100.378315
  0
LINE
  8
CSLAYER4
  6
CONTINUOUS
 62
     7
 10
86.545180
 20
100.378315
 11
86.625970
 21
100.424835
  0
LINE
  8
CSLAYER4
  6
CONTINUOUS
 62
     7
 10
86.625970
 20
100.424835
 11
86.705360
 21
100.474088
  0
LINE
  8
CSLAYER4
  6
CONTINUOUS
 62
     7
 10
86.705360
 20
100.474088
 11
86.739404
 21
100.496411
  0
LINE
  8
CSLAYER4
  6
CONTINUOUS
 62
     7
 10
86.739404
 20
100.496411
 11
86.772761
 21
100.519619
  0
LINE
  8
CSLAYER4
  6
CONTINUOUS
 62
     7
 10
86.772761
 20
100.519619
 11
86.805432
 21
100.543700
  0
LINE
  8
CSLAYER4
  6
CONTINUOUS
 62
     7
 10
86.805432
 20
100.543700
 11
86.837430
 21
100.568639
  0
LINE
  8
CSLAYER4
  6
CONTINUOUS
 62
     7
 10
86.837430
 20
100.568639
 11
86.868755
 21
100.594423
  0
LINE
  8
CSLAYER4
  6
CONTINUOUS
 62
     7
 10
86.868755
 20
100.594423
 11
86.899434
 21
100.621044
  0
LINE
  8
CSLAYER4
  6
CONTINUOUS
 62
     7
 10
86.899434
 20
100.621044
 11
86.929441
 21
100.648482
  0
LINE
  8
CSLAYER4
  6
CONTINUOUS
 62
     7
 10
86.929441
 20
100.648482
 11
86.958801
 21
100.676738
  0
LINE
  8
CSLAYER4
  6
CONTINUOUS
 62
     7
 10
86.958801
 20
100.676738
 11
86.987489
 21
100.705769
  0
LINE
  8
CSLAYER4
  6
CONTINUOUS
 62
     7
 10
86.987489
 20
100.705769
 11
87.015449
 21
100.735473
  0
LINE
  8
CSLAYER4
  6
CONTINUOUS
 62
     7
 10
87.015449
 20
100.735473
 11
87.042668
 21
100.765830
  0
LINE
  8
CSLAYER4
  6
CONTINUOUS
 62
     7
 10
87.042668
 20
100.765830
 11
87.069173
 21
100.796804
  0
LINE
  8
CSLAYER4
  6
CONTINUOUS
 62
     7
 10
87.069173
 20
100.796804
 11
87.094963
 21
100.828383
  0
LINE
  8
CSLAYER4
  6
CONTINUOUS
 62
     7
 10
87.094963
 20
100.828383
 11
87.120053
 21
100.860539
  0
LINE
  8
CSLAYER4
  6
CONTINUOUS
 62
     7
 10
87.120053
 20
100.860539
 11
87.144457
 21
100.893251
  0
LINE
  8
CSLAYER4
  6
CONTINUOUS
 62
     7
 10
87.144457
 20
100.893251
 11
87.168173
 21
100.926491
  0
LINE
  8
CSLAYER4
  6
CONTINUOUS
 62
     7
 10
87.168173
 20
100.926491
 11
87.191217
 21
100.960240
  0
LINE
  8
CSLAYER4
  6
CONTINUOUS
 62
     7
 10
87.191217
 20
100.960240
 11
87.213616
 21
100.994462
  0
LINE
  8
CSLAYER4
  6
CONTINUOUS
 62
     7
 10
87.213616
 20
100.994462
 11
87.235341
 21
101.029117
  0
LINE
  8
CSLAYER4
  6
CONTINUOUS
 62
     7
 10
87.235341
 20
101.029117
 11
87.256421
 21
101.064191
  0
LINE
  8
CSLAYER4
  6
CONTINUOUS
 62
     7
 10
87.256421
 20
101.064191
 11
87.276869
 21
101.099642
  0
LINE
  8
CSLAYER4
  6
CONTINUOUS
 62
     7
 10
87.276869
 20
101.099642
 11
87.296686
 21
101.135458
  0
LINE
  8
CSLAYER4
  6
CONTINUOUS
 62
     7
 10
87.296686
 20
101.135458
 11
87.315884
 21
101.171610
  0
LINE
  8
CSLAYER4
  6
CONTINUOUS
 62
     7
 10
87.315884
 20
101.171610
 11
87.334492
 21
101.208064
  0
LINE
  8
CSLAYER4
  6
CONTINUOUS
 62
     7
 10
87.334492
 20
101.208064
 11
87.353966
 21
101.248453
  0
LINE
  8
CSLAYER4
  6
CONTINUOUS
 62
     7
 10
87.353966
 20
101.248453
 11
87.372313
 21
101.289356
  0
LINE
  8
CSLAYER4
  6
CONTINUOUS
 62
     7
 10
87.372313
 20
101.289356
 11
87.389548
 21
101.330747
  0
LINE
  8
CSLAYER4
  6
CONTINUOUS
 62
     7
 10
87.389548
 20
101.330747
 11
87.405698
 21
101.372591
  0
LINE
  8
CSLAYER4
  6
CONTINUOUS
 62
     7
 10
87.405698
 20
101.372591
 11
87.420804
 21
101.414861
  0
LINE
  8
CSLAYER4
  6
CONTINUOUS
 62
     7
 10
87.420804
 20
101.414861
 11
87.434880
 21
101.457508
  0
LINE
  8
CSLAYER4
  6
CONTINUOUS
 62
     7
 10
87.434880
 20
101.457508
 11
87.447968
 21
101.500513
  0
LINE
  8
CSLAYER4
  6
CONTINUOUS
 62
     7
 10
87.447968
 20
101.500513
 11
87.460080
 21
101.543833
  0
LINE
  8
CSLAYER4
  6
CONTINUOUS
 62
     7
 10
87.460080
 20
101.543833
 11
87.471245
 21
101.587435
  0
LINE
  8
CSLAYER4
  6
CONTINUOUS
 62
     7
 10
87.471245
 20
101.587435
 11
87.481490
 21
101.631292
  0
LINE
  8
CSLAYER4
  6
CONTINUOUS
 62
     7
 10
87.481490
 20
101.631292
 11
87.490855
 21
101.675368
  0
LINE
  8
CSLAYER4
  6
CONTINUOUS
 62
     7
 10
87.490855
 20
101.675368
 11
87.499356
 21
101.719622
  0
LINE
  8
CSLAYER4
  6
CONTINUOUS
 62
     7
 10
87.499356
 20
101.719622
 11
87.507019
 21
101.764020
  0
LINE
  8
CSLAYER4
  6
CONTINUOUS
 62
     7
 10
87.507019
 20
101.764020
 11
87.513886
 21
101.808542
  0
LINE
  8
CSLAYER4
  6
CONTINUOUS
 62
     7
 10
87.513886
 20
101.808542
 11
87.519969
 21
101.853140
  0
LINE
  8
CSLAYER4
  6
CONTINUOUS
 62
     7
 10
87.519969
 20
101.853140
 11
87.525298
 21
101.897786
  0
LINE
  8
CSLAYER4
  6
CONTINUOUS
 62
     7
 10
87.525298
 20
101.897786
 11
87.529912
 21
101.942445
  0
LINE
  8
CSLAYER4
  6
CONTINUOUS
 62
     7
 10
87.529912
 20
101.942445
 11
87.533825
 21
101.987173
  0
LINE
  8
CSLAYER4
  6
CONTINUOUS
 62
     7
 10
87.533825
 20
101.987173
 11
87.537080
 21
102.031997
  0
LINE
  8
CSLAYER4
  6
CONTINUOUS
 62
     7
 10
87.537080
 20
102.031997
 11
87.539704
 21
102.076890
  0
LINE
  8
CSLAYER4
  6
CONTINUOUS
 62
     7
 10
87.539704
 20
102.076890
 11
87.541694
 21
102.121831
  0
LINE
  8
CSLAYER4
  6
CONTINUOUS
 62
     7
 10
87.541694
 20
102.121831
 11
87.543095
 21
102.166779
  0
LINE
  8
CSLAYER4
  6
CONTINUOUS
 62
     7
 10
87.543095
 20
102.166779
 11
87.543933
 21
102.211713
  0
LINE
  8
CSLAYER4
  6
CONTINUOUS
 62
     7
 10
87.543933
 20
102.211713
 11
87.544194
 21
102.256613
  0
LINE
  8
CSLAYER4
  6
CONTINUOUS
 62
     7
 10
87.544194
 20
102.256613
 11
87.543590
 21
102.312732
  0
LINE
  8
CSLAYER4
  6
CONTINUOUS
 62
     7
 10
87.543590
 20
102.312732
 11
87.541708
 21
102.368852
  0
LINE
  8
CSLAYER4
  6
CONTINUOUS
 62
     7
 10
87.541708
 20
102.368852
 11
87.538495
 21
102.424916
  0
LINE
  8
CSLAYER4
  6
CONTINUOUS
 62
     7
 10
87.538495
 20
102.424916
 11
87.533908
 21
102.480871
  0
LINE
  8
CSLAYER4
  6
CONTINUOUS
 62
     7
 10
87.533908
 20
102.480871
 11
87.527893
 21
102.536675
  0
LINE
  8
CSLAYER4
  6
CONTINUOUS
 62
     7
 10
87.527893
 20
102.536675
 11
87.520367
 21
102.592279
  0
LINE
  8
CSLAYER4
  6
CONTINUOUS
 62
     7
 10
87.520367
 20
102.592279
 11
87.511304
 21
102.647630
  0
LINE
  8
CSLAYER4
  6
CONTINUOUS
 62
     7
 10
87.511304
 20
102.647630
 11
87.500620
 21
102.702685
  0
LINE
  8
CSLAYER4
  6
CONTINUOUS
 62
     7
 10
87.500620
 20
102.702685
 11
87.488273
 21
102.757390
  0
LINE
  8
CSLAYER4
  6
CONTINUOUS
 62
     7
 10
87.488273
 20
102.757390
 11
87.474225
 21
102.811656
  0
LINE
  8
CSLAYER4
  6
CONTINUOUS
 62
     7
 10
87.474225
 20
102.811656
 11
87.458473
 21
102.865255
  0
LINE
  8
CSLAYER4
  6
CONTINUOUS
 62
     7
 10
87.458473
 20
102.865255
 11
87.440977
 21
102.918134
  0
LINE
  8
CSLAYER4
  6
CONTINUOUS
 62
     7
 10
87.440977
 20
102.918134
 11
87.421710
 21
102.970271
  0
LINE
  8
CSLAYER4
  6
CONTINUOUS
 62
     7
 10
87.421710
 20
102.970271
 11
87.400644
 21
103.021639
  0
LINE
  8
CSLAYER4
  6
CONTINUOUS
 62
     7
 10
87.400644
 20
103.021639
 11
87.377737
 21
103.072204
  0
LINE
  8
CSLAYER4
  6
CONTINUOUS
 62
     7
 10
87.377737
 20
103.072204
 11
87.352949
 21
103.121944
  0
LINE
  8
CSLAYER4
  6
CONTINUOUS
 62
     7
 10
87.352949
 20
103.121944
 11
87.326239
 21
103.170833
  0
LINE
  8
CSLAYER4
  6
CONTINUOUS
 62
     7
 10
87.326239
 20
103.170833
 11
87.297592
 21
103.218844
  0
LINE
  8
CSLAYER4
  6
CONTINUOUS
 62
     7
 10
87.297592
 20
103.218844
 11
87.267133
 21
103.265700
  0
LINE
  8
CSLAYER4
  6
CONTINUOUS
 62
     7
 10
87.267133
 20
103.265700
 11
87.234970
 21
103.311204
  0
LINE
  8
CSLAYER4
  6
CONTINUOUS
 62
     7
 10
87.234970
 20
103.311204
 11
87.201160
 21
103.355369
  0
LINE
  8
CSLAYER4
  6
CONTINUOUS
 62
     7
 10
87.201160
 20
103.355369
 11
87.165688
 21
103.398202
  0
LINE
  8
CSLAYER4
  6
CONTINUOUS
 62
     7
 10
87.165688
 20
103.398202
 11
87.128567
 21
103.439710
  0
LINE
  8
CSLAYER4
  6
CONTINUOUS
 62
     7
 10
87.128567
 20
103.439710
 11
87.089827
 21
103.479913
  0
LINE
  8
CSLAYER4
  6
CONTINUOUS
 62
     7
 10
87.089827
 20
103.479913
 11
87.062842
 21
103.506520
  0
LINE
  8
CSLAYER4
  6
CONTINUOUS
 62
     7
 10
87.062842
 20
103.506520
 11
87.035513
 21
103.532702
  0
LINE
  8
CSLAYER4
  6
CONTINUOUS
 62
     7
 10
87.035513
 20
103.532702
 11
87.007855
 21
103.558465
  0
LINE
  8
CSLAYER4
  6
CONTINUOUS
 62
     7
 10
87.007855
 20
103.558465
 11
86.979881
 21
103.583803
  0
LINE
  8
CSLAYER4
  6
CONTINUOUS
 62
     7
 10
86.979881
 20
103.583803
 11
86.951578
 21
103.608721
  0
LINE
  8
CSLAYER4
  6
CONTINUOUS
 62
     7
 10
86.951578
 20
103.608721
 11
86.922944
 21
103.633220
  0
LINE
  8
CSLAYER4
  6
CONTINUOUS
 62
     7
 10
86.922944
 20
103.633220
 11
86.893982
 21
103.657301
  0
LINE
  8
CSLAYER4
  6
CONTINUOUS
 62
     7
 10
86.893982
 20
103.657301
 11
86.864717
 21
103.680970
  0
LINE
  8
CSLAYER4
  6
CONTINUOUS
 62
     7
 10
86.864717
 20
103.680970
 11
86.835122
 21
103.704226
  0
LINE
  8
CSLAYER4
  6
CONTINUOUS
 62
     7
 10
86.835122
 20
103.704226
 11
86.805212
 21
103.727071
  0
LINE
  8
CSLAYER4
  6
CONTINUOUS
 62
     7
 10
86.805212
 20
103.727071
 11
86.774986
 21
103.749503
  0
LINE
  8
CSLAYER4
  6
CONTINUOUS
 62
     7
 10
86.774986
 20
103.749503
 11
86.744458
 21
103.771531
  0
LINE
  8
CSLAYER4
  6
CONTINUOUS
 62
     7
 10
86.744458
 20
103.771531
 11
86.713614
 21
103.793161
  0
LINE
  8
CSLAYER4
  6
CONTINUOUS
 62
     7
 10
86.713614
 20
103.793161
 11
86.682467
 21
103.814378
  0
LINE
  8
CSLAYER4
  6
CONTINUOUS
 62
     7
 10
86.682467
 20
103.814378
 11
86.651006
 21
103.835204
  0
LINE
  8
CSLAYER4
  6
CONTINUOUS
 62
     7
 10
86.651006
 20
103.835204
 11
86.619255
 21
103.855625
  0
LINE
  8
CSLAYER4
  6
CONTINUOUS
 62
     7
 10
86.619255
 20
103.855625
 11
86.587189
 21
103.875647
  0
LINE
  8
CSLAYER4
  6
CONTINUOUS
 62
     7
 10
86.587189
 20
103.875647
 11
86.554834
 21
103.895272
  0
LINE
  8
CSLAYER4
  6
CONTINUOUS
 62
     7
 10
86.554834
 20
103.895272
 11
86.522232
 21
103.914470
  0
LINE
  8
CSLAYER4
  6
CONTINUOUS
 62
     7
 10
86.522232
 20
103.914470
 11
86.489410
 21
103.933250
  0
LINE
  8
CSLAYER4
  6
CONTINUOUS
 62
     7
 10
86.489410
 20
103.933250
 11
86.456355
 21
103.951604
  0
LINE
  8
CSLAYER4
  6
CONTINUOUS
 62
     7
 10
86.456355
 20
103.951604
 11
86.423067
 21
103.969546
  0
LINE
  8
CSLAYER4
  6
CONTINUOUS
 62
     7
 10
86.423067
 20
103.969546
 11
86.389572
 21
103.987069
  0
LINE
  8
CSLAYER4
  6
CONTINUOUS
 62
     7
 10
86.389572
 20
103.987069
 11
86.355844
 21
104.004181
  0
LINE
  8
CSLAYER4
  6
CONTINUOUS
 62
     7
 10
85.167499
 20
104.528455
 11
86.355848
 21
104.004184
  0
LINE
  8
CSLAYER4
  6
CONTINUOUS
 62
     7
 10
85.167501
 20
104.528455
 11
85.141978
 21
104.538837
  0
LINE
  8
CSLAYER4
  6
CONTINUOUS
 62
     7
 10
85.141978
 20
104.538837
 11
85.116532
 21
104.549535
  0
LINE
  8
CSLAYER4
  6
CONTINUOUS
 62
     7
 10
85.116532
 20
104.549535
 11
85.091174
 21
104.560556
  0
LINE
  8
CSLAYER4
  6
CONTINUOUS
 62
     7
 10
85.091174
 20
104.560556
 11
85.065919
 21
104.571913
  0
LINE
  8
CSLAYER4
  6
CONTINUOUS
 62
     7
 10
85.065919
 20
104.571913
 11
85.040794
 21
104.583599
  0
LINE
  8
CSLAYER4
  6
CONTINUOUS
 62
     7
 10
85.040794
 20
104.583599
 11
85.015807
 21
104.595637
  0
LINE
  8
CSLAYER4
  6
CONTINUOUS
 62
     7
 10
85.015807
 20
104.595637
 11
84.990971
 21
104.608024
  0
LINE
  8
CSLAYER4
  6
CONTINUOUS
 62
     7
 10
84.990971
 20
104.608024
 11
84.966314
 21
104.620760
  0
LINE
  8
CSLAYER4
  6
CONTINUOUS
 62
     7
 10
84.966314
 20
104.620760
 11
84.941842
 21
104.633862
  0
LINE
  8
CSLAYER4
  6
CONTINUOUS
 62
     7
 10
84.941842
 20
104.633862
 11
84.917576
 21
104.647327
  0
LINE
  8
CSLAYER4
  6
CONTINUOUS
 62
     7
 10
84.917576
 20
104.647327
 11
84.893530
 21
104.661170
  0
LINE
  8
CSLAYER4
  6
CONTINUOUS
 62
     7
 10
84.893530
 20
104.661170
 11
84.869723
 21
104.675390
  0
LINE
  8
CSLAYER4
  6
CONTINUOUS
 62
     7
 10
84.869723
 20
104.675390
 11
84.846172
 21
104.689988
  0
LINE
  8
CSLAYER4
  6
CONTINUOUS
 62
     7
 10
84.846172
 20
104.689988
 11
84.822887
 21
104.704985
  0
LINE
  8
CSLAYER4
  6
CONTINUOUS
 62
     7
 10
84.822887
 20
104.704985
 11
84.799885
 21
104.720379
  0
LINE
  8
CSLAYER4
  6
CONTINUOUS
 62
     7
 10
84.799885
 20
104.720379
 11
84.777191
 21
104.736179
  0
LINE
  8
CSLAYER4
  6
CONTINUOUS
 62
     7
 10
84.777191
 20
104.736179
 11
84.754813
 21
104.752384
  0
LINE
  8
CSLAYER4
  6
CONTINUOUS
 62
     7
 10
84.754813
 20
104.752384
 11
84.732779
 21
104.769001
  0
LINE
  8
CSLAYER4
  6
CONTINUOUS
 62
     7
 10
84.732779
 20
104.769001
 11
84.711081
 21
104.786043
  0
LINE
  8
CSLAYER4
  6
CONTINUOUS
 62
     7
 10
84.711081
 20
104.786043
 11
84.689747
 21
104.803532
  0
LINE
  8
CSLAYER4
  6
CONTINUOUS
 62
     7
 10
84.689747
 20
104.803532
 11
84.668777
 21
104.821453
  0
LINE
  8
CSLAYER4
  6
CONTINUOUS
 62
     7
 10
84.668777
 20
104.821453
 11
84.648198
 21
104.839835
  0
LINE
  8
CSLAYER4
  6
CONTINUOUS
 62
     7
 10
84.648198
 20
104.839835
 11
84.628024
 21
104.858669
  0
LINE
  8
CSLAYER4
  6
CONTINUOUS
 62
     7
 10
84.628024
 20
104.858669
 11
84.608276
 21
104.877971
  0
LINE
  8
CSLAYER4
  6
CONTINUOUS
 62
     7
 10
84.608276
 20
104.877971
 11
84.592353
 21
104.894306
  0
LINE
  8
CSLAYER4
  6
CONTINUOUS
 62
     7
 10
84.592353
 20
104.894306
 11
84.576896
 21
104.911047
  0
LINE
  8
CSLAYER4
  6
CONTINUOUS
 62
     7
 10
84.576896
 20
104.911047
 11
84.561914
 21
104.928185
  0
LINE
  8
CSLAYER4
  6
CONTINUOUS
 62
     7
 10
84.561914
 20
104.928185
 11
84.547439
 21
104.945736
  0
LINE
  8
CSLAYER4
  6
CONTINUOUS
 62
     7
 10
84.547439
 20
104.945736
 11
84.533487
 21
104.963706
  0
LINE
  8
CSLAYER4
  6
CONTINUOUS
 62
     7
 10
84.533487
 20
104.963706
 11
84.520090
 21
104.982094
  0
LINE
  8
CSLAYER4
  6
CONTINUOUS
 62
     7
 10
84.520090
 20
104.982094
 11
84.507264
 21
105.000915
  0
LINE
  8
CSLAYER4
  6
CONTINUOUS
 62
     7
 10
84.507264
 20
105.000915
 11
84.495035
 21
105.020162
  0
LINE
  8
CSLAYER4
  6
CONTINUOUS
 62
     7
 10
84.495035
 20
105.020162
 11
84.483417
 21
105.039855
  0
LINE
  8
CSLAYER4
  6
CONTINUOUS
 62
     7
 10
84.483417
 20
105.039855
 11
84.472486
 21
105.059918
  0
LINE
  8
CSLAYER4
  6
CONTINUOUS
 62
     7
 10
84.472486
 20
105.059918
 11
84.462289
 21
105.080271
  0
LINE
  8
CSLAYER4
  6
CONTINUOUS
 62
     7
 10
84.462289
 20
105.080271
 11
84.452827
 21
105.100911
  0
LINE
  8
CSLAYER4
  6
CONTINUOUS
 62
     7
 10
84.452827
 20
105.100911
 11
84.444120
 21
105.121840
  0
LINE
  8
CSLAYER4
  6
CONTINUOUS
 62
     7
 10
84.444120
 20
105.121840
 11
84.436155
 21
105.143057
  0
LINE
  8
CSLAYER4
  6
CONTINUOUS
 62
     7
 10
84.436155
 20
105.143057
 11
84.428945
 21
105.164570
  0
LINE
  8
CSLAYER4
  6
CONTINUOUS
 62
     7
 10
84.428945
 20
105.164570
 11
84.422491
 21
105.186371
  0
LINE
  8
CSLAYER4
  6
CONTINUOUS
 62
     7
 10
84.422491
 20
105.186371
 11
84.416798
 21
105.208460
  0
LINE
  8
CSLAYER4
  6
CONTINUOUS
 62
     7
 10
84.416798
 20
105.208460
 11
84.411875
 21
105.230845
  0
LINE
  8
CSLAYER4
  6
CONTINUOUS
 62
     7
 10
84.411875
 20
105.230845
 11
84.407741
 21
105.253374
  0
LINE
  8
CSLAYER4
  6
CONTINUOUS
 62
     7
 10
84.407741
 20
105.253374
 11
84.404398
 21
105.275999
  0
LINE
  8
CSLAYER4
  6
CONTINUOUS
 62
     7
 10
84.404398
 20
105.275999
 11
84.401822
 21
105.298706
  0
LINE
  8
CSLAYER4
  6
CONTINUOUS
 62
     7
 10
84.401822
 20
105.298706
 11
84.400003
 21
105.321496
  0
LINE
  8
CSLAYER4
  6
CONTINUOUS
 62
     7
 10
84.400003
 20
105.321496
 11
84.398925
 21
105.344362
  0
LINE
  8
CSLAYER4
  6
CONTINUOUS
 62
     7
 10
84.398925
 20
105.344362
 11
84.398568
 21
105.367289
  0
LINE
  8
CSLAYER4
  6
CONTINUOUS
 62
     7
 10
84.398568
 20
105.367289
 11
84.398987
 21
105.405590
  0
LINE
  8
CSLAYER4
  6
CONTINUOUS
 62
     7
 10
84.398987
 20
105.405590
 11
84.400278
 21
105.443987
  0
LINE
  8
CSLAYER4
  6
CONTINUOUS
 62
     7
 10
84.400278
 20
105.443987
 11
84.402502
 21
105.482411
  0
LINE
  8
CSLAYER4
  6
CONTINUOUS
 62
     7
 10
84.402502
 20
105.482411
 11
84.405716
 21
105.520802
  0
LINE
  8
CSLAYER4
  6
CONTINUOUS
 62
     7
 10
84.405716
 20
105.520802
 11
84.409980
 21
105.559096
  0
LINE
  8
CSLAYER4
  6
CONTINUOUS
 62
     7
 10
84.409980
 20
105.559096
 11
84.415343
 21
105.597218
  0
LINE
  8
CSLAYER4
  6
CONTINUOUS
 62
     7
 10
84.415343
 20
105.597218
 11
84.421873
 21
105.635122
  0
LINE
  8
CSLAYER4
  6
CONTINUOUS
 62
     7
 10
84.421873
 20
105.635122
 11
84.429625
 21
105.672736
  0
LINE
  8
CSLAYER4
  6
CONTINUOUS
 62
     7
 10
84.429625
 20
105.672736
 11
84.438655
 21
105.709987
  0
LINE
  8
CSLAYER4
  6
CONTINUOUS
 62
     7
 10
84.438655
 20
105.709987
 11
84.449016
 21
105.746818
  0
LINE
  8
CSLAYER4
  6
CONTINUOUS
 62
     7
 10
84.449016
 20
105.746818
 11
84.460765
 21
105.783121
  0
LINE
  8
CSLAYER4
  6
CONTINUOUS
 62
     7
 10
84.460765
 20
105.783121
 11
84.473900
 21
105.818744
  0
LINE
  8
CSLAYER4
  6
CONTINUOUS
 62
     7
 10
84.473900
 20
105.818744
 11
84.488477
 21
105.853640
  0
LINE
  8
CSLAYER4
  6
CONTINUOUS
 62
     7
 10
84.488477
 20
105.853640
 11
84.504538
 21
105.887766
  0
LINE
  8
CSLAYER4
  6
CONTINUOUS
 62
     7
 10
84.504538
 20
105.887766
 11
84.522123
 21
105.921082
  0
LINE
  8
CSLAYER4
  6
CONTINUOUS
 62
     7
 10
84.522123
 20
105.921082
 11
84.541280
 21
105.953526
  0
LINE
  8
CSLAYER4
  6
CONTINUOUS
 62
     7
 10
84.541280
 20
105.953526
 11
84.562045
 21
105.985077
  0
LINE
  8
CSLAYER4
  6
CONTINUOUS
 62
     7
 10
84.562045
 20
105.985077
 11
84.584470
 21
106.015674
  0
LINE
  8
CSLAYER4
  6
CONTINUOUS
 62
     7
 10
84.584470
 20
106.015674
 11
84.608462
 21
106.045111
  0
LINE
  8
CSLAYER4
  6
CONTINUOUS
 62
     7
 10
84.608462
 20
106.045111
 11
84.633785
 21
106.073126
  0
LINE
  8
CSLAYER4
  6
CONTINUOUS
 62
     7
 10
84.633785
 20
106.073126
 11
84.660434
 21
106.099720
  0
LINE
  8
CSLAYER4
  6
CONTINUOUS
 62
     7
 10
84.660434
 20
106.099720
 11
84.688381
 21
106.124912
  0
LINE
  8
CSLAYER4
  6
CONTINUOUS
 62
     7
 10
84.688381
 20
106.124912
 11
84.717604
 21
106.148725
  0
LINE
  8
CSLAYER4
  6
CONTINUOUS
 62
     7
 10
84.717604
 20
106.148725
 11
84.748084
 21
106.171172
  0
LINE
  8
CSLAYER4
  6
CONTINUOUS
 62
     7
 10
84.748084
 20
106.171172
 11
84.776155
 21
106.190130
  0
LINE
  8
CSLAYER4
  6
CONTINUOUS
 62
     7
 10
84.776155
 20
106.190130
 11
84.804760
 21
106.208045
  0
LINE
  8
CSLAYER4
  6
CONTINUOUS
 62
     7
 10
84.804760
 20
106.208045
 11
84.833901
 21
106.224868
  0
LINE
  8
CSLAYER4
  6
CONTINUOUS
 62
     7
 10
84.833901
 20
106.224868
 11
84.863578
 21
106.240564
  0
LINE
  8
CSLAYER4
  6
CONTINUOUS
 62
     7
 10
84.863578
 20
106.240564
 11
84.893811
 21
106.255094
  0
LINE
  8
CSLAYER4
  6
CONTINUOUS
 62
     7
 10
84.893811
 20
106.255094
 11
84.924593
 21
106.268408
  0
LINE
  8
CSLAYER4
  6
CONTINUOUS
 62
     7
 10
84.924593
 20
106.268408
 11
84.955932
 21
106.280472
  0
LINE
  8
CSLAYER4
  6
CONTINUOUS
 62
     7
 10
84.955932
 20
106.280472
 11
84.987827
 21
106.291239
  0
LINE
  8
CSLAYER4
  6
CONTINUOUS
 62
     7
 10
84.987827
 20
106.291239
 11
85.020284
 21
106.300666
  0
LINE
  8
CSLAYER4
  6
CONTINUOUS
 62
     7
 10
85.020284
 20
106.300666
 11
85.053031
 21
106.308652
  0
LINE
  8
CSLAYER4
  6
CONTINUOUS
 62
     7
 10
85.053031
 20
106.308652
 11
85.085907
 21
106.315168
  0
LINE
  8
CSLAYER4
  6
CONTINUOUS
 62
     7
 10
85.085907
 20
106.315168
 11
85.118914
 21
106.320229
  0
LINE
  8
CSLAYER4
  6
CONTINUOUS
 62
     7
 10
85.118914
 20
106.320229
 11
85.152044
 21
106.323854
  0
LINE
  8
CSLAYER4
  6
CONTINUOUS
 62
     7
 10
85.152044
 20
106.323854
 11
85.185306
 21
106.326059
  0
LINE
  8
CSLAYER4
  6
CONTINUOUS
 62
     7
 10
85.185306
 20
106.326059
 11
85.218683
 21
106.326862
  0
LINE
  8
CSLAYER4
  6
CONTINUOUS
 62
     7
 10
85.218683
 20
106.326862
 11
85.252185
 21
106.326278
  0
LINE
  8
CSLAYER4
  6
CONTINUOUS
 62
     7
 10
85.252185
 20
106.326278
 11
85.285796
 21
106.324321
  0
LINE
  8
CSLAYER4
  6
CONTINUOUS
 62
     7
 10
85.285796
 20
106.324321
 11
85.319462
 21
106.321019
  0
LINE
  8
CSLAYER4
  6
CONTINUOUS
 62
     7
 10
85.319462
 20
106.321019
 11
85.352964
 21
106.316432
  0
LINE
  8
CSLAYER4
  6
CONTINUOUS
 62
     7
 10
85.352964
 20
106.316432
 11
85.386253
 21
106.310602
  0
LINE
  8
CSLAYER4
  6
CONTINUOUS
 62
     7
 10
85.386253
 20
106.310602
 11
85.419314
 21
106.303598
  0
LINE
  8
CSLAYER4
  6
CONTINUOUS
 62
     7
 10
85.419314
 20
106.303598
 11
85.452136
 21
106.295462
  0
LINE
  8
CSLAYER4
  6
CONTINUOUS
 62
     7
 10
85.452136
 20
106.295462
 11
85.484711
 21
106.286254
  0
LINE
  8
CSLAYER4
  6
CONTINUOUS
 62
     7
 10
85.484711
 20
106.286254
 11
85.517011
 21
106.276030
  0
LINE
  8
CSLAYER4
  6
CONTINUOUS
 62
     7
 10
85.517011
 20
106.276030
 11
85.575259
 21
106.255842
  0
LINE
  8
CSLAYER4
  6
CONTINUOUS
 62
     7
 10
85.575259
 20
106.255842
 11
85.632085
 21
106.232434
  0
LINE
  8
CSLAYER4
  6
CONTINUOUS
 62
     7
 10
85.632085
 20
106.232434
 11
85.687408
 21
106.205690
  0
LINE
  8
CSLAYER4
  6
CONTINUOUS
 62
     7
 10
85.687408
 20
106.205690
 11
85.741159
 21
106.175512
  0
LINE
  8
CSLAYER4
  6
CONTINUOUS
 62
     7
 10
85.741159
 20
106.175512
 11
85.793028
 21
106.141934
  0
LINE
  8
CSLAYER4
  6
CONTINUOUS
 62
     7
 10
85.793028
 20
106.141934
 11
85.842481
 21
106.105288
  0
LINE
  8
CSLAYER4
  6
CONTINUOUS
 62
     7
 10
85.842481
 20
106.105288
 11
85.889474
 21
106.065634
  0
LINE
  8
CSLAYER4
  6
CONTINUOUS
 62
     7
 10
85.889474
 20
106.065634
 11
85.934065
 21
106.023014
  0
LINE
  8
CSLAYER4
  6
CONTINUOUS
 62
     7
 10
85.934065
 20
106.023014
 11
85.976184
 21
105.977538
  0
LINE
  8
CSLAYER4
  6
CONTINUOUS
 62
     7
 10
85.976184
 20
105.977538
 11
86.015488
 21
105.929782
  0
LINE
  8
CSLAYER4
  6
CONTINUOUS
 62
     7
 10
86.015488
 20
105.929782
 11
86.051990
 21
105.879993
  0
LINE
  8
CSLAYER4
  6
CONTINUOUS
 62
     7
 10
86.051990
 20
105.879993
 11
86.085814
 21
105.828344
  0
LINE
  8
CSLAYER4
  6
CONTINUOUS
 62
     7
 10
86.085814
 20
105.828344
 11
86.117042
 21
105.775025
  0
LINE
  8
CSLAYER4
  6
CONTINUOUS
 62
     7
 10
86.117042
 20
105.775025
 11
86.145799
 21
105.720204
  0
LINE
  8
CSLAYER4
  6
CONTINUOUS
 62
     7
 10
86.145799
 20
105.720204
 11
86.172180
 21
105.664064
  0
LINE
  8
CSLAYER4
  6
CONTINUOUS
 62
     7
 10
86.172180
 20
105.664064
 11
86.196295
 21
105.606777
  0
LINE
  8
CSLAYER4
  6
CONTINUOUS
 62
     7
 10
86.196295
 20
105.606777
 11
86.218254
 21
105.548515
  0
LINE
  8
CSLAYER4
  6
CONTINUOUS
 62
     7
 10
86.218254
 20
105.548515
 11
86.238208
 21
105.489305
  0
LINE
  8
CSLAYER4
  6
CONTINUOUS
 62
     7
 10
86.238208
 20
105.489305
 11
86.256239
 21
105.429286
  0
LINE
  8
CSLAYER4
  6
CONTINUOUS
 62
     7
 10
86.256239
 20
105.429286
 11
86.272444
 21
105.368607
  0
LINE
  8
CSLAYER4
  6
CONTINUOUS
 62
     7
 10
86.272444
 20
105.368607
 11
86.286932
 21
105.307447
  0
LINE
  8
CSLAYER4
  6
CONTINUOUS
 62
     7
 10
86.286932
 20
105.307447
 11
86.299772
 21
105.245951
  0
LINE
  8
CSLAYER4
  6
CONTINUOUS
 62
     7
 10
86.299772
 20
105.245951
 11
86.311061
 21
105.184291
  0
LINE
  8
CSLAYER4
  6
CONTINUOUS
 62
     7
 10
86.311061
 20
105.184291
 11
86.320894
 21
105.122630
  0
LINE
  8
CSLAYER4
  6
CONTINUOUS
 62
     7
 10
87.369440
 20
105.122630
 11
86.320897
 21
105.122630
  0
LINE
  8
CSLAYER4
  6
CONTINUOUS
 62
     7
 10
87.369443
 20
105.122630
 11
87.366202
 21
105.195868
  0
LINE
  8
CSLAYER4
  6
CONTINUOUS
 62
     7
 10
87.366202
 20
105.195868
 11
87.361492
 21
105.269084
  0
LINE
  8
CSLAYER4
  6
CONTINUOUS
 62
     7
 10
87.361492
 20
105.269084
 11
87.355243
 21
105.342219
  0
LINE
  8
CSLAYER4
  6
CONTINUOUS
 62
     7
 10
87.355243
 20
105.342219
 11
87.347401
 21
105.415210
  0
LINE
  8
CSLAYER4
  6
CONTINUOUS
 62
     7
 10
87.347401
 20
105.415210
 11
87.337898
 21
105.487994
  0
LINE
  8
CSLAYER4
  6
CONTINUOUS
 62
     7
 10
87.337898
 20
105.487994
 11
87.326665
 21
105.560504
  0
LINE
  8
CSLAYER4
  6
CONTINUOUS
 62
     7
 10
87.326665
 20
105.560504
 11
87.313646
 21
105.632684
  0
LINE
  8
CSLAYER4
  6
CONTINUOUS
 62
     7
 10
87.313646
 20
105.632684
 11
87.298787
 21
105.704473
  0
LINE
  8
CSLAYER4
  6
CONTINUOUS
 62
     7
 10
87.298787
 20
105.704473
 11
87.281992
 21
105.775795
  0
LINE
  8
CSLAYER4
  6
CONTINUOUS
 62
     7
 10
87.281992
 20
105.775795
 11
87.263246
 21
105.846574
  0
LINE
  8
CSLAYER4
  6
CONTINUOUS
 62
     7
 10
87.263246
 20
105.846574
 11
87.242482
 21
105.916625
  0
LINE
  8
CSLAYER4
  6
CONTINUOUS
 62
     7
 10
87.242482
 20
105.916625
 11
87.219699
 21
105.985874
  0
LINE
  8
CSLAYER4
  6
CONTINUOUS
 62
     7
 10
87.219699
 20
105.985874
 11
87.194815
 21
106.054284
  0
LINE
  8
CSLAYER4
  6
CONTINUOUS
 62
     7
 10
87.194815
 20
106.054284
 11
87.167789
 21
106.121795
  0
LINE
  8
CSLAYER4
  6
CONTINUOUS
 62
     7
 10
87.167789
 20
106.121795
 11
87.138565
 21
106.188365
  0
LINE
  8
CSLAYER4
  6
CONTINUOUS
 62
     7
 10
87.138565
 20
106.188365
 11
87.107103
 21
106.253947
  0
LINE
  8
CSLAYER4
  6
CONTINUOUS
 62
     7
 10
87.107103
 20
106.253947
 11
87.073348
 21
106.318499
  0
LINE
  8
CSLAYER4
  6
CONTINUOUS
 62
     7
 10
87.073348
 20
106.318499
 11
87.037244
 21
106.381972
  0
LINE
  8
CSLAYER4
  6
CONTINUOUS
 62
     7
 10
87.037244
 20
106.381972
 11
86.998888
 21
106.444100
  0
LINE
  8
CSLAYER4
  6
CONTINUOUS
 62
     7
 10
86.998888
 20
106.444100
 11
86.958417
 21
106.504614
  0
LINE
  8
CSLAYER4
  6
CONTINUOUS
 62
     7
 10
86.958417
 20
106.504614
 11
86.915817
 21
106.563508
  0
LINE
  8
CSLAYER4
  6
CONTINUOUS
 62
     7
 10
86.915817
 20
106.563508
 11
86.871089
 21
106.620767
  0
LINE
  8
CSLAYER4
  6
CONTINUOUS
 62
     7
 10
86.871089
 20
106.620767
 11
86.824246
 21
106.676399
  0
LINE
  8
CSLAYER4
  6
CONTINUOUS
 62
     7
 10
86.824246
 20
106.676399
 11
86.775261
 21
106.730396
  0
LINE
  8
CSLAYER4
  6
CONTINUOUS
 62
     7
 10
86.775261
 20
106.730396
 11
86.725726
 21
106.783852
  0
LINE
  8
CSLAYER4
  6
CONTINUOUS
 62
     7
 10
86.725726
 20
106.783852
 11
86.674722
 21
106.835666
  0
LINE
  8
CSLAYER4
  6
CONTINUOUS
 62
     7
 10
86.674722
 20
106.835666
 11
86.622235
 21
106.885764
  0
LINE
  8
CSLAYER4
  6
CONTINUOUS
 62
     7
 10
86.622235
 20
106.885764
 11
86.568224
 21
106.934049
  0
LINE
  8
CSLAYER4
  6
CONTINUOUS
 62
     7
 10
86.568224
 20
106.934049
 11
86.512688
 21
106.980439
  0
LINE
  8
CSLAYER4
  6
CONTINUOUS
 62
     7
 10
86.512688
 20
106.980439
 11
86.455586
 21
107.024851
  0
LINE
  8
CSLAYER4
  6
CONTINUOUS
 62
     7
 10
86.455586
 20
107.024851
 11
86.396878
 21
107.067196
  0
LINE
  8
CSLAYER4
  6
CONTINUOUS
 62
     7
 10
86.396878
 20
107.067196
 11
86.336577
 21
107.107385
  0
LINE
  8
CSLAYER4
  6
CONTINUOUS
 62
     7
 10
86.336577
 20
107.107385
 11
86.274614
 21
107.145337
  0
LINE
  8
CSLAYER4
  6
CONTINUOUS
 62
     7
 10
86.274614
 20
107.145337
 11
86.211332
 21
107.180774
  0
LINE
  8
CSLAYER4
  6
CONTINUOUS
 62
     7
 10
86.211332
 20
107.180774
 11
86.147063
 21
107.213500
  0
LINE
  8
CSLAYER4
  6
CONTINUOUS
 62
     7
 10
86.147063
 20
107.213500
 11
86.081804
 21
107.243520
  0
LINE
  8
CSLAYER4
  6
CONTINUOUS
 62
     7
 10
86.081804
 20
107.243520
 11
86.015543
 21
107.270828
  0
LINE
  8
CSLAYER4
  6
CONTINUOUS
 62
     7
 10
86.015543
 20
107.270828
 11
85.948292
 21
107.295437
  0
LINE
  8
CSLAYER4
  6
CONTINUOUS
 62
     7
 10
85.948292
 20
107.295437
 11
85.880054
 21
107.317348
  0
LINE
  8
CSLAYER4
  6
CONTINUOUS
 62
     7
 10
85.880054
 20
107.317348
 11
85.810840
 21
107.336560
  0
LINE
  8
CSLAYER4
  6
CONTINUOUS
 62
     7
 10
85.810840
 20
107.336560
 11
85.740623
 21
107.353088
  0
LINE
  8
CSLAYER4
  6
CONTINUOUS
 62
     7
 10
85.740623
 20
107.353088
 11
85.669494
 21
107.366917
  0
LINE
  8
CSLAYER4
  6
CONTINUOUS
 62
     7
 10
85.669494
 20
107.366917
 11
85.597966
 21
107.377993
  0
LINE
  8
CSLAYER4
  6
CONTINUOUS
 62
     7
 10
85.597966
 20
107.377993
 11
85.526198
 21
107.386370
  0
LINE
  8
CSLAYER4
  6
CONTINUOUS
 62
     7
 10
85.526198
 20
107.386370
 11
85.454217
 21
107.392124
  0
LINE
  8
CSLAYER4
  6
CONTINUOUS
 62
     7
 10
85.454217
 20
107.392124
 11
85.382064
 21
107.395344
  0
LINE
  8
CSLAYER4
  6
CONTINUOUS
 62
     7
 10
85.382064
 20
107.395344
 11
85.309781
 21
107.396099
  0
LINE
  8
CSLAYER4
  6
CONTINUOUS
 62
     7
 10
85.309781
 20
107.396099
 11
85.237402
 21
107.394472
  0
LINE
  8
CSLAYER4
  6
CONTINUOUS
 62
     7
 10
85.237402
 20
107.394472
 11
85.161287
 21
107.390428
  0
LINE
  8
CSLAYER4
  6
CONTINUOUS
 62
     7
 10
85.161287
 20
107.390428
 11
85.085612
 21
107.383898
  0
LINE
  8
CSLAYER4
  6
CONTINUOUS
 62
     7
 10
85.085612
 20
107.383898
 11
85.010390
 21
107.374827
  0
LINE
  8
CSLAYER4
  6
CONTINUOUS
 62
     7
 10
85.010390
 20
107.374827
 11
84.935662
 21
107.363154
  0
LINE
  8
CSLAYER4
  6
CONTINUOUS
 62
     7
 10
84.935662
 20
107.363154
 11
84.861449
 21
107.348824
  0
LINE
  8
CSLAYER4
  6
CONTINUOUS
 62
     7
 10
84.861449
 20
107.348824
 11
84.787786
 21
107.331775
  0
LINE
  8
CSLAYER4
  6
CONTINUOUS
 62
     7
 10
84.787786
 20
107.331775
 11
84.714700
 21
107.311944
  0
LINE
  8
CSLAYER4
  6
CONTINUOUS
 62
     7
 10
84.714700
 20
107.311944
 11
84.642217
 21
107.289285
  0
LINE
  8
CSLAYER4
  6
CONTINUOUS
 62
     7
 10
84.642217
 20
107.289285
 11
84.570387
 21
107.263735
  0
LINE
  8
CSLAYER4
  6
CONTINUOUS
 62
     7
 10
84.570387
 20
107.263735
 11
84.499752
 21
107.235459
  0
LINE
  8
CSLAYER4
  6
CONTINUOUS
 62
     7
 10
84.499752
 20
107.235459
 11
84.430565
 21
107.204573
  0
LINE
  8
CSLAYER4
  6
CONTINUOUS
 62
     7
 10
84.430565
 20
107.204573
 11
84.362801
 21
107.171113
  0
LINE
  8
CSLAYER4
  6
CONTINUOUS
 62
     7
 10
84.362801
 20
107.171113
 11
84.296443
 21
107.135105
  0
LINE
  8
CSLAYER4
  6
CONTINUOUS
 62
     7
 10
84.296443
 20
107.135105
 11
84.231493
 21
107.096585
  0
LINE
  8
CSLAYER4
  6
CONTINUOUS
 62
     7
 10
84.231493
 20
107.096585
 11
84.167930
 21
107.055592
  0
LINE
  8
CSLAYER4
  6
CONTINUOUS
 62
     7
 10
84.167930
 20
107.055592
 11
84.105741
 21
107.012141
  0
LINE
  8
CSLAYER4
  6
CONTINUOUS
 62
     7
 10
84.105741
 20
107.012141
 11
84.044911
 21
106.966280
  0
LINE
  8
CSLAYER4
  6
CONTINUOUS
 62
     7
 10
84.044911
 20
106.966280
 11
83.985503
 21
106.918091
  0
LINE
  8
CSLAYER4
  6
CONTINUOUS
 62
     7
 10
83.985503
 20
106.918091
 11
83.927810
 21
106.867897
  0
LINE
  8
CSLAYER4
  6
CONTINUOUS
 62
     7
 10
83.927810
 20
106.867897
 11
83.871835
 21
106.815822
  0
LINE
  8
CSLAYER4
  6
CONTINUOUS
 62
     7
 10
83.871835
 20
106.815822
 11
83.817563
 21
106.761962
  0
LINE
  8
CSLAYER4
  6
CONTINUOUS
 62
     7
 10
83.817563
 20
106.761962
 11
83.764945
 21
106.706412
  0
LINE
  8
CSLAYER4
  6
CONTINUOUS
 62
     7
 10
83.764945
 20
106.706412
 11
83.713969
 21
106.649256
  0
LINE
  8
CSLAYER4
  6
CONTINUOUS
 62
     7
 10
83.713969
 20
106.649256
 11
83.664585
 21
106.590589
  0
LINE
  8
CSLAYER4
  6
CONTINUOUS
 62
     7
 10
83.664585
 20
106.590589
 11
83.629841
 21
106.542887
  0
LINE
  8
CSLAYER4
  6
CONTINUOUS
 62
     7
 10
83.629841
 20
106.542887
 11
83.596532
 21
106.494328
  0
LINE
  8
CSLAYER4
  6
CONTINUOUS
 62
     7
 10
83.596532
 20
106.494328
 11
83.564665
 21
106.444924
  0
LINE
  8
CSLAYER4
  6
CONTINUOUS
 62
     7
 10
83.564665
 20
106.444924
 11
83.534260
 21
106.394661
  0
LINE
  8
CSLAYER4
  6
CONTINUOUS
 62
     7
 10
83.534260
 20
106.394661
 11
83.505325
 21
106.343540
  0
LINE
  8
CSLAYER4
  6
CONTINUOUS
 62
     7
 10
83.505325
 20
106.343540
 11
83.477859
 21
106.291555
  0
LINE
  8
CSLAYER4
  6
CONTINUOUS
 62
     7
 10
83.477859
 20
106.291555
 11
83.451876
 21
106.238704
  0
LINE
  8
CSLAYER4
  6
CONTINUOUS
 62
     7
 10
83.451876
 20
106.238704
 11
83.427383
 21
106.184974
  0
LINE
  8
CSLAYER4
  6
CONTINUOUS
 62
     7
 10
83.427383
 20
106.184974
 11
83.404402
 21
106.130399
  0
LINE
  8
CSLAYER4
  6
CONTINUOUS
 62
     7
 10
83.404402
 20
106.130399
 11
83.383047
 21
106.075241
  0
LINE
  8
CSLAYER4
  6
CONTINUOUS
 62
     7
 10
83.383047
 20
106.075241
 11
83.363320
 21
106.019595
  0
LINE
  8
CSLAYER4
  6
CONTINUOUS
 62
     7
 10
83.363320
 20
106.019595
 11
83.345206
 21
105.963475
  0
LINE
  8
CSLAYER4
  6
CONTINUOUS
 62
     7
 10
83.345206
 20
105.963475
 11
83.328671
 21
105.906889
  0
LINE
  8
CSLAYER4
  6
CONTINUOUS
 62
     7
 10
83.328671
 20
105.906889
 11
83.313709
 21
105.849842
  0
LINE
  8
CSLAYER4
  6
CONTINUOUS
 62
     7
 10
83.313709
 20
105.849842
 11
83.300285
 21
105.792364
  0
LINE
  8
CSLAYER4
  6
CONTINUOUS
 62
     7
 10
83.300285
 20
105.792364
 11
83.288379
 21
105.734452
  0
LINE
  8
CSLAYER4
  6
CONTINUOUS
 62
     7
 10
83.288379
 20
105.734452
 11
83.277976
 21
105.676128
  0
LINE
  8
CSLAYER4
  6
CONTINUOUS
 62
     7
 10
83.277976
 20
105.676128
 11
83.269050
 21
105.617440
  0
LINE
  8
CSLAYER4
  6
CONTINUOUS
 62
     7
 10
83.269050
 20
105.617440
 11
83.261593
 21
105.558568
  0
LINE
  8
CSLAYER4
  6
CONTINUOUS
 62
     7
 10
83.261593
 20
105.558568
 11
83.255578
 21
105.499543
  0
LINE
  8
CSLAYER4
  6
CONTINUOUS
 62
     7
 10
83.255578
 20
105.499543
 11
83.250970
 21
105.440396
  0
LINE
  8
CSLAYER4
  6
CONTINUOUS
 62
     7
 10
83.250970
 20
105.440396
 11
83.247722
 21
105.381145
  0
LINE
  8
CSLAYER4
  6
CONTINUOUS
 62
     7
 10
83.247722
 20
105.381145
 11
83.245800
 21
105.321819
  0
LINE
  8
CSLAYER4
  6
CONTINUOUS
 62
     7
 10
83.245800
 20
105.321819
 11
83.245168
 21
105.262438
  0
LINE
  8
CSLAYER4
  6
CONTINUOUS
 62
     7
 10
83.245168
 20
105.262438
 11
83.245759
 21
105.204863
  0
LINE
  8
CSLAYER4
  6
CONTINUOUS
 62
     7
 10
83.245759
 20
105.204863
 11
83.247578
 21
105.147260
  0
LINE
  8
CSLAYER4
  6
CONTINUOUS
 62
     7
 10
83.247578
 20
105.147260
 11
83.250675
 21
105.089671
  0
LINE
  8
CSLAYER4
  6
CONTINUOUS
 62
     7
 10
83.250675
 20
105.089671
 11
83.255118
 21
105.032171
  0
LINE
  8
CSLAYER4
  6
CONTINUOUS
 62
     7
 10
83.255118
 20
105.032171
 11
83.260968
 21
104.974802
  0
LINE
  8
CSLAYER4
  6
CONTINUOUS
 62
     7
 10
83.260968
 20
104.974802
 11
83.268281
 21
104.917632
  0
LINE
  8
CSLAYER4
  6
CONTINUOUS
 62
     7
 10
83.268281
 20
104.917632
 11
83.277111
 21
104.860709
  0
LINE
  8
CSLAYER4
  6
CONTINUOUS
 62
     7
 10
83.277111
 20
104.860709
 11
83.287534
 21
104.804095
  0
LINE
  8
CSLAYER4
  6
CONTINUOUS
 62
     7
 10
83.287534
 20
104.804095
 11
83.299598
 21
104.747845
  0
LINE
  8
CSLAYER4
  6
CONTINUOUS
 62
     7
 10
83.299598
 20
104.747845
 11
83.313359
 21
104.692034
  0
LINE
  8
CSLAYER4
  6
CONTINUOUS
 62
     7
 10
83.313359
 20
104.692034
 11
83.328843
 21
104.636863
  0
LINE
  8
CSLAYER4
  6
CONTINUOUS
 62
     7
 10
83.328843
 20
104.636863
 11
83.346078
 21
104.582384
  0
LINE
  8
CSLAYER4
  6
CONTINUOUS
 62
     7
 10
83.346078
 20
104.582384
 11
83.365112
 21
104.528647
  0
LINE
  8
CSLAYER4
  6
CONTINUOUS
 62
     7
 10
83.365112
 20
104.528647
 11
83.385992
 21
104.475686
  0
LINE
  8
CSLAYER4
  6
CONTINUOUS
 62
     7
 10
83.385992
 20
104.475686
 11
83.408768
 21
104.423542
  0
LINE
  8
CSLAYER4
  6
CONTINUOUS
 62
     7
 10
83.408768
 20
104.423542
 11
83.433474
 21
104.372257
  0
LINE
  8
CSLAYER4
  6
CONTINUOUS
 62
     7
 10
83.433474
 20
104.372257
 11
83.460171
 21
104.321864
  0
LINE
  8
CSLAYER4
  6
CONTINUOUS
 62
     7
 10
83.460171
 20
104.321864
 11
83.488886
 21
104.272398
  0
LINE
  8
CSLAYER4
  6
CONTINUOUS
 62
     7
 10
83.488886
 20
104.272398
 11
83.519552
 21
104.224106
  0
LINE
  8
CSLAYER4
  6
CONTINUOUS
 62
     7
 10
83.519552
 20
104.224106
 11
83.552003
 21
104.177257
  0
LINE
  8
CSLAYER4
  6
CONTINUOUS
 62
     7
 10
83.552003
 20
104.177257
 11
83.586232
 21
104.131841
  0
LINE
  8
CSLAYER4
  6
CONTINUOUS
 62
     7
 10
83.586232
 20
104.131841
 11
83.622233
 21
104.087862
  0
LINE
  8
CSLAYER4
  6
CONTINUOUS
 62
     7
 10
83.622233
 20
104.087862
 11
83.660005
 21
104.045311
  0
LINE
  8
CSLAYER4
  6
CONTINUOUS
 62
     7
 10
83.660005
 20
104.045311
 11
83.699536
 21
104.004181
  0
LINE
  8
CSLAYER4
  6
CONTINUOUS
 62
     7
 10
83.699536
 20
104.004181
 11
83.722586
 21
103.981370
  0
LINE
  8
CSLAYER4
  6
CONTINUOUS
 62
     7
 10
83.722586
 20
103.981370
 11
83.745925
 21
103.958745
  0
LINE
  8
CSLAYER4
  6
CONTINUOUS
 62
     7
 10
83.745925
 20
103.958745
 11
83.769546
 21
103.936340
  0
LINE
  8
CSLAYER4
  6
CONTINUOUS
 62
     7
 10
83.769546
 20
103.936340
 11
83.793455
 21
103.914161
  0
LINE
  8
CSLAYER4
  6
CONTINUOUS
 62
     7
 10
83.793455
 20
103.914161
 11
83.817645
 21
103.892237
  0
LINE
  8
CSLAYER4
  6
CONTINUOUS
 62
     7
 10
83.817645
 20
103.892237
 11
83.842117
 21
103.870580
  0
LINE
  8
CSLAYER4
  6
CONTINUOUS
 62
     7
 10
83.842117
 20
103.870580
 11
83.866864
 21
103.849219
  0
LINE
  8
CSLAYER4
  6
CONTINUOUS
 62
     7
 10
83.866864
 20
103.849219
 11
83.891885
 21
103.828172
  0
LINE
  8
CSLAYER4
  6
CONTINUOUS
 62
     7
 10
83.891885
 20
103.828172
 11
83.917181
 21
103.807457
  0
LINE
  8
CSLAYER4
  6
CONTINUOUS
 62
     7
 10
83.917181
 20
103.807457
 11
83.942752
 21
103.787090
  0
LINE
  8
CSLAYER4
  6
CONTINUOUS
 62
     7
 10
83.942752
 20
103.787090
 11
83.968583
 21
103.767095
  0
LINE
  8
CSLAYER4
  6
CONTINUOUS
 62
     7
 10
83.968583
 20
103.767095
 11
83.994690
 21
103.747499
  0
LINE
  8
CSLAYER4
  6
CONTINUOUS
 62
     7
 10
83.994690
 20
103.747499
 11
84.021057
 21
103.728314
  0
LINE
  8
CSLAYER4
  6
CONTINUOUS
 62
     7
 10
84.021057
 20
103.728314
 11
84.047685
 21
103.709555
  0
LINE
  8
CSLAYER4
  6
CONTINUOUS
 62
     7
 10
84.047685
 20
103.709555
 11
84.074567
 21
103.691255
  0
LINE
  8
CSLAYER4
  6
CONTINUOUS
 62
     7
 10
84.074567
 20
103.691255
 11
84.101711
 21
103.673423
  0
LINE
  8
CSLAYER4
  6
CONTINUOUS
 62
     7
 10
84.101711
 20
103.673423
 11
84.129115
 21
103.656086
  0
LINE
  8
CSLAYER4
  6
CONTINUOUS
 62
     7
 10
84.129115
 20
103.656086
 11
84.156766
 21
103.639263
  0
LINE
  8
CSLAYER4
  6
CONTINUOUS
 62
     7
 10
84.156766
 20
103.639263
 11
84.184685
 21
103.622962
  0
LINE
  8
CSLAYER4
  6
CONTINUOUS
 62
     7
 10
84.184685
 20
103.622962
 11
84.212899
 21
103.607183
  0
LINE
  8
CSLAYER4
  6
CONTINUOUS
 62
     7
 10
84.212899
 20
103.607183
 11
84.241402
 21
103.591960
  0
LINE
  8
CSLAYER4
  6
CONTINUOUS
 62
     7
 10
84.241402
 20
103.591960
 11
84.270200
 21
103.577307
  0
LINE
  8
CSLAYER4
  6
CONTINUOUS
 62
     7
 10
84.270200
 20
103.577307
 11
84.299286
 21
103.563251
  0
LINE
  8
CSLAYER4
  6
CONTINUOUS
 62
     7
 10
84.299286
 20
103.563251
 11
84.328661
 21
103.549813
  0
LINE
  8
CSLAYER4
  6
CONTINUOUS
 62
     7
 10
85.796624
 20
102.920688
 11
84.328663
 21
103.549814
  0
LINE
  8
CSLAYER4
  6
CONTINUOUS
 62
     7
 10
85.796626
 20
102.920688
 11
85.838553
 21
102.901428
  0
LINE
  8
CSLAYER4
  6
CONTINUOUS
 62
     7
 10
85.838553
 20
102.901428
 11
85.879711
 21
102.880581
  0
LINE
  8
CSLAYER4
  6
CONTINUOUS
 62
     7
 10
85.879711
 20
102.880581
 11
85.920003
 21
102.858073
  0
LINE
  8
CSLAYER4
  6
CONTINUOUS
 62
     7
 10
85.920003
 20
102.858073
 11
85.959279
 21
102.833841
  0
LINE
  8
CSLAYER4
  6
CONTINUOUS
 62
     7
 10
85.959279
 20
102.833841
 11
85.997429
 21
102.807817
  0
LINE
  8
CSLAYER4
  6
CONTINUOUS
 62
     7
 10
85.997429
 20
102.807817
 11
86.034260
 21
102.779981
  0
LINE
  8
CSLAYER4
  6
CONTINUOUS
 62
     7
 10
86.034260
 20
102.779981
 11
86.069513
 21
102.750400
  0
LINE
  8
CSLAYER4
  6
CONTINUOUS
 62
     7
 10
86.069513
 20
102.750400
 11
86.103104
 21
102.719041
  0
LINE
  8
CSLAYER4
  6
CONTINUOUS
 62
     7
 10
86.103104
 20
102.719041
 11
86.134937
 21
102.685855
  0
LINE
  8
CSLAYER4
  6
CONTINUOUS
 62
     7
 10
86.134937
 20
102.685855
 11
86.164957
 21
102.650802
  0
LINE
  8
CSLAYER4
  6
CONTINUOUS
 62
     7
 10
86.164957
 20
102.650802
 11
86.192917
 21
102.614046
  0
LINE
  8
CSLAYER4
  6
CONTINUOUS
 62
     7
 10
86.192917
 20
102.614046
 11
86.218515
 21
102.576013
  0
LINE
  8
CSLAYER4
  6
CONTINUOUS
 62
     7
 10
86.218515
 20
102.576013
 11
86.241779
 21
102.536757
  0
LINE
  8
CSLAYER4
  6
CONTINUOUS
 62
     7
 10
86.241779
 20
102.536757
 11
86.262749
 21
102.496300
  0
LINE
  8
CSLAYER4
  6
CONTINUOUS
 62
     7
 10
86.262749
 20
102.496300
 11
86.281453
 21
102.454682
  0
LINE
  8
CSLAYER4
  6
CONTINUOUS
 62
     7
 10
86.281453
 20
102.454682
 11
86.297960
 21
102.411932
  0
LINE
  8
CSLAYER4
  6
CONTINUOUS
 62
     7
 10
86.297960
 20
102.411932
 11
86.312297
 21
102.368076
  0
LINE
  8
CSLAYER4
  6
CONTINUOUS
 62
     7
 10
86.312297
 20
102.368076
 11
86.324492
 21
102.323272
  0
LINE
  8
CSLAYER4
  6
CONTINUOUS
 62
     7
 10
86.324492
 20
102.323272
 11
86.334517
 21
102.277947
  0
LINE
  8
CSLAYER4
  6
CONTINUOUS
 62
     7
 10
86.334517
 20
102.277947
 11
86.342482
 21
102.232202
  0
LINE
  8
CSLAYER4
  6
CONTINUOUS
 62
     7
 10
86.342482
 20
102.232202
 11
86.348497
 21
102.186136
  0
LINE
  8
CSLAYER4
  6
CONTINUOUS
 62
     7
 10
86.348497
 20
102.186136
 11
86.352644
 21
102.139835
  0
LINE
  8
CSLAYER4
  6
CONTINUOUS
 62
     7
 10
86.352644
 20
102.139835
 11
86.355061
 21
102.093397
  0
LINE
  8
CSLAYER4
  6
CONTINUOUS
 62
     7
 10
86.355061
 20
102.093397
 11
86.355844
 21
102.046904
  0
LINE
  8
CSLAYER4
  6
CONTINUOUS
 62
     7
 10
86.355844
 20
102.046904
 11
86.354869
 21
102.003446
  0
LINE
  8
CSLAYER4
  6
CONTINUOUS
 62
     7
 10
86.354869
 20
102.003446
 11
86.351861
 21
101.960181
  0
LINE
  8
CSLAYER4
  6
CONTINUOUS
 62
     7
 10
86.351861
 20
101.960181
 11
86.346753
 21
101.917149
  0
LINE
  8
CSLAYER4
  6
CONTINUOUS
 62
     7
 10
86.346753
 20
101.917149
 11
86.339420
 21
101.874398
  0
LINE
  8
CSLAYER4
  6
CONTINUOUS
 62
     7
 10
86.339420
 20
101.874398
 11
86.329807
 21
101.832025
  0
LINE
  8
CSLAYER4
  6
CONTINUOUS
 62
     7
 10
86.329807
 20
101.832025
 11
86.317914
 21
101.790394
  0
LINE
  8
CSLAYER4
  6
CONTINUOUS
 62
     7
 10
86.317914
 20
101.790394
 11
86.303741
 21
101.749628
  0
LINE
  8
CSLAYER4
  6
CONTINUOUS
 62
     7
 10
86.303741
 20
101.749628
 11
86.287276
 21
101.709727
  0
LINE
  8
CSLAYER4
  6
CONTINUOUS
 62
     7
 10
86.287276
 20
101.709727
 11
86.268489
 21
101.670705
  0
LINE
  8
CSLAYER4
  6
CONTINUOUS
 62
     7
 10
86.268489
 20
101.670705
 11
86.247533
 21
101.632816
  0
LINE
  8
CSLAYER4
  6
CONTINUOUS
 62
     7
 10
86.247533
 20
101.632816
 11
86.224626
 21
101.596382
  0
LINE
  8
CSLAYER4
  6
CONTINUOUS
 62
     7
 10
86.224626
 20
101.596382
 11
86.199866
 21
101.561377
  0
LINE
  8
CSLAYER4
  6
CONTINUOUS
 62
     7
 10
86.199866
 20
101.561377
 11
86.173361
 21
101.527773
  0
LINE
  8
CSLAYER4
  6
CONTINUOUS
 62
     7
 10
86.173361
 20
101.527773
 11
86.145195
 21
101.495528
  0
LINE
  8
CSLAYER4
  6
CONTINUOUS
 62
     7
 10
86.145195
 20
101.495528
 11
86.115463
 21
101.464609
  0
LINE
  8
CSLAYER4
  6
CONTINUOUS
 62
     7
 10
86.115463
 20
101.464609
 11
86.084234
 21
101.434987
  0
LINE
  8
CSLAYER4
  6
CONTINUOUS
 62
     7
 10
86.084234
 20
101.434987
 11
86.051633
 21
101.406628
  0
LINE
  8
CSLAYER4
  6
CONTINUOUS
 62
     7
 10
86.051633
 20
101.406628
 11
86.017795
 21
101.379560
  0
LINE
  8
CSLAYER4
  6
CONTINUOUS
 62
     7
 10
86.017795
 20
101.379560
 11
85.982899
 21
101.353784
  0
LINE
  8
CSLAYER4
  6
CONTINUOUS
 62
     7
 10
85.982899
 20
101.353784
 11
85.947056
 21
101.329264
  0
LINE
  8
CSLAYER4
  6
CONTINUOUS
 62
     7
 10
85.947056
 20
101.329264
 11
85.910390
 21
101.305959
  0
LINE
  8
CSLAYER4
  6
CONTINUOUS
 62
     7
 10
85.910390
 20
101.305959
 11
85.873022
 21
101.283849
  0
LINE
  8
CSLAYER4
  6
CONTINUOUS
 62
     7
 10
85.873022
 20
101.283849
 11
85.835065
 21
101.262879
  0
LINE
  8
CSLAYER4
  6
CONTINUOUS
 62
     7
 10
85.835065
 20
101.262879
 11
85.796626
 21
101.243021
  0
LINE
  8
CSLAYER4
  6
CONTINUOUS
 62
     7
 10
85.796626
 20
101.243021
 11
85.759410
 21
101.232097
  0
LINE
  8
CSLAYER4
  6
CONTINUOUS
 62
     7
 10
85.759410
 20
101.232097
 11
85.722022
 21
101.222181
  0
LINE
  8
CSLAYER4
  6
CONTINUOUS
 62
     7
 10
85.722022
 20
101.222181
 11
85.684442
 21
101.213296
  0
LINE
  8
CSLAYER4
  6
CONTINUOUS
 62
     7
 10
85.684442
 20
101.213296
 11
85.646683
 21
101.205448
  0
LINE
  8
CSLAYER4
  6
CONTINUOUS
 62
     7
 10
85.646683
 20
101.205448
 11
85.608739
 21
101.198657
  0
LINE
  8
CSLAYER4
  6
CONTINUOUS
 62
     7
 10
85.608739
 20
101.198657
 11
85.570610
 21
101.192930
  0
LINE
  8
CSLAYER4
  6
CONTINUOUS
 62
     7
 10
85.570610
 20
101.192930
 11
85.532302
 21
101.188302
  0
LINE
  8
CSLAYER4
  6
CONTINUOUS
 62
     7
 10
85.532302
 20
101.188302
 11
85.493816
 21
101.184773
  0
LINE
  8
CSLAYER4
  6
CONTINUOUS
 62
     7
 10
85.493816
 20
101.184773
 11
85.455151
 21
101.182363
  0
LINE
  8
CSLAYER4
  6
CONTINUOUS
 62
     7
 10
85.455151
 20
101.182363
 11
85.416479
 21
101.181099
  0
LINE
  8
CSLAYER4
  6
CONTINUOUS
 62
     7
 10
85.416479
 20
101.181099
 11
85.377896
 21
101.180969
  0
LINE
  8
CSLAYER4
  6
CONTINUOUS
 62
     7
 10
85.377896
 20
101.180969
 11
85.339396
 21
101.181964
  0
LINE
  8
CSLAYER4
  6
CONTINUOUS
 62
     7
 10
85.339396
 20
101.181964
 11
85.300971
 21
101.184093
  0
LINE
  8
CSLAYER4
  6
CONTINUOUS
 62
     7
 10
85.300971
 20
101.184093
 11
85.262636
 21
101.187327
  0
LINE
  8
CSLAYER4
  6
CONTINUOUS
 62
     7
 10
85.262636
 20
101.187327
 11
85.224383
 21
101.191681
  0
LINE
  8
CSLAYER4
  6
CONTINUOUS
 62
     7
 10
85.224383
 20
101.191681
 11
85.186205
 21
101.197132
  0
LINE
  8
CSLAYER4
  6
CONTINUOUS
 62
     7
 10
85.186205
 20
101.197132
 11
85.148117
 21
101.203676
  0
LINE
  8
CSLAYER4
  6
CONTINUOUS
 62
     7
 10
85.148117
 20
101.203676
 11
85.110132
 21
101.211305
  0
LINE
  8
CSLAYER4
  6
CONTINUOUS
 62
     7
 10
85.110132
 20
101.211305
 11
85.072400
 21
101.219970
  0
LINE
  8
CSLAYER4
  6
CONTINUOUS
 62
     7
 10
85.072400
 20
101.219970
 11
85.034937
 21
101.229645
  0
LINE
  8
CSLAYER4
  6
CONTINUOUS
 62
     7
 10
85.034937
 20
101.229645
 11
84.997756
 21
101.240309
  0
LINE
  8
CSLAYER4
  6
CONTINUOUS
 62
     7
 10
84.997756
 20
101.240309
 11
84.960855
 21
101.251934
  0
LINE
  8
CSLAYER4
  6
CONTINUOUS
 62
     7
 10
84.960855
 20
101.251934
 11
84.924229
 21
101.264492
  0
LINE
  8
CSLAYER4
  6
CONTINUOUS
 62
     7
 10
84.924229
 20
101.264492
 11
84.887885
 21
101.277971
  0
LINE
  8
CSLAYER4
  6
CONTINUOUS
 62
     7
 10
84.887885
 20
101.277971
 11
84.862486
 21
101.288435
  0
LINE
  8
CSLAYER4
  6
CONTINUOUS
 62
     7
 10
84.862486
 20
101.288435
 11
84.837286
 21
101.299436
  0
LINE
  8
CSLAYER4
  6
CONTINUOUS
 62
     7
 10
84.837286
 20
101.299436
 11
84.812333
 21
101.310992
  0
LINE
  8
CSLAYER4
  6
CONTINUOUS
 62
     7
 10
84.812333
 20
101.310992
 11
84.787642
 21
101.323111
  0
LINE
  8
CSLAYER4
  6
CONTINUOUS
 62
     7
 10
84.787642
 20
101.323111
 11
84.763246
 21
101.335821
  0
LINE
  8
CSLAYER4
  6
CONTINUOUS
 62
     7
 10
84.763246
 20
101.335821
 11
84.739172
 21
101.349121
  0
LINE
  8
CSLAYER4
  6
CONTINUOUS
 62
     7
 10
84.739172
 20
101.349121
 11
84.715455
 21
101.363040
  0
LINE
  8
CSLAYER4
  6
CONTINUOUS
 62
     7
 10
84.715455
 20
101.363040
 11
84.692116
 21
101.377590
  0
LINE
  8
CSLAYER4
  6
CONTINUOUS
 62
     7
 10
84.692116
 20
101.377590
 11
84.669182
 21
101.392778
  0
LINE
  8
CSLAYER4
  6
CONTINUOUS
 62
     7
 10
84.669182
 20
101.392778
 11
84.646701
 21
101.408619
  0
LINE
  8
CSLAYER4
  6
CONTINUOUS
 62
     7
 10
84.646701
 20
101.408619
 11
84.624742
 21
101.425085
  0
LINE
  8
CSLAYER4
  6
CONTINUOUS
 62
     7
 10
84.624742
 20
101.425085
 11
84.603340
 21
101.442182
  0
LINE
  8
CSLAYER4
  6
CONTINUOUS
 62
     7
 10
84.603340
 20
101.442182
 11
84.582514
 21
101.459926
  0
LINE
  8
CSLAYER4
  6
CONTINUOUS
 62
     7
 10
84.582514
 20
101.459926
 11
84.562278
 21
101.478320
  0
LINE
  8
CSLAYER4
  6
CONTINUOUS
 62
     7
 10
84.562278
 20
101.478320
 11
84.542654
 21
101.497382
  0
LINE
  8
CSLAYER4
  6
CONTINUOUS
 62
     7
 10
84.542654
 20
101.497382
 11
84.523661
 21
101.517123
  0
LINE
  8
CSLAYER4
  6
CONTINUOUS
 62
     7
 10
84.523661
 20
101.517123
 11
84.505321
 21
101.537551
  0
LINE
  8
CSLAYER4
  6
CONTINUOUS
 62
     7
 10
84.505321
 20
101.537551
 11
84.487654
 21
101.558679
  0
LINE
  8
CSLAYER4
  6
CONTINUOUS
 62
     7
 10
84.487654
 20
101.558679
 11
84.470741
 21
101.580439
  0
LINE
  8
CSLAYER4
  6
CONTINUOUS
 62
     7
 10
84.470741
 20
101.580439
 11
84.454653
 21
101.602748
  0
LINE
  8
CSLAYER4
  6
CONTINUOUS
 62
     7
 10
84.454653
 20
101.602748
 11
84.439396
 21
101.625592
  0
LINE
  8
CSLAYER4
  6
CONTINUOUS
 62
     7
 10
84.439396
 20
101.625592
 11
84.424963
 21
101.648980
  0
LINE
  8
CSLAYER4
  6
CONTINUOUS
 62
     7
 10
84.424963
 20
101.648980
 11
84.411353
 21
101.672916
  0
LINE
  8
CSLAYER4
  6
CONTINUOUS
 62
     7
 10
84.411353
 20
101.672916
 11
84.398568
 21
101.697388
  0
LINE
  8
CSLAYER4
  6
CONTINUOUS
 62
     7
 10
84.398568
 20
101.697388
 11
84.384842
 21
101.725787
  0
LINE
  8
CSLAYER4
  6
CONTINUOUS
 62
     7
 10
84.384842
 20
101.725787
 11
84.371638
 21
101.754984
  0
LINE
  8
CSLAYER4
  6
CONTINUOUS
 62
     7
 10
84.371638
 20
101.754984
 11
84.358949
 21
101.784928
  0
LINE
  8
CSLAYER4
  6
CONTINUOUS
 62
     7
 10
84.358949
 20
101.784928
 11
84.346754
 21
101.815573
  0
LINE
  8
CSLAYER4
  6
CONTINUOUS
 62
     7
 10
84.346754
 20
101.815573
 11
84.335047
 21
101.846864
  0
LINE
  8
CSLAYER4
  6
CONTINUOUS
 62
     7
 10
84.335047
 20
101.846864
 11
84.323820
 21
101.878745
  0
LINE
  8
CSLAYER4
  6
CONTINUOUS
 62
     7
 10
84.323820
 20
101.878745
 11
84.313053
 21
101.911162
  0
LINE
  8
CSLAYER4
  6
CONTINUOUS
 62
     7
 10
84.313053
 20
101.911162
 11
84.302733
 21
101.944079
  0
LINE
  8
CSLAYER4
  6
CONTINUOUS
 62
     7
 10
84.302733
 20
101.944079
 11
84.292859
 21
101.977423
  0
LINE
  8
CSLAYER4
  6
CONTINUOUS
 62
     7
 10
84.292859
 20
101.977423
 11
84.283418
 21
102.011164
  0
LINE
  8
CSLAYER4
  6
CONTINUOUS
 62
     7
 10
84.283418
 20
102.011164
 11
84.274388
 21
102.045236
  0
LINE
  8
CSLAYER4
  6
CONTINUOUS
 62
     7
 10
84.274388
 20
102.045236
 11
84.265764
 21
102.079589
  0
LINE
  8
CSLAYER4
  6
CONTINUOUS
 62
     7
 10
84.265764
 20
102.079589
 11
84.257531
 21
102.114175
  0
LINE
  8
CSLAYER4
  6
CONTINUOUS
 62
     7
 10
84.257531
 20
102.114175
 11
84.249683
 21
102.148940
  0
LINE
  8
CSLAYER4
  6
CONTINUOUS
 62
     7
 10
84.249683
 20
102.148940
 11
84.242198
 21
102.183829
  0
LINE
  8
CSLAYER4
  6
CONTINUOUS
 62
     7
 10
84.242198
 20
102.183829
 11
84.235078
 21
102.218799
  0
LINE
  8
CSLAYER4
  6
CONTINUOUS
 62
     7
 10
84.235078
 20
102.218799
 11
84.228293
 21
102.253804
  0
LINE
  8
CSLAYER4
  6
CONTINUOUS
 62
     7
 10
84.228293
 20
102.253804
 11
84.221825
 21
102.288947
  0
LINE
  8
CSLAYER4
  6
CONTINUOUS
 62
     7
 10
84.221825
 20
102.288947
 11
84.215645
 21
102.324220
  0
LINE
  8
CSLAYER4
  6
CONTINUOUS
 62
     7
 10
84.215645
 20
102.324220
 11
84.209747
 21
102.359596
  0
LINE
  8
CSLAYER4
  6
CONTINUOUS
 62
     7
 10
84.209747
 20
102.359596
 11
84.204131
 21
102.395027
  0
LINE
  8
CSLAYER4
  6
CONTINUOUS
 62
     7
 10
84.204131
 20
102.395027
 11
84.198782
 21
102.430471
  0
LINE
  8
CSLAYER4
  6
CONTINUOUS
 62
     7
 10
84.198782
 20
102.430471
 11
84.193694
 21
102.465902
  0
LINE
  8
CSLAYER4
  6
CONTINUOUS
 62
     7
 10
84.193694
 20
102.465902
 11
84.188860
 21
102.501271
  0
LINE
  8
CSLAYER4
  6
CONTINUOUS
 62
     7
 10
83.070411
 20
102.501271
 11
84.188858
 21
102.501271
  0
LINE
  8
CSLAYER4
  6
CONTINUOUS
 62
     7
 10
83.070410
 20
102.501271
 11
83.080847
 21
102.377325
  0
LINE
  8
CSLAYER4
  6
CONTINUOUS
 62
     7
 10
83.080847
 20
102.377325
 11
83.094319
 21
102.253172
  0
LINE
  8
CSLAYER4
  6
CONTINUOUS
 62
     7
 10
83.094319
 20
102.253172
 11
83.111053
 21
102.129164
  0
LINE
  8
CSLAYER4
  6
CONTINUOUS
 62
     7
 10
83.111053
 20
102.129164
 11
83.131274
 21
102.005671
  0
LINE
  8
CSLAYER4
  6
CONTINUOUS
 62
     7
 10
83.131274
 20
102.005671
 11
83.155211
 21
101.883057
  0
LINE
  8
CSLAYER4
  6
CONTINUOUS
 62
     7
 10
83.155211
 20
101.883057
 11
83.183089
 21
101.761679
  0
LINE
  8
CSLAYER4
  6
CONTINUOUS
 62
     7
 10
83.183089
 20
101.761679
 11
83.215155
 21
101.641818
  0
LINE
  8
CSLAYER4
  6
CONTINUOUS
 62
     7
 10
83.215155
 20
101.641818
 11
83.251835
 21
101.523282
  0
LINE
  8
CSLAYER4
  6
CONTINUOUS
 62
     7
 10
83.251835
 20
101.523282
 11
83.293453
 21
101.406408
  0
LINE
  8
CSLAYER4
  6
CONTINUOUS
 62
     7
 10
83.293453
 20
101.406408
 11
83.340303
 21
101.291649
  0
LINE
  8
CSLAYER4
  6
CONTINUOUS
 62
     7
 10
83.340303
 20
101.291649
 11
83.392681
 21
101.179479
  0
LINE
  8
CSLAYER4
  6
CONTINUOUS
 62
     7
 10
83.392681
 20
101.179479
 11
83.450881
 21
101.070337
  0
LINE
  8
CSLAYER4
  6
CONTINUOUS
 62
     7
 10
83.450881
 20
101.070337
 11
83.514958
 21
100.965074
  0
LINE
  8
CSLAYER4
  6
CONTINUOUS
 62
     7
 10
83.514958
 20
100.965074
 11
83.584708
 21
100.864652
  0
LINE
  8
CSLAYER4
  6
CONTINUOUS
 62
     7
 10
83.584708
 20
100.864652
 11
83.660308
 21
100.769318
  0
LINE
  8
CSLAYER4
  6
CONTINUOUS
 62
     7
 10
83.660308
 20
100.769318
 11
83.741915
 21
100.679312
  0
LINE
  8
CSLAYER4
  6
CONTINUOUS
 62
     7
 10
83.741915
 20
100.679312
 11
83.829710
 21
100.594855
  0
LINE
  8
CSLAYER4
  6
CONTINUOUS
 62
     7
 10
83.829710
 20
100.594855
 11
83.923828
 21
100.516214
  0
LINE
  8
CSLAYER4
  6
CONTINUOUS
 62
     7
 10
83.923828
 20
100.516214
 11
84.022897
 21
100.444637
  0
LINE
  8
CSLAYER4
  6
CONTINUOUS
 62
     7
 10
84.022897
 20
100.444637
 11
84.125935
 21
100.380580
  0
LINE
  8
CSLAYER4
  6
CONTINUOUS
 62
     7
 10
84.125935
 20
100.380580
 11
84.232715
 21
100.323781
  0
LINE
  8
CSLAYER4
  6
CONTINUOUS
 62
     7
 10
84.232715
 20
100.323781
 11
84.343018
 21
100.273999
  0
LINE
  8
CSLAYER4
  6
CONTINUOUS
 62
     7
 10
84.343018
 20
100.273999
 11
84.456631
 21
100.230981
  0
LINE
  8
CSLAYER4
  6
CONTINUOUS
 62
     7
 10
84.456631
 20
100.230981
 11
84.573326
 21
100.194472
  0
ENDBLK
  8
0
  0
BLOCK
  8
CSLAYER1
  2
BLKF0004
 70
   64
 10
0.0
 20
0.0
 30
0.0
  0
LINE
  8
CSLAYER4
  6
CONTINUOUS
 62
     7
 10
98.575867
 20
101.813404
 11
98.561255
 21
101.772857
  0
LINE
  8
CSLAYER4
  6
CONTINUOUS
 62
     7
 10
98.561255
 20
101.772857
 11
98.545668
 21
101.732071
  0
LINE
  8
CSLAYER4
  6
CONTINUOUS
 62
     7
 10
98.545668
 20
101.732071
 11
98.529065
 21
101.691250
  0
LINE
  8
CSLAYER4
  6
CONTINUOUS
 62
     7
 10
98.529065
 20
101.691250
 11
98.511432
 21
101.650607
  0
LINE
  8
CSLAYER4
  6
CONTINUOUS
 62
     7
 10
98.511432
 20
101.650607
 11
98.492714
 21
101.610335
  0
LINE
  8
CSLAYER4
  6
CONTINUOUS
 62
     7
 10
98.492714
 20
101.610335
 11
98.472898
 21
101.570640
  0
LINE
  8
CSLAYER4
  6
CONTINUOUS
 62
     7
 10
98.472898
 20
101.570640
 11
98.451928
 21
101.531735
  0
LINE
  8
CSLAYER4
  6
CONTINUOUS
 62
     7
 10
98.451928
 20
101.531735
 11
98.429804
 21
101.493818
  0
LINE
  8
CSLAYER4
  6
CONTINUOUS
 62
     7
 10
98.429804
 20
101.493818
 11
98.406485
 21
101.457097
  0
LINE
  8
CSLAYER4
  6
CONTINUOUS
 62
     7
 10
98.406485
 20
101.457097
 11
98.381931
 21
101.421769
  0
LINE
  8
CSLAYER4
  6
CONTINUOUS
 62
     7
 10
98.381931
 20
101.421769
 11
98.355824
 21
101.387690
  0
LINE
  8
CSLAYER4
  6
CONTINUOUS
 62
     7
 10
98.355824
 20
101.387690
 11
98.327974
 21
101.354951
  0
LINE
  8
CSLAYER4
  6
CONTINUOUS
 62
     7
 10
98.327974
 20
101.354951
 11
98.298298
 21
101.323894
  0
LINE
  8
CSLAYER4
  6
CONTINUOUS
 62
     7
 10
98.298298
 20
101.323894
 11
98.266766
 21
101.294856
  0
LINE
  8
CSLAYER4
  6
CONTINUOUS
 62
     7
 10
98.266766
 20
101.294856
 11
98.233313
 21
101.268166
  0
LINE
  8
CSLAYER4
  6
CONTINUOUS
 62
     7
 10
98.233313
 20
101.268166
 11
98.198033
 21
101.244271
  0
LINE
  8
CSLAYER4
  6
CONTINUOUS
 62
     7
 10
98.198033
 20
101.244271
 11
98.161216
 21
101.223610
  0
LINE
  8
CSLAYER4
  6
CONTINUOUS
 62
     7
 10
98.161216
 20
101.223610
 11
98.122846
 21
101.206368
  0
LINE
  8
CSLAYER4
  6
CONTINUOUS
 62
     7
 10
98.122846
 20
101.206368
 11
98.082869
 21
101.192697
  0
LINE
  8
CSLAYER4
  6
CONTINUOUS
 62
     7
 10
98.082869
 20
101.192697
 11
98.041492
 21
101.182816
  0
LINE
  8
CSLAYER4
  6
CONTINUOUS
 62
     7
 10
98.041492
 20
101.182816
 11
97.999717
 21
101.176924
  0
LINE
  8
CSLAYER4
  6
CONTINUOUS
 62
     7
 10
97.999717
 20
101.176924
 11
97.957735
 21
101.174837
  0
LINE
  8
CSLAYER4
  6
CONTINUOUS
 62
     7
 10
97.957735
 20
101.174837
 11
97.915616
 21
101.176334
  0
LINE
  8
CSLAYER4
  6
CONTINUOUS
 62
     7
 10
97.915616
 20
101.176334
 11
97.873415
 21
101.181209
  0
LINE
  8
CSLAYER4
  6
CONTINUOUS
 62
     7
 10
97.873415
 20
101.181209
 11
97.834619
 21
101.191138
  0
LINE
  8
CSLAYER4
  6
CONTINUOUS
 62
     7
 10
97.834619
 20
101.191138
 11
97.797101
 21
101.205063
  0
LINE
  8
CSLAYER4
  6
CONTINUOUS
 62
     7
 10
97.797101
 20
101.205063
 11
97.761011
 21
101.222737
  0
LINE
  8
CSLAYER4
  6
CONTINUOUS
 62
     7
 10
97.761011
 20
101.222737
 11
97.726761
 21
101.243687
  0
LINE
  8
CSLAYER4
  6
CONTINUOUS
 62
     7
 10
97.726761
 20
101.243687
 11
97.694324
 21
101.267541
  0
LINE
  8
CSLAYER4
  6
CONTINUOUS
 62
     7
 10
97.694324
 20
101.267541
 11
97.663658
 21
101.293915
  0
LINE
  8
CSLAYER4
  6
CONTINUOUS
 62
     7
 10
97.663658
 20
101.293915
 11
97.634737
 21
101.322445
  0
LINE
  8
CSLAYER4
  6
CONTINUOUS
 62
     7
 10
97.634737
 20
101.322445
 11
97.607546
 21
101.352747
  0
LINE
  8
CSLAYER4
  6
CONTINUOUS
 62
     7
 10
97.607546
 20
101.352747
 11
97.582016
 21
101.384435
  0
LINE
  8
CSLAYER4
  6
CONTINUOUS
 62
     7
 10
97.582016
 20
101.384435
 11
97.558121
 21
101.417147
  0
LINE
  8
CSLAYER4
  6
CONTINUOUS
 62
     7
 10
97.558121
 20
101.417147
 11
97.535489
 21
101.451013
  0
LINE
  8
CSLAYER4
  6
CONTINUOUS
 62
     7
 10
97.535489
 20
101.451013
 11
97.513695
 21
101.486437
  0
LINE
  8
CSLAYER4
  6
CONTINUOUS
 62
     7
 10
97.513695
 20
101.486437
 11
97.492739
 21
101.523296
  0
LINE
  8
CSLAYER4
  6
CONTINUOUS
 62
     7
 10
97.492739
 20
101.523296
 11
97.472579
 21
101.561467
  0
LINE
  8
CSLAYER4
  6
CONTINUOUS
 62
     7
 10
97.472579
 20
101.561467
 11
97.453229
 21
101.600832
  0
LINE
  8
CSLAYER4
  6
CONTINUOUS
 62
     7
 10
97.453229
 20
101.600832
 11
97.434635
 21
101.641276
  0
LINE
  8
CSLAYER4
  6
CONTINUOUS
 62
     7
 10
97.434635
 20
101.641276
 11
97.416796
 21
101.682667
  0
LINE
  8
CSLAYER4
  6
CONTINUOUS
 62
     7
 10
97.416796
 20
101.682667
 11
97.399684
 21
101.724895
  0
LINE
  8
CSLAYER4
  6
CONTINUOUS
 62
     7
 10
97.399684
 20
101.724895
 11
97.383301
 21
101.767838
  0
LINE
  8
CSLAYER4
  6
CONTINUOUS
 62
     7
 10
97.383301
 20
101.767838
 11
97.367618
 21
101.811371
  0
LINE
  8
CSLAYER4
  6
CONTINUOUS
 62
     7
 10
97.367618
 20
101.811371
 11
97.352608
 21
101.855371
  0
LINE
  8
CSLAYER4
  6
CONTINUOUS
 62
     7
 10
97.352608
 20
101.855371
 11
97.338257
 21
101.899729
  0
LINE
  8
CSLAYER4
  6
CONTINUOUS
 62
     7
 10
97.338257
 20
101.899729
 11
97.324552
 21
101.944319
  0
LINE
  8
CSLAYER4
  6
CONTINUOUS
 62
     7
 10
97.324552
 20
101.944319
 11
97.311464
 21
101.989013
  0
LINE
  8
CSLAYER4
  6
CONTINUOUS
 62
     7
 10
97.311464
 20
101.989013
 11
97.291757
 21
102.056963
  0
LINE
  8
CSLAYER4
  6
CONTINUOUS
 62
     7
 10
97.291757
 20
102.056963
 11
97.273232
 21
102.125381
  0
LINE
  8
CSLAYER4
  6
CONTINUOUS
 62
     7
 10
97.273232
 20
102.125381
 11
97.255859
 21
102.194210
  0
LINE
  8
CSLAYER4
  6
CONTINUOUS
 62
     7
 10
97.255859
 20
102.194210
 11
97.239614
 21
102.263390
  0
LINE
  8
CSLAYER4
  6
CONTINUOUS
 62
     7
 10
97.239614
 20
102.263390
 11
97.224439
 21
102.332885
  0
LINE
  8
CSLAYER4
  6
CONTINUOUS
 62
     7
 10
97.224439
 20
102.332885
 11
97.210335
 21
102.402628
  0
LINE
  8
CSLAYER4
  6
CONTINUOUS
 62
     7
 10
97.210335
 20
102.402628
 11
97.197247
 21
102.472563
  0
LINE
  8
CSLAYER4
  6
CONTINUOUS
 62
     7
 10
97.197247
 20
102.472563
 11
97.185149
 21
102.542642
  0
LINE
  8
CSLAYER4
  6
CONTINUOUS
 62
     7
 10
97.185149
 20
102.542642
 11
97.174012
 21
102.612810
  0
LINE
  8
CSLAYER4
  6
CONTINUOUS
 62
     7
 10
97.174012
 20
102.612810
 11
97.163808
 21
102.683006
  0
LINE
  8
CSLAYER4
  6
CONTINUOUS
 62
     7
 10
97.163808
 20
102.683006
 11
97.154497
 21
102.753188
  0
LINE
  8
CSLAYER4
  6
CONTINUOUS
 62
     7
 10
97.154497
 20
102.753188
 11
97.146024
 21
102.823432
  0
LINE
  8
CSLAYER4
  6
CONTINUOUS
 62
     7
 10
97.146024
 20
102.823432
 11
97.138375
 21
102.893916
  0
LINE
  8
CSLAYER4
  6
CONTINUOUS
 62
     7
 10
97.138375
 20
102.893916
 11
97.131481
 21
102.964606
  0
LINE
  8
CSLAYER4
  6
CONTINUOUS
 62
     7
 10
97.131481
 20
102.964606
 11
97.125356
 21
103.035461
  0
LINE
  8
CSLAYER4
  6
CONTINUOUS
 62
     7
 10
97.125356
 20
103.035461
 11
97.119959
 21
103.106453
  0
LINE
  8
CSLAYER4
  6
CONTINUOUS
 62
     7
 10
97.119959
 20
103.106453
 11
97.115290
 21
103.177541
  0
LINE
  8
CSLAYER4
  6
CONTINUOUS
 62
     7
 10
97.115290
 20
103.177541
 11
97.111293
 21
103.248692
  0
LINE
  8
CSLAYER4
  6
CONTINUOUS
 62
     7
 10
97.111293
 20
103.248692
 11
97.107983
 21
103.319863
  0
LINE
  8
CSLAYER4
  6
CONTINUOUS
 62
     7
 10
97.107983
 20
103.319863
 11
97.105319
 21
103.391027
  0
LINE
  8
CSLAYER4
  6
CONTINUOUS
 62
     7
 10
97.105319
 20
103.391027
 11
97.103287
 21
103.462150
  0
LINE
  8
CSLAYER4
  6
CONTINUOUS
 62
     7
 10
97.103287
 20
103.462150
 11
97.101859
 21
103.533183
  0
LINE
  8
CSLAYER4
  6
CONTINUOUS
 62
     7
 10
97.101859
 20
103.533183
 11
97.101007
 21
103.604107
  0
LINE
  8
CSLAYER4
  6
CONTINUOUS
 62
     7
 10
97.101007
 20
103.604107
 11
97.100732
 21
103.674872
  0
LINE
  8
CSLAYER4
  6
CONTINUOUS
 62
     7
 10
97.100732
 20
103.674872
 11
97.100980
 21
103.750925
  0
LINE
  8
CSLAYER4
  6
CONTINUOUS
 62
     7
 10
97.100980
 20
103.750925
 11
97.101735
 21
103.827335
  0
LINE
  8
CSLAYER4
  6
CONTINUOUS
 62
     7
 10
97.101735
 20
103.827335
 11
97.103012
 21
103.904020
  0
LINE
  8
CSLAYER4
  6
CONTINUOUS
 62
     7
 10
97.103012
 20
103.904020
 11
97.104853
 21
103.980917
  0
LINE
  8
CSLAYER4
  6
CONTINUOUS
 62
     7
 10
97.104853
 20
103.980917
 11
97.107283
 21
104.057965
  0
LINE
  8
CSLAYER4
  6
CONTINUOUS
 62
     7
 10
97.107283
 20
104.057965
 11
97.110318
 21
104.135083
  0
LINE
  8
CSLAYER4
  6
CONTINUOUS
 62
     7
 10
97.110318
 20
104.135083
 11
97.113998
 21
104.212213
  0
LINE
  8
CSLAYER4
  6
CONTINUOUS
 62
     7
 10
97.113998
 20
104.212213
 11
97.118338
 21
104.289289
  0
LINE
  8
CSLAYER4
  6
CONTINUOUS
 62
     7
 10
97.118338
 20
104.289289
 11
97.123378
 21
104.366235
  0
LINE
  8
CSLAYER4
  6
CONTINUOUS
 62
     7
 10
97.123378
 20
104.366235
 11
97.129118
 21
104.442988
  0
LINE
  8
CSLAYER4
  6
CONTINUOUS
 62
     7
 10
97.129118
 20
104.442988
 11
97.135614
 21
104.519480
  0
LINE
  8
CSLAYER4
  6
CONTINUOUS
 62
     7
 10
97.135614
 20
104.519480
 11
97.142865
 21
104.595643
  0
LINE
  8
CSLAYER4
  6
CONTINUOUS
 62
     7
 10
97.142865
 20
104.595643
 11
97.150927
 21
104.671415
  0
LINE
  8
CSLAYER4
  6
CONTINUOUS
 62
     7
 10
97.150927
 20
104.671415
 11
97.159825
 21
104.746959
  0
LINE
  8
CSLAYER4
  6
CONTINUOUS
 62
     7
 10
97.159825
 20
104.746959
 11
97.169713
 21
104.822882
  0
LINE
  8
CSLAYER4
  6
CONTINUOUS
 62
     7
 10
97.169713
 20
104.822882
 11
97.180617
 21
104.899065
  0
LINE
  8
CSLAYER4
  6
CONTINUOUS
 62
     7
 10
97.180617
 20
104.899065
 11
97.192619
 21
104.975379
  0
LINE
  8
CSLAYER4
  6
CONTINUOUS
 62
     7
 10
97.192619
 20
104.975379
 11
97.205762
 21
105.051679
  0
LINE
  8
CSLAYER4
  6
CONTINUOUS
 62
     7
 10
97.205762
 20
105.051679
 11
97.220099
 21
105.127821
  0
LINE
  8
CSLAYER4
  6
CONTINUOUS
 62
     7
 10
97.220099
 20
105.127821
 11
97.235672
 21
105.203661
  0
LINE
  8
CSLAYER4
  6
CONTINUOUS
 62
     7
 10
97.235672
 20
105.203661
 11
97.252550
 21
105.279068
  0
LINE
  8
CSLAYER4
  6
CONTINUOUS
 62
     7
 10
97.252550
 20
105.279068
 11
97.270760
 21
105.353885
  0
LINE
  8
CSLAYER4
  6
CONTINUOUS
 62
     7
 10
97.270760
 20
105.353885
 11
97.290384
 21
105.427981
  0
LINE
  8
CSLAYER4
  6
CONTINUOUS
 62
     7
 10
97.290384
 20
105.427981
 11
97.311464
 21
105.501212
  0
LINE
  8
CSLAYER4
  6
CONTINUOUS
 62
     7
 10
97.311464
 20
105.501212
 11
97.318578
 21
105.526948
  0
LINE
  8
CSLAYER4
  6
CONTINUOUS
 62
     7
 10
97.318578
 20
105.526948
 11
97.325911
 21
105.552765
  0
LINE
  8
CSLAYER4
  6
CONTINUOUS
 62
     7
 10
97.325911
 20
105.552765
 11
97.333464
 21
105.578645
  0
LINE
  8
CSLAYER4
  6
CONTINUOUS
 62
     7
 10
97.333464
 20
105.578645
 11
97.341237
 21
105.604545
  0
LINE
  8
CSLAYER4
  6
CONTINUOUS
 62
     7
 10
97.341237
 20
105.604545
 11
97.349230
 21
105.630445
  0
LINE
  8
CSLAYER4
  6
CONTINUOUS
 62
     7
 10
97.349230
 20
105.630445
 11
97.357469
 21
105.656318
  0
LINE
  8
CSLAYER4
  6
CONTINUOUS
 62
     7
 10
97.357469
 20
105.656318
 11
97.365929
 21
105.682129
  0
LINE
  8
CSLAYER4
  6
CONTINUOUS
 62
     7
 10
97.365929
 20
105.682129
 11
97.374622
 21
105.707858
  0
LINE
  8
CSLAYER4
  6
CONTINUOUS
 62
     7
 10
97.374622
 20
105.707858
 11
97.383548
 21
105.733463
  0
LINE
  8
CSLAYER4
  6
CONTINUOUS
 62
     7
 10
97.383548
 20
105.733463
 11
97.392736
 21
105.758924
  0
LINE
  8
CSLAYER4
  6
CONTINUOUS
 62
     7
 10
97.392736
 20
105.758924
 11
97.402156
 21
105.784213
  0
LINE
  8
CSLAYER4
  6
CONTINUOUS
 62
     7
 10
97.402156
 20
105.784213
 11
97.411810
 21
105.809303
  0
LINE
  8
CSLAYER4
  6
CONTINUOUS
 62
     7
 10
97.411810
 20
105.809303
 11
97.421740
 21
105.834152
  0
LINE
  8
CSLAYER4
  6
CONTINUOUS
 62
     7
 10
97.421740
 20
105.834152
 11
97.431929
 21
105.858817
  0
LINE
  8
CSLAYER4
  6
CONTINUOUS
 62
     7
 10
97.431929
 20
105.858817
 11
97.442531
 21
105.883516
  0
LINE
  8
CSLAYER4
  6
CONTINUOUS
 62
     7
 10
97.442531
 20
105.883516
 11
97.453545
 21
105.908214
  0
LINE
  8
CSLAYER4
  6
CONTINUOUS
 62
     7
 10
97.453545
 20
105.908214
 11
97.464985
 21
105.932858
  0
LINE
  8
CSLAYER4
  6
CONTINUOUS
 62
     7
 10
97.464985
 20
105.932858
 11
97.476850
 21
105.957364
  0
LINE
  8
CSLAYER4
  6
CONTINUOUS
 62
     7
 10
97.476850
 20
105.957364
 11
97.489141
 21
105.981692
  0
LINE
  8
CSLAYER4
  6
CONTINUOUS
 62
     7
 10
97.489141
 20
105.981692
 11
97.501885
 21
106.005766
  0
LINE
  8
CSLAYER4
  6
CONTINUOUS
 62
     7
 10
97.501885
 20
106.005766
 11
97.515068
 21
106.029524
  0
LINE
  8
CSLAYER4
  6
CONTINUOUS
 62
     7
 10
97.515068
 20
106.029524
 11
97.528691
 21
106.052904
  0
LINE
  8
CSLAYER4
  6
CONTINUOUS
 62
     7
 10
97.528691
 20
106.052904
 11
97.542781
 21
106.075845
  0
LINE
  8
CSLAYER4
  6
CONTINUOUS
 62
     7
 10
97.542781
 20
106.075845
 11
97.557325
 21
106.098284
  0
LINE
  8
CSLAYER4
  6
CONTINUOUS
 62
     7
 10
97.557325
 20
106.098284
 11
97.569712
 21
106.112828
  0
LINE
  8
CSLAYER4
  6
CONTINUOUS
 62
     7
 10
97.569712
 20
106.112828
 11
97.582428
 21
106.127131
  0
LINE
  8
CSLAYER4
  6
CONTINUOUS
 62
     7
 10
97.582428
 20
106.127131
 11
97.595474
 21
106.141145
  0
LINE
  8
CSLAYER4
  6
CONTINUOUS
 62
     7
 10
97.595474
 20
106.141145
 11
97.608878
 21
106.154851
  0
LINE
  8
CSLAYER4
  6
CONTINUOUS
 62
     7
 10
97.608878
 20
106.154851
 11
97.622611
 21
106.168199
  0
LINE
  8
CSLAYER4
  6
CONTINUOUS
 62
     7
 10
97.622611
 20
106.168199
 11
97.636687
 21
106.181162
  0
LINE
  8
CSLAYER4
  6
CONTINUOUS
 62
     7
 10
97.636687
 20
106.181162
 11
97.651106
 21
106.193701
  0
LINE
  8
CSLAYER4
  6
CONTINUOUS
 62
     7
 10
97.651106
 20
106.193701
 11
97.665883
 21
106.205779
  0
LINE
  8
CSLAYER4
  6
CONTINUOUS
 62
     7
 10
97.665883
 20
106.205779
 11
97.681003
 21
106.217369
  0
LINE
  8
CSLAYER4
  6
CONTINUOUS
 62
     7
 10
97.681003
 20
106.217369
 11
97.696480
 21
106.228438
  0
LINE
  8
CSLAYER4
  6
CONTINUOUS
 62
     7
 10
97.696480
 20
106.228438
 11
97.712300
 21
106.238937
  0
LINE
  8
CSLAYER4
  6
CONTINUOUS
 62
     7
 10
97.712300
 20
106.238937
 11
97.728491
 21
106.248845
  0
LINE
  8
CSLAYER4
  6
CONTINUOUS
 62
     7
 10
97.728491
 20
106.248845
 11
97.745039
 21
106.258129
  0
LINE
  8
CSLAYER4
  6
CONTINUOUS
 62
     7
 10
97.745039
 20
106.258129
 11
97.761945
 21
106.266746
  0
LINE
  8
CSLAYER4
  6
CONTINUOUS
 62
     7
 10
97.761945
 20
106.266746
 11
97.779221
 21
106.274663
  0
LINE
  8
CSLAYER4
  6
CONTINUOUS
 62
     7
 10
97.779221
 20
106.274663
 11
97.796827
 21
106.281832
  0
LINE
  8
CSLAYER4
  6
CONTINUOUS
 62
     7
 10
97.796827
 20
106.281832
 11
97.814583
 21
106.288169
  0
LINE
  8
CSLAYER4
  6
CONTINUOUS
 62
     7
 10
97.814583
 20
106.288169
 11
97.832518
 21
106.293676
  0
LINE
  8
CSLAYER4
  6
CONTINUOUS
 62
     7
 10
97.832518
 20
106.293676
 11
97.850632
 21
106.298353
  0
LINE
  8
CSLAYER4
  6
CONTINUOUS
 62
     7
 10
97.850632
 20
106.298353
 11
97.868897
 21
106.302177
  0
LINE
  8
CSLAYER4
  6
CONTINUOUS
 62
     7
 10
97.868897
 20
106.302177
 11
97.887340
 21
106.305164
  0
LINE
  8
CSLAYER4
  6
CONTINUOUS
 62
     7
 10
97.887340
 20
106.305164
 11
97.905948
 21
106.307299
  0
LINE
  8
CSLAYER4
  6
CONTINUOUS
 62
     7
 10
97.905948
 20
106.307299
 11
97.924721
 21
106.308583
  0
LINE
  8
CSLAYER4
  6
CONTINUOUS
 62
     7
 10
97.924721
 20
106.308583
 11
97.943659
 21
106.309016
  0
LINE
  8
CSLAYER4
  6
CONTINUOUS
 62
     7
 10
97.943659
 20
106.309016
 11
97.965137
 21
106.308288
  0
LINE
  8
CSLAYER4
  6
CONTINUOUS
 62
     7
 10
97.965137
 20
106.308288
 11
97.986409
 21
106.306125
  0
LINE
  8
CSLAYER4
  6
CONTINUOUS
 62
     7
 10
97.986409
 20
106.306125
 11
98.007448
 21
106.302582
  0
LINE
  8
CSLAYER4
  6
CONTINUOUS
 62
     7
 10
98.007448
 20
106.302582
 11
98.028281
 21
106.297693
  0
LINE
  8
CSLAYER4
  6
CONTINUOUS
 62
     7
 10
98.028281
 20
106.297693
 11
98.048880
 21
106.291507
  0
LINE
  8
CSLAYER4
  6
CONTINUOUS
 62
     7
 10
98.048880
 20
106.291507
 11
98.069150
 21
106.284104
  0
LINE
  8
CSLAYER4
  6
CONTINUOUS
 62
     7
 10
98.069150
 20
106.284104
 11
98.088994
 21
106.275611
  0
LINE
  8
CSLAYER4
  6
CONTINUOUS
 62
     7
 10
98.088994
 20
106.275611
 11
98.108371
 21
106.266101
  0
LINE
  8
CSLAYER4
  6
CONTINUOUS
 62
     7
 10
98.108371
 20
106.266101
 11
98.127295
 21
106.255678
  0
LINE
  8
CSLAYER4
  6
CONTINUOUS
 62
     7
 10
98.127295
 20
106.255678
 11
98.145752
 21
106.244416
  0
LINE
  8
CSLAYER4
  6
CONTINUOUS
 62
     7
 10
98.145752
 20
106.244416
 11
98.163756
 21
106.232393
  0
LINE
  8
CSLAYER4
  6
CONTINUOUS
 62
     7
 10
98.163756
 20
106.232393
 11
98.181403
 21
106.219608
  0
LINE
  8
CSLAYER4
  6
CONTINUOUS
 62
     7
 10
98.181403
 20
106.219608
 11
98.198734
 21
106.206101
  0
LINE
  8
CSLAYER4
  6
CONTINUOUS
 62
     7
 10
98.198734
 20
106.206101
 11
98.215708
 21
106.191943
  0
LINE
  8
CSLAYER4
  6
CONTINUOUS
 62
     7
 10
98.215708
 20
106.191943
 11
98.232338
 21
106.177187
  0
LINE
  8
CSLAYER4
  6
CONTINUOUS
 62
     7
 10
98.232338
 20
106.177187
 11
98.248612
 21
106.161909
  0
LINE
  8
CSLAYER4
  6
CONTINUOUS
 62
     7
 10
98.248612
 20
106.161909
 11
98.264528
 21
106.146157
  0
LINE
  8
CSLAYER4
  6
CONTINUOUS
 62
     7
 10
98.264528
 20
106.146157
 11
98.280074
 21
106.130000
  0
LINE
  8
CSLAYER4
  6
CONTINUOUS
 62
     7
 10
98.280074
 20
106.130000
 11
98.295235
 21
106.113500
  0
LINE
  8
CSLAYER4
  6
CONTINUOUS
 62
     7
 10
98.295235
 20
106.113500
 11
98.310011
 21
106.096719
  0
LINE
  8
CSLAYER4
  6
CONTINUOUS
 62
     7
 10
98.310011
 20
106.096719
 11
98.324390
 21
106.079725
  0
LINE
  8
CSLAYER4
  6
CONTINUOUS
 62
     7
 10
98.324390
 20
106.079725
 11
98.338384
 21
106.062565
  0
LINE
  8
CSLAYER4
  6
CONTINUOUS
 62
     7
 10
98.338384
 20
106.062565
 11
98.351966
 21
106.045316
  0
LINE
  8
CSLAYER4
  6
CONTINUOUS
 62
     7
 10
98.351966
 20
106.045316
 11
98.365121
 21
106.028041
  0
LINE
  8
CSLAYER4
  6
CONTINUOUS
 62
     7
 10
98.365121
 20
106.028041
 11
98.383002
 21
106.002196
  0
LINE
  8
CSLAYER4
  6
CONTINUOUS
 62
     7
 10
98.383002
 20
106.002196
 11
98.400209
 21
105.975718
  0
LINE
  8
CSLAYER4
  6
CONTINUOUS
 62
     7
 10
98.400209
 20
105.975718
 11
98.416744
 21
105.948685
  0
LINE
  8
CSLAYER4
  6
CONTINUOUS
 62
     7
 10
98.416744
 20
105.948685
 11
98.432619
 21
105.921157
  0
LINE
  8
CSLAYER4
  6
CONTINUOUS
 62
     7
 10
98.432619
 20
105.921157
 11
98.447876
 21
105.893197
  0
LINE
  8
CSLAYER4
  6
CONTINUOUS
 62
     7
 10
98.447876
 20
105.893197
 11
98.462502
 21
105.864880
  0
LINE
  8
CSLAYER4
  6
CONTINUOUS
 62
     7
 10
98.462502
 20
105.864880
 11
98.476537
 21
105.836267
  0
LINE
  8
CSLAYER4
  6
CONTINUOUS
 62
     7
 10
98.476537
 20
105.836267
 11
98.489968
 21
105.807435
  0
LINE
  8
CSLAYER4
  6
CONTINUOUS
 62
     7
 10
98.489968
 20
105.807435
 11
98.502821
 21
105.778438
  0
LINE
  8
CSLAYER4
  6
CONTINUOUS
 62
     7
 10
98.502821
 20
105.778438
 11
98.515112
 21
105.749359
  0
LINE
  8
CSLAYER4
  6
CONTINUOUS
 62
     7
 10
98.515112
 20
105.749359
 11
98.526854
 21
105.720238
  0
LINE
  8
CSLAYER4
  6
CONTINUOUS
 62
     7
 10
98.526854
 20
105.720238
 11
98.538184
 21
105.690870
  0
LINE
  8
CSLAYER4
  6
CONTINUOUS
 62
     7
 10
98.538184
 20
105.690870
 11
98.549115
 21
105.661214
  0
LINE
  8
CSLAYER4
  6
CONTINUOUS
 62
     7
 10
98.549115
 20
105.661214
 11
98.559662
 21
105.631297
  0
LINE
  8
CSLAYER4
  6
CONTINUOUS
 62
     7
 10
98.559662
 20
105.631297
 11
98.569852
 21
105.601160
  0
LINE
  8
CSLAYER4
  6
CONTINUOUS
 62
     7
 10
98.569852
 20
105.601160
 11
98.579671
 21
105.570831
  0
LINE
  8
CSLAYER4
  6
CONTINUOUS
 62
     7
 10
98.579671
 20
105.570831
 11
98.589146
 21
105.540350
  0
LINE
  8
CSLAYER4
  6
CONTINUOUS
 62
     7
 10
98.589146
 20
105.540350
 11
98.598265
 21
105.509754
  0
LINE
  8
CSLAYER4
  6
CONTINUOUS
 62
     7
 10
98.598265
 20
105.509754
 11
98.607041
 21
105.479068
  0
LINE
  8
CSLAYER4
  6
CONTINUOUS
 62
     7
 10
98.607041
 20
105.479068
 11
98.615486
 21
105.448333
  0
LINE
  8
CSLAYER4
  6
CONTINUOUS
 62
     7
 10
98.615486
 20
105.448333
 11
98.623616
 21
105.417586
  0
LINE
  8
CSLAYER4
  6
CONTINUOUS
 62
     7
 10
98.623616
 20
105.417586
 11
98.631416
 21
105.386858
  0
LINE
  8
CSLAYER4
  6
CONTINUOUS
 62
     7
 10
98.631416
 20
105.386858
 11
98.638915
 21
105.356185
  0
LINE
  8
CSLAYER4
  6
CONTINUOUS
 62
     7
 10
98.638915
 20
105.356185
 11
98.646111
 21
105.325602
  0
LINE
  8
CSLAYER4
  6
CONTINUOUS
 62
     7
 10
98.646111
 20
105.325602
 11
98.665776
 21
105.247277
  0
LINE
  8
CSLAYER4
  6
CONTINUOUS
 62
     7
 10
98.665776
 20
105.247277
 11
98.684110
 21
105.168457
  0
LINE
  8
CSLAYER4
  6
CONTINUOUS
 62
     7
 10
98.684110
 20
105.168457
 11
98.701111
 21
105.089204
  0
LINE
  8
CSLAYER4
  6
CONTINUOUS
 62
     7
 10
98.701111
 20
105.089204
 11
98.716862
 21
105.009594
  0
LINE
  8
CSLAYER4
  6
CONTINUOUS
 62
     7
 10
98.716862
 20
105.009594
 11
98.731364
 21
104.929676
  0
LINE
  8
CSLAYER4
  6
CONTINUOUS
 62
     7
 10
98.731364
 20
104.929676
 11
98.744672
 21
104.849516
  0
LINE
  8
CSLAYER4
  6
CONTINUOUS
 62
     7
 10
98.744672
 20
104.849516
 11
98.756812
 21
104.769186
  0
LINE
  8
CSLAYER4
  6
CONTINUOUS
 62
     7
 10
98.756812
 20
104.769186
 11
98.767839
 21
104.688732
  0
LINE
  8
CSLAYER4
  6
CONTINUOUS
 62
     7
 10
98.767839
 20
104.688732
 11
98.777795
 21
104.608236
  0
LINE
  8
CSLAYER4
  6
CONTINUOUS
 62
     7
 10
98.777795
 20
104.608236
 11
98.786695
 21
104.527748
  0
LINE
  8
CSLAYER4
  6
CONTINUOUS
 62
     7
 10
98.786695
 20
104.527748
 11
98.794591
 21
104.447341
  0
LINE
  8
CSLAYER4
  6
CONTINUOUS
 62
     7
 10
98.794591
 20
104.447341
 11
98.801526
 21
104.366894
  0
LINE
  8
CSLAYER4
  6
CONTINUOUS
 62
     7
 10
98.801526
 20
104.366894
 11
98.807569
 21
104.286200
  0
LINE
  8
CSLAYER4
  6
CONTINUOUS
 62
     7
 10
98.807569
 20
104.286200
 11
98.812732
 21
104.205299
  0
LINE
  8
CSLAYER4
  6
CONTINUOUS
 62
     7
 10
98.812732
 20
104.205299
 11
98.817044
 21
104.124233
  0
LINE
  8
CSLAYER4
  6
CONTINUOUS
 62
     7
 10
98.817044
 20
104.124233
 11
98.820532
 21
104.043044
  0
LINE
  8
CSLAYER4
  6
CONTINUOUS
 62
     7
 10
98.820532
 20
104.043044
 11
98.823224
 21
103.961767
  0
LINE
  8
CSLAYER4
  6
CONTINUOUS
 62
     7
 10
98.823224
 20
103.961767
 11
98.825133
 21
103.880440
  0
LINE
  8
CSLAYER4
  6
CONTINUOUS
 62
     7
 10
98.825133
 20
103.880440
 11
98.826287
 21
103.799120
  0
LINE
  8
CSLAYER4
  6
CONTINUOUS
 62
     7
 10
98.826287
 20
103.799120
 11
98.826726
 21
103.717835
  0
LINE
  8
CSLAYER4
  6
CONTINUOUS
 62
     7
 10
98.826726
 20
103.717835
 11
98.826465
 21
103.636626
  0
LINE
  8
CSLAYER4
  6
CONTINUOUS
 62
     7
 10
98.826465
 20
103.636626
 11
98.825518
 21
103.555540
  0
LINE
  8
CSLAYER4
  6
CONTINUOUS
 62
     7
 10
98.825518
 20
103.555540
 11
98.823925
 21
103.474619
  0
LINE
  8
CSLAYER4
  6
CONTINUOUS
 62
     7
 10
98.823925
 20
103.474619
 11
98.821714
 21
103.393890
  0
LINE
  8
CSLAYER4
  6
CONTINUOUS
 62
     7
 10
98.821714
 20
103.393890
 11
98.819132
 21
103.327801
  0
LINE
  8
CSLAYER4
  6
CONTINUOUS
 62
     7
 10
98.819132
 20
103.327801
 11
98.816096
 21
103.261409
  0
LINE
  8
CSLAYER4
  6
CONTINUOUS
 62
     7
 10
98.816096
 20
103.261409
 11
98.812581
 21
103.194770
  0
LINE
  8
CSLAYER4
  6
CONTINUOUS
 62
     7
 10
98.812581
 20
103.194770
 11
98.808557
 21
103.127952
  0
LINE
  8
CSLAYER4
  6
CONTINUOUS
 62
     7
 10
98.808557
 20
103.127952
 11
98.803998
 21
103.061011
  0
LINE
  8
CSLAYER4
  6
CONTINUOUS
 62
     7
 10
98.803998
 20
103.061011
 11
98.798903
 21
102.994022
  0
LINE
  8
CSLAYER4
  6
CONTINUOUS
 62
     7
 10
98.798903
 20
102.994022
 11
98.793245
 21
102.927047
  0
LINE
  8
CSLAYER4
  6
CONTINUOUS
 62
     7
 10
98.793245
 20
102.927047
 11
98.786983
 21
102.860140
  0
LINE
  8
CSLAYER4
  6
CONTINUOUS
 62
     7
 10
98.786983
 20
102.860140
 11
98.780103
 21
102.793370
  0
LINE
  8
CSLAYER4
  6
CONTINUOUS
 62
     7
 10
98.780103
 20
102.793370
 11
98.772605
 21
102.726807
  0
LINE
  8
CSLAYER4
  6
CONTINUOUS
 62
     7
 10
98.772605
 20
102.726807
 11
98.764433
 21
102.660497
  0
LINE
  8
CSLAYER4
  6
CONTINUOUS
 62
     7
 10
98.764433
 20
102.660497
 11
98.755589
 21
102.594518
  0
LINE
  8
CSLAYER4
  6
CONTINUOUS
 62
     7
 10
98.755589
 20
102.594518
 11
98.746045
 21
102.528929
  0
LINE
  8
CSLAYER4
  6
CONTINUOUS
 62
     7
 10
98.746045
 20
102.528929
 11
98.735746
 21
102.463588
  0
LINE
  8
CSLAYER4
  6
CONTINUOUS
 62
     7
 10
98.735746
 20
102.463588
 11
98.724553
 21
102.397945
  0
LINE
  8
CSLAYER4
  6
CONTINUOUS
 62
     7
 10
98.724553
 20
102.397945
 11
98.712413
 21
102.332075
  0
LINE
  8
CSLAYER4
  6
CONTINUOUS
 62
     7
 10
98.712413
 20
102.332075
 11
98.699285
 21
102.266123
  0
LINE
  8
CSLAYER4
  6
CONTINUOUS
 62
     7
 10
98.699285
 20
102.266123
 11
98.685112
 21
102.200219
  0
LINE
  8
CSLAYER4
  6
CONTINUOUS
 62
     7
 10
98.685112
 20
102.200219
 11
98.669869
 21
102.134493
  0
LINE
  8
CSLAYER4
  6
CONTINUOUS
 62
     7
 10
98.669869
 20
102.134493
 11
98.653485
 21
102.069097
  0
LINE
  8
CSLAYER4
  6
CONTINUOUS
 62
     7
 10
98.653485
 20
102.069097
 11
98.635948
 21
102.004147
  0
LINE
  8
CSLAYER4
  6
CONTINUOUS
 62
     7
 10
98.635948
 20
102.004147
 11
98.617189
 21
101.939794
  0
LINE
  8
CSLAYER4
  6
CONTINUOUS
 62
     7
 10
98.617189
 20
101.939794
 11
98.597180
 21
101.876170
  0
LINE
  8
CSLAYER4
  6
CONTINUOUS
 62
     7
 10
98.597180
 20
101.876170
 11
98.575867
 21
101.813404
  0
LINE
  8
CSLAYER4
  6
CONTINUOUS
 62
     7
 10
96.644155
 20
101.040721
 11
96.678707
 21
100.977749
  0
LINE
  8
CSLAYER4
  6
CONTINUOUS
 62
     7
 10
96.678707
 20
100.977749
 11
96.714824
 21
100.915093
  0
LINE
  8
CSLAYER4
  6
CONTINUOUS
 62
     7
 10
96.714824
 20
100.915093
 11
96.752534
 21
100.852986
  0
LINE
  8
CSLAYER4
  6
CONTINUOUS
 62
     7
 10
96.752534
 20
100.852986
 11
96.791866
 21
100.791634
  0
LINE
  8
CSLAYER4
  6
CONTINUOUS
 62
     7
 10
96.791866
 20
100.791634
 11
96.832845
 21
100.731271
  0
LINE
  8
CSLAYER4
  6
CONTINUOUS
 62
     7
 10
96.832845
 20
100.731271
 11
96.875499
 21
100.672109
  0
LINE
  8
CSLAYER4
  6
CONTINUOUS
 62
     7
 10
96.875499
 20
100.672109
 11
96.919856
 21
100.614362
  0
LINE
  8
CSLAYER4
  6
CONTINUOUS
 62
     7
 10
96.919856
 20
100.614362
 11
96.965944
 21
100.558264
  0
LINE
  8
CSLAYER4
  6
CONTINUOUS
 62
     7
 10
96.965944
 20
100.558264
 11
97.013803
 21
100.504019
  0
LINE
  8
CSLAYER4
  6
CONTINUOUS
 62
     7
 10
97.013803
 20
100.504019
 11
97.063462
 21
100.451861
  0
LINE
  8
CSLAYER4
  6
CONTINUOUS
 62
     7
 10
97.063462
 20
100.451861
 11
97.114933
 21
100.401997
  0
LINE
  8
CSLAYER4
  6
CONTINUOUS
 62
     7
 10
97.114933
 20
100.401997
 11
97.168298
 21
100.354612
  0
LINE
  8
CSLAYER4
  6
CONTINUOUS
 62
     7
 10
97.168298
 20
100.354612
 11
97.223615
 21
100.309904
  0
LINE
  8
CSLAYER4
  6
CONTINUOUS
 62
     7
 10
97.223615
 20
100.309904
 11
97.280908
 21
100.268087
  0
LINE
  8
CSLAYER4
  6
CONTINUOUS
 62
     7
 10
97.280908
 20
100.268087
 11
97.340248
 21
100.229388
  0
LINE
  8
CSLAYER4
  6
CONTINUOUS
 62
     7
 10
97.340248
 20
100.229388
 11
97.401648
 21
100.194026
  0
LINE
  8
CSLAYER4
  6
CONTINUOUS
 62
     7
 10
97.401648
 20
100.194026
 11
97.465149
 21
100.162220
  0
LINE
  8
CSLAYER4
  6
CONTINUOUS
 62
     7
 10
97.465149
 20
100.162220
 11
97.530683
 21
100.134233
  0
LINE
  8
CSLAYER4
  6
CONTINUOUS
 62
     7
 10
97.530683
 20
100.134233
 11
97.597328
 21
100.110571
  0
LINE
  8
CSLAYER4
  6
CONTINUOUS
 62
     7
 10
97.597328
 20
100.110571
 11
97.664867
 21
100.091297
  0
LINE
  8
CSLAYER4
  6
CONTINUOUS
 62
     7
 10
97.664867
 20
100.091297
 11
97.733270
 21
100.076369
  0
LINE
  8
CSLAYER4
  6
CONTINUOUS
 62
     7
 10
97.733270
 20
100.076369
 11
97.802553
 21
100.065754
  0
LINE
  8
CSLAYER4
  6
CONTINUOUS
 62
     7
 10
97.802553
 20
100.065754
 11
97.872687
 21
100.059416
  0
LINE
  8
CSLAYER4
  6
CONTINUOUS
 62
     7
 10
97.872687
 20
100.059416
 11
97.943659
 21
100.057308
  0
LINE
  8
CSLAYER4
  6
CONTINUOUS
 62
     7
 10
97.943659
 20
100.057308
 11
98.018077
 21
100.059581
  0
LINE
  8
CSLAYER4
  6
CONTINUOUS
 62
     7
 10
98.018077
 20
100.059581
 11
98.091933
 21
100.066474
  0
LINE
  8
CSLAYER4
  6
CONTINUOUS
 62
     7
 10
98.091933
 20
100.066474
 11
98.165184
 21
100.078120
  0
LINE
  8
CSLAYER4
  6
CONTINUOUS
 62
     7
 10
98.165184
 20
100.078120
 11
98.237790
 21
100.094634
  0
LINE
  8
CSLAYER4
  6
CONTINUOUS
 62
     7
 10
98.237790
 20
100.094634
 11
98.309160
 21
100.115947
  0
LINE
  8
CSLAYER4
  6
CONTINUOUS
 62
     7
 10
98.309160
 20
100.115947
 11
98.378717
 21
100.141834
  0
LINE
  8
CSLAYER4
  6
CONTINUOUS
 62
     7
 10
98.378717
 20
100.141834
 11
98.446489
 21
100.172183
  0
LINE
  8
CSLAYER4
  6
CONTINUOUS
 62
     7
 10
98.446489
 20
100.172183
 11
98.512490
 21
100.206880
  0
LINE
  8
CSLAYER4
  6
CONTINUOUS
 62
     7
 10
98.512490
 20
100.206880
 11
98.576389
 21
100.245579
  0
LINE
  8
CSLAYER4
  6
CONTINUOUS
 62
     7
 10
98.576389
 20
100.245579
 11
98.637885
 21
100.287835
  0
LINE
  8
CSLAYER4
  6
CONTINUOUS
 62
     7
 10
98.637885
 20
100.287835
 11
98.696991
 21
100.333353
  0
LINE
  8
CSLAYER4
  6
CONTINUOUS
 62
     7
 10
98.696991
 20
100.333353
 11
98.753777
 21
100.381865
  0
LINE
  8
CSLAYER4
  6
CONTINUOUS
 62
     7
 10
98.753777
 20
100.381865
 11
98.808283
 21
100.433075
  0
LINE
  8
CSLAYER4
  6
CONTINUOUS
 62
     7
 10
98.808283
 20
100.433075
 11
98.860550
 21
100.486722
  0
LINE
  8
CSLAYER4
  6
CONTINUOUS
 62
     7
 10
98.860550
 20
100.486722
 11
98.910620
 21
100.542505
  0
LINE
  8
CSLAYER4
  6
CONTINUOUS
 62
     7
 10
98.910620
 20
100.542505
 11
98.958562
 21
100.600163
  0
LINE
  8
CSLAYER4
  6
CONTINUOUS
 62
     7
 10
98.958562
 20
100.600163
 11
99.004457
 21
100.659475
  0
LINE
  8
CSLAYER4
  6
CONTINUOUS
 62
     7
 10
99.004457
 20
100.659475
 11
99.048568
 21
100.720498
  0
LINE
  8
CSLAYER4
  6
CONTINUOUS
 62
     7
 10
99.048568
 20
100.720498
 11
99.090974
 21
100.783044
  0
LINE
  8
CSLAYER4
  6
CONTINUOUS
 62
     7
 10
99.090974
 20
100.783044
 11
99.131679
 21
100.846888
  0
LINE
  8
CSLAYER4
  6
CONTINUOUS
 62
     7
 10
99.131679
 20
100.846888
 11
99.170735
 21
100.911824
  0
LINE
  8
CSLAYER4
  6
CONTINUOUS
 62
     7
 10
99.170735
 20
100.911824
 11
99.208171
 21
100.977626
  0
LINE
  8
CSLAYER4
  6
CONTINUOUS
 62
     7
 10
99.208171
 20
100.977626
 11
99.244014
 21
101.044079
  0
LINE
  8
CSLAYER4
  6
CONTINUOUS
 62
     7
 10
99.244014
 20
101.044079
 11
99.278305
 21
101.110966
  0
LINE
  8
CSLAYER4
  6
CONTINUOUS
 62
     7
 10
99.278305
 20
101.110966
 11
99.329048
 21
101.220320
  0
LINE
  8
CSLAYER4
  6
CONTINUOUS
 62
     7
 10
99.329048
 20
101.220320
 11
99.376427
 21
101.331461
  0
LINE
  8
CSLAYER4
  6
CONTINUOUS
 62
     7
 10
99.376427
 20
101.331461
 11
99.420551
 21
101.444242
  0
LINE
  8
CSLAYER4
  6
CONTINUOUS
 62
     7
 10
99.420551
 20
101.444242
 11
99.461530
 21
101.558521
  0
LINE
  8
CSLAYER4
  6
CONTINUOUS
 62
     7
 10
99.461530
 20
101.558521
 11
99.499433
 21
101.674145
  0
LINE
  8
CSLAYER4
  6
CONTINUOUS
 62
     7
 10
99.499433
 20
101.674145
 11
99.534383
 21
101.790957
  0
LINE
  8
CSLAYER4
  6
CONTINUOUS
 62
     7
 10
99.534383
 20
101.790957
 11
99.566477
 21
101.908806
  0
LINE
  8
CSLAYER4
  6
CONTINUOUS
 62
     7
 10
99.566477
 20
101.908806
 11
99.595810
 21
102.027554
  0
LINE
  8
CSLAYER4
  6
CONTINUOUS
 62
     7
 10
99.595810
 20
102.027554
 11
99.622480
 21
102.147045
  0
LINE
  8
CSLAYER4
  6
CONTINUOUS
 62
     7
 10
99.622480
 20
102.147045
 11
99.646580
 21
102.267132
  0
LINE
  8
CSLAYER4
  6
CONTINUOUS
 62
     7
 10
99.646580
 20
102.267132
 11
99.668224
 21
102.387659
  0
LINE
  8
CSLAYER4
  6
CONTINUOUS
 62
     7
 10
99.668224
 20
102.387659
 11
99.687505
 21
102.508481
  0
LINE
  8
CSLAYER4
  6
CONTINUOUS
 62
     7
 10
99.687505
 20
102.508481
 11
99.704520
 21
102.629447
  0
LINE
  8
CSLAYER4
  6
CONTINUOUS
 62
     7
 10
99.704520
 20
102.629447
 11
99.719365
 21
102.750407
  0
LINE
  8
CSLAYER4
  6
CONTINUOUS
 62
     7
 10
99.719365
 20
102.750407
 11
99.732151
 21
102.871208
  0
LINE
  8
CSLAYER4
  6
CONTINUOUS
 62
     7
 10
99.732151
 20
102.871208
 11
99.742972
 21
102.991701
  0
LINE
  8
CSLAYER4
  6
CONTINUOUS
 62
     7
 10
99.742972
 20
102.991701
 11
99.751926
 21
103.111816
  0
LINE
  8
CSLAYER4
  6
CONTINUOUS
 62
     7
 10
99.751926
 20
103.111816
 11
99.759163
 21
103.232096
  0
LINE
  8
CSLAYER4
  6
CONTINUOUS
 62
     7
 10
99.759163
 20
103.232096
 11
99.764738
 21
103.352629
  0
LINE
  8
CSLAYER4
  6
CONTINUOUS
 62
     7
 10
99.764738
 20
103.352629
 11
99.768721
 21
103.473328
  0
LINE
  8
CSLAYER4
  6
CONTINUOUS
 62
     7
 10
99.768721
 20
103.473328
 11
99.771179
 21
103.594088
  0
LINE
  8
CSLAYER4
  6
CONTINUOUS
 62
     7
 10
99.771179
 20
103.594088
 11
99.772168
 21
103.714821
  0
LINE
  8
CSLAYER4
  6
CONTINUOUS
 62
     7
 10
99.772168
 20
103.714821
 11
99.771756
 21
103.835437
  0
LINE
  8
CSLAYER4
  6
CONTINUOUS
 62
     7
 10
99.771756
 20
103.835437
 11
99.770012
 21
103.955848
  0
LINE
  8
CSLAYER4
  6
CONTINUOUS
 62
     7
 10
99.770012
 20
103.955848
 11
99.766963
 21
104.065134
  0
LINE
  8
CSLAYER4
  6
CONTINUOUS
 62
     7
 10
99.766963
 20
104.065134
 11
99.762651
 21
104.174935
  0
LINE
  8
CSLAYER4
  6
CONTINUOUS
 62
     7
 10
99.762651
 20
104.174935
 11
99.756980
 21
104.285156
  0
LINE
  8
CSLAYER4
  6
CONTINUOUS
 62
     7
 10
99.756980
 20
104.285156
 11
99.749893
 21
104.395678
  0
LINE
  8
CSLAYER4
  6
CONTINUOUS
 62
     7
 10
99.749893
 20
104.395678
 11
99.741338
 21
104.506414
  0
LINE
  8
CSLAYER4
  6
CONTINUOUS
 62
     7
 10
99.741338
 20
104.506414
 11
99.731244
 21
104.617259
  0
LINE
  8
CSLAYER4
  6
CONTINUOUS
 62
     7
 10
99.731244
 20
104.617259
 11
99.719530
 21
104.728104
  0
LINE
  8
CSLAYER4
  6
CONTINUOUS
 62
     7
 10
99.719530
 20
104.728104
 11
99.706154
 21
104.838853
  0
LINE
  8
CSLAYER4
  6
CONTINUOUS
 62
     7
 10
99.706154
 20
104.838853
 11
99.691021
 21
104.949403
  0
LINE
  8
CSLAYER4
  6
CONTINUOUS
 62
     7
 10
99.691021
 20
104.949403
 11
99.674101
 21
105.059657
  0
LINE
  8
CSLAYER4
  6
CONTINUOUS
 62
     7
 10
99.674101
 20
105.059657
 11
99.655301
 21
105.169501
  0
LINE
  8
CSLAYER4
  6
CONTINUOUS
 62
     7
 10
99.655301
 20
105.169501
 11
99.634564
 21
105.278842
  0
LINE
  8
CSLAYER4
  6
CONTINUOUS
 62
     7
 10
99.634564
 20
105.278842
 11
99.611822
 21
105.387572
  0
LINE
  8
CSLAYER4
  6
CONTINUOUS
 62
     7
 10
99.611822
 20
105.387572
 11
99.587008
 21
105.495595
  0
LINE
  8
CSLAYER4
  6
CONTINUOUS
 62
     7
 10
99.587008
 20
105.495595
 11
99.560063
 21
105.602801
  0
LINE
  8
CSLAYER4
  6
CONTINUOUS
 62
     7
 10
99.560063
 20
105.602801
 11
99.530922
 21
105.709094
  0
LINE
  8
CSLAYER4
  6
CONTINUOUS
 62
     7
 10
99.530922
 20
105.709094
 11
99.499515
 21
105.814377
  0
LINE
  8
CSLAYER4
  6
CONTINUOUS
 62
     7
 10
99.499515
 20
105.814377
 11
99.465773
 21
105.918535
  0
LINE
  8
CSLAYER4
  6
CONTINUOUS
 62
     7
 10
99.465773
 20
105.918535
 11
99.429614
 21
106.021565
  0
LINE
  8
CSLAYER4
  6
CONTINUOUS
 62
     7
 10
99.429614
 20
106.021565
 11
99.390847
 21
106.123615
  0
LINE
  8
CSLAYER4
  6
CONTINUOUS
 62
     7
 10
99.390847
 20
106.123615
 11
99.349400
 21
106.224586
  0
LINE
  8
CSLAYER4
  6
CONTINUOUS
 62
     7
 10
99.349400
 20
106.224586
 11
99.305167
 21
106.324355
  0
LINE
  8
CSLAYER4
  6
CONTINUOUS
 62
     7
 10
99.305167
 20
106.324355
 11
99.258091
 21
106.422779
  0
LINE
  8
CSLAYER4
  6
CONTINUOUS
 62
     7
 10
99.258091
 20
106.422779
 11
99.208061
 21
106.519747
  0
LINE
  8
CSLAYER4
  6
CONTINUOUS
 62
     7
 10
99.208061
 20
106.519747
 11
99.174127
 21
106.578716
  0
LINE
  8
CSLAYER4
  6
CONTINUOUS
 62
     7
 10
99.174127
 20
106.578716
 11
99.138655
 21
106.637061
  0
LINE
  8
CSLAYER4
  6
CONTINUOUS
 62
     7
 10
99.138655
 20
106.637061
 11
99.101604
 21
106.694602
  0
LINE
  8
CSLAYER4
  6
CONTINUOUS
 62
     7
 10
99.101604
 20
106.694602
 11
99.062932
 21
106.751147
  0
LINE
  8
CSLAYER4
  6
CONTINUOUS
 62
     7
 10
99.062932
 20
106.751147
 11
99.022598
 21
106.806518
  0
LINE
  8
CSLAYER4
  6
CONTINUOUS
 62
     7
 10
99.022598
 20
106.806518
 11
98.980576
 21
106.860530
  0
LINE
  8
CSLAYER4
  6
CONTINUOUS
 62
     7
 10
98.980576
 20
106.860530
 11
98.936809
 21
106.913003
  0
LINE
  8
CSLAYER4
  6
CONTINUOUS
 62
     7
 10
98.936809
 20
106.913003
 11
98.891298
 21
106.963753
  0
LINE
  8
CSLAYER4
  6
CONTINUOUS
 62
     7
 10
98.891298
 20
106.963753
 11
98.843974
 21
107.012594
  0
LINE
  8
CSLAYER4
  6
CONTINUOUS
 62
     7
 10
98.843974
 20
107.012594
 11
98.794825
 21
107.059334
  0
LINE
  8
CSLAYER4
  6
CONTINUOUS
 62
     7
 10
98.794825
 20
107.059334
 11
98.743916
 21
107.103698
  0
LINE
  8
CSLAYER4
  6
CONTINUOUS
 62
     7
 10
98.743916
 20
107.103698
 11
98.691265
 21
107.145529
  0
LINE
  8
CSLAYER4
  6
CONTINUOUS
 62
     7
 10
98.691265
 20
107.145529
 11
98.636813
 21
107.184674
  0
LINE
  8
CSLAYER4
  6
CONTINUOUS
 62
     7
 10
98.636813
 20
107.184674
 11
98.580536
 21
107.220998
  0
LINE
  8
CSLAYER4
  6
CONTINUOUS
 62
     7
 10
98.580536
 20
107.220998
 11
98.522377
 21
107.254348
  0
LINE
  8
CSLAYER4
  6
CONTINUOUS
 62
     7
 10
98.522377
 20
107.254348
 11
98.462337
 21
107.284588
  0
LINE
  8
CSLAYER4
  6
CONTINUOUS
 62
     7
 10
98.462337
 20
107.284588
 11
98.400374
 21
107.311559
  0
LINE
  8
CSLAYER4
  6
CONTINUOUS
 62
     7
 10
98.400374
 20
107.311559
 11
98.337326
 21
107.334837
  0
LINE
  8
CSLAYER4
  6
CONTINUOUS
 62
     7
 10
98.337326
 20
107.334837
 11
98.273495
 21
107.354351
  0
LINE
  8
CSLAYER4
  6
CONTINUOUS
 62
     7
 10
98.273495
 20
107.354351
 11
98.208923
 21
107.370172
  0
LINE
  8
CSLAYER4
  6
CONTINUOUS
 62
     7
 10
98.208923
 20
107.370172
 11
98.143637
 21
107.382359
  0
LINE
  8
CSLAYER4
  6
CONTINUOUS
 62
     7
 10
98.143637
 20
107.382359
 11
98.077651
 21
107.390977
  0
LINE
  8
CSLAYER4
  6
CONTINUOUS
 62
     7
 10
98.077651
 20
107.390977
 11
98.010977
 21
107.396099
  0
LINE
  8
CSLAYER4
  6
CONTINUOUS
 62
     7
 10
98.010977
 20
107.396099
 11
97.943659
 21
107.397796
  0
LINE
  8
CSLAYER4
  6
CONTINUOUS
 62
     7
 10
97.943659
 20
107.397796
 11
97.871959
 21
107.395358
  0
LINE
  8
CSLAYER4
  6
CONTINUOUS
 62
     7
 10
97.871959
 20
107.395358
 11
97.800905
 21
107.388031
  0
LINE
  8
CSLAYER4
  6
CONTINUOUS
 62
     7
 10
97.800905
 20
107.388031
 11
97.730483
 21
107.375761
  0
LINE
  8
CSLAYER4
  6
CONTINUOUS
 62
     7
 10
97.730483
 20
107.375761
 11
97.660747
 21
107.358512
  0
LINE
  8
CSLAYER4
  6
CONTINUOUS
 62
     7
 10
97.660747
 20
107.358512
 11
97.592494
 21
107.336546
  0
LINE
  8
CSLAYER4
  6
CONTINUOUS
 62
     7
 10
97.592494
 20
107.336546
 11
97.525972
 21
107.310111
  0
LINE
  8
CSLAYER4
  6
CONTINUOUS
 62
     7
 10
97.525972
 20
107.310111
 11
97.461180
 21
107.279418
  0
LINE
  8
CSLAYER4
  6
CONTINUOUS
 62
     7
 10
97.461180
 20
107.279418
 11
97.398133
 21
107.244680
  0
LINE
  8
CSLAYER4
  6
CONTINUOUS
 62
     7
 10
97.398133
 20
107.244680
 11
97.337104
 21
107.206318
  0
LINE
  8
CSLAYER4
  6
CONTINUOUS
 62
     7
 10
97.337104
 20
107.206318
 11
97.278134
 21
107.164666
  0
LINE
  8
CSLAYER4
  6
CONTINUOUS
 62
     7
 10
97.278134
 20
107.164666
 11
97.221225
 21
107.120027
  0
LINE
  8
CSLAYER4
  6
CONTINUOUS
 62
     7
 10
97.221225
 20
107.120027
 11
97.166335
 21
107.072696
  0
LINE
  8
CSLAYER4
  6
CONTINUOUS
 62
     7
 10
97.166335
 20
107.072696
 11
97.113463
 21
107.022990
  0
LINE
  8
CSLAYER4
  6
CONTINUOUS
 62
     7
 10
97.113463
 20
107.022990
 11
97.062569
 21
106.971203
  0
LINE
  8
CSLAYER4
  6
CONTINUOUS
 62
     7
 10
97.062569
 20
106.971203
 11
97.013638
 21
106.917645
  0
LINE
  8
CSLAYER4
  6
CONTINUOUS
 62
     7
 10
97.013638
 20
106.917645
 11
96.966658
 21
106.862617
  0
LINE
  8
CSLAYER4
  6
CONTINUOUS
 62
     7
 10
96.966658
 20
106.862617
 11
96.921477
 21
106.806236
  0
LINE
  8
CSLAYER4
  6
CONTINUOUS
 62
     7
 10
96.921477
 20
106.806236
 11
96.877710
 21
106.748318
  0
LINE
  8
CSLAYER4
  6
CONTINUOUS
 62
     7
 10
96.877710
 20
106.748318
 11
96.835344
 21
106.689040
  0
LINE
  8
CSLAYER4
  6
CONTINUOUS
 62
     7
 10
96.835344
 20
106.689040
 11
96.794379
 21
106.628602
  0
LINE
  8
CSLAYER4
  6
CONTINUOUS
 62
     7
 10
96.794379
 20
106.628602
 11
96.754787
 21
106.567202
  0
LINE
  8
CSLAYER4
  6
CONTINUOUS
 62
     7
 10
96.754787
 20
106.567202
 11
96.716554
 21
106.505047
  0
LINE
  8
CSLAYER4
  6
CONTINUOUS
 62
     7
 10
96.716554
 20
106.505047
 11
96.679682
 21
106.442335
  0
LINE
  8
CSLAYER4
  6
CONTINUOUS
 62
     7
 10
96.679682
 20
106.442335
 11
96.644155
 21
106.379260
  0
LINE
  8
CSLAYER4
  6
CONTINUOUS
 62
     7
 10
96.644155
 20
106.379260
 11
96.594071
 21
106.275356
  0
LINE
  8
CSLAYER4
  6
CONTINUOUS
 62
     7
 10
96.594071
 20
106.275356
 11
96.546871
 21
106.169902
  0
LINE
  8
CSLAYER4
  6
CONTINUOUS
 62
     7
 10
96.546871
 20
106.169902
 11
96.502472
 21
106.063025
  0
LINE
  8
CSLAYER4
  6
CONTINUOUS
 62
     7
 10
96.502472
 20
106.063025
 11
96.460807
 21
105.954838
  0
LINE
  8
CSLAYER4
  6
CONTINUOUS
 62
     7
 10
96.460807
 20
105.954838
 11
96.421778
 21
105.845455
  0
LINE
  8
CSLAYER4
  6
CONTINUOUS
 62
     7
 10
96.421778
 20
105.845455
 11
96.385330
 21
105.734987
  0
LINE
  8
CSLAYER4
  6
CONTINUOUS
 62
     7
 10
96.385330
 20
105.734987
 11
96.351383
 21
105.623565
  0
LINE
  8
CSLAYER4
  6
CONTINUOUS
 62
     7
 10
96.351383
 20
105.623565
 11
96.319865
 21
105.511292
  0
LINE
  8
CSLAYER4
  6
CONTINUOUS
 62
     7
 10
96.319865
 20
105.511292
 11
96.290683
 21
105.398284
  0
LINE
  8
CSLAYER4
  6
CONTINUOUS
 62
     7
 10
96.290683
 20
105.398284
 11
96.263780
 21
105.284671
  0
LINE
  8
CSLAYER4
  6
CONTINUOUS
 62
     7
 10
96.263780
 20
105.284671
 11
96.239061
 21
105.170558
  0
LINE
  8
CSLAYER4
  6
CONTINUOUS
 62
     7
 10
96.239061
 20
105.170558
 11
96.216457
 21
105.056060
  0
LINE
  8
CSLAYER4
  6
CONTINUOUS
 62
     7
 10
96.216457
 20
105.056060
 11
96.195899
 21
104.941301
  0
LINE
  8
CSLAYER4
  6
CONTINUOUS
 62
     7
 10
96.195899
 20
104.941301
 11
96.177290
 21
104.826391
  0
LINE
  8
CSLAYER4
  6
CONTINUOUS
 62
     7
 10
96.177290
 20
104.826391
 11
96.160577
 21
104.711453
  0
LINE
  8
CSLAYER4
  6
CONTINUOUS
 62
     7
 10
96.160577
 20
104.711453
 11
96.145678
 21
104.596598
  0
LINE
  8
CSLAYER4
  6
CONTINUOUS
 62
     7
 10
96.145678
 20
104.596598
 11
96.132521
 21
104.481921
  0
LINE
  8
CSLAYER4
  6
CONTINUOUS
 62
     7
 10
96.132521
 20
104.481921
 11
96.120958
 21
104.367079
  0
LINE
  8
CSLAYER4
  6
CONTINUOUS
 62
     7
 10
96.120958
 20
104.367079
 11
96.110947
 21
104.251949
  0
LINE
  8
CSLAYER4
  6
CONTINUOUS
 62
     7
 10
96.110947
 20
104.251949
 11
96.102433
 21
104.136628
  0
LINE
  8
CSLAYER4
  6
CONTINUOUS
 62
     7
 10
96.102433
 20
104.136628
 11
96.095346
 21
104.021175
  0
LINE
  8
CSLAYER4
  6
CONTINUOUS
 62
     7
 10
96.095346
 20
104.021175
 11
96.089647
 21
103.905681
  0
LINE
  8
CSLAYER4
  6
CONTINUOUS
 62
     7
 10
96.089647
 20
103.905681
 11
96.085280
 21
103.790222
  0
LINE
  8
CSLAYER4
  6
CONTINUOUS
 62
     7
 10
96.085280
 20
103.790222
 11
96.082204
 21
103.674872
  0
LINE
  8
CSLAYER4
  6
CONTINUOUS
 62
     7
 10
96.082204
 20
103.674872
 11
96.085253
 21
103.562695
  0
LINE
  8
CSLAYER4
  6
CONTINUOUS
 62
     7
 10
96.085253
 20
103.562695
 11
96.089592
 21
103.450030
  0
LINE
  8
CSLAYER4
  6
CONTINUOUS
 62
     7
 10
96.089592
 20
103.450030
 11
96.095291
 21
103.336954
  0
LINE
  8
CSLAYER4
  6
CONTINUOUS
 62
     7
 10
96.095291
 20
103.336954
 11
96.102405
 21
103.223581
  0
LINE
  8
CSLAYER4
  6
CONTINUOUS
 62
     7
 10
96.102405
 20
103.223581
 11
96.110988
 21
103.110010
  0
LINE
  8
CSLAYER4
  6
CONTINUOUS
 62
     7
 10
96.110988
 20
103.110010
 11
96.121123
 21
102.996329
  0
LINE
  8
CSLAYER4
  6
CONTINUOUS
 62
     7
 10
96.121123
 20
102.996329
 11
96.132878
 21
102.882648
  0
LINE
  8
CSLAYER4
  6
CONTINUOUS
 62
     7
 10
96.132878
 20
102.882648
 11
96.146296
 21
102.769070
  0
LINE
  8
CSLAYER4
  6
CONTINUOUS
 62
     7
 10
96.146296
 20
102.769070
 11
96.161456
 21
102.655684
  0
LINE
  8
CSLAYER4
  6
CONTINUOUS
 62
     7
 10
96.161456
 20
102.655684
 11
96.178417
 21
102.542594
  0
LINE
  8
CSLAYER4
  6
CONTINUOUS
 62
     7
 10
96.178417
 20
102.542594
 11
96.197258
 21
102.429901
  0
LINE
  8
CSLAYER4
  6
CONTINUOUS
 62
     7
 10
96.197258
 20
102.429901
 11
96.218023
 21
102.317697
  0
LINE
  8
CSLAYER4
  6
CONTINUOUS
 62
     7
 10
96.218023
 20
102.317697
 11
96.240791
 21
102.206096
  0
LINE
  8
CSLAYER4
  6
CONTINUOUS
 62
     7
 10
96.240791
 20
102.206096
 11
96.265621
 21
102.095182
  0
LINE
  8
CSLAYER4
  6
CONTINUOUS
 62
     7
 10
96.265621
 20
102.095182
 11
96.292565
 21
101.985072
  0
LINE
  8
CSLAYER4
  6
CONTINUOUS
 62
     7
 10
96.292565
 20
101.985072
 11
96.321719
 21
101.875847
  0
LINE
  8
CSLAYER4
  6
CONTINUOUS
 62
     7
 10
96.321719
 20
101.875847
 11
96.353113
 21
101.767618
  0
LINE
  8
CSLAYER4
  6
CONTINUOUS
 62
     7
 10
96.353113
 20
101.767618
 11
96.386841
 21
101.660481
  0
LINE
  8
CSLAYER4
  6
CONTINUOUS
 62
     7
 10
96.386841
 20
101.660481
 11
96.422972
 21
101.554449
  0
LINE
  8
CSLAYER4
  6
CONTINUOUS
 62
     7
 10
96.422972
 20
101.554449
 11
96.461686
 21
101.449365
  0
LINE
  8
CSLAYER4
  6
CONTINUOUS
 62
     7
 10
96.461686
 20
101.449365
 11
96.503090
 21
101.345324
  0
LINE
  8
CSLAYER4
  6
CONTINUOUS
 62
     7
 10
96.503090
 20
101.345324
 11
96.547241
 21
101.242451
  0
LINE
  8
CSLAYER4
  6
CONTINUOUS
 62
     7
 10
96.547241
 20
101.242451
 11
96.594235
 21
101.140876
  0
LINE
  8
CSLAYER4
  6
CONTINUOUS
 62
     7
 10
96.594235
 20
101.140876
 11
96.644155
 21
101.040721
  0
ENDBLK
  8
0
  0
BLOCK
  8
CSLAYER1
  2
BLKF0005
 70
   64
 10
0.0
 20
0.0
 30
0.0
  0
LINE
  8
CSLAYER4
  6
CONTINUOUS
 62
     7
 10
120.452647
 20
100.194472
 11
120.541966
 21
100.168805
  0
LINE
  8
CSLAYER4
  6
CONTINUOUS
 62
     7
 10
120.541966
 20
100.168805
 11
120.631834
 21
100.145830
  0
LINE
  8
CSLAYER4
  6
CONTINUOUS
 62
     7
 10
120.631834
 20
100.145830
 11
120.722224
 21
100.125656
  0
LINE
  8
CSLAYER4
  6
CONTINUOUS
 62
     7
 10
120.722224
 20
100.125656
 11
120.813115
 21
100.108394
  0
LINE
  8
CSLAYER4
  6
CONTINUOUS
 62
     7
 10
120.813115
 20
100.108394
 11
120.904474
 21
100.094167
  0
LINE
  8
CSLAYER4
  6
CONTINUOUS
 62
     7
 10
120.904474
 20
100.094167
 11
120.996264
 21
100.083071
  0
LINE
  8
CSLAYER4
  6
CONTINUOUS
 62
     7
 10
120.996264
 20
100.083071
 11
121.088467
 21
100.075229
  0
LINE
  8
CSLAYER4
  6
CONTINUOUS
 62
     7
 10
121.088467
 20
100.075229
 11
121.181047
 21
100.070746
  0
LINE
  8
CSLAYER4
  6
CONTINUOUS
 62
     7
 10
121.181047
 20
100.070746
 11
121.273985
 21
100.069729
  0
LINE
  8
CSLAYER4
  6
CONTINUOUS
 62
     7
 10
121.273985
 20
100.069729
 11
121.366799
 21
100.072277
  0
LINE
  8
CSLAYER4
  6
CONTINUOUS
 62
     7
 10
121.366799
 20
100.072277
 11
121.458995
 21
100.078402
  0
LINE
  8
CSLAYER4
  6
CONTINUOUS
 62
     7
 10
121.458995
 20
100.078402
 11
121.550579
 21
100.088104
  0
LINE
  8
CSLAYER4
  6
CONTINUOUS
 62
     7
 10
121.550579
 20
100.088104
 11
121.641546
 21
100.101397
  0
LINE
  8
CSLAYER4
  6
CONTINUOUS
 62
     7
 10
121.641546
 20
100.101397
 11
121.731909
 21
100.118275
  0
LINE
  8
CSLAYER4
  6
CONTINUOUS
 62
     7
 10
121.731909
 20
100.118275
 11
121.821653
 21
100.138744
  0
LINE
  8
CSLAYER4
  6
CONTINUOUS
 62
     7
 10
121.821653
 20
100.138744
 11
121.910766
 21
100.162804
  0
LINE
  8
CSLAYER4
  6
CONTINUOUS
 62
     7
 10
121.910766
 20
100.162804
 11
121.999275
 21
100.190462
  0
LINE
  8
CSLAYER4
  6
CONTINUOUS
 62
     7
 10
121.999275
 20
100.190462
 11
122.087097
 21
100.221691
  0
LINE
  8
CSLAYER4
  6
CONTINUOUS
 62
     7
 10
122.087097
 20
100.221691
 11
122.173614
 21
100.256222
  0
LINE
  8
CSLAYER4
  6
CONTINUOUS
 62
     7
 10
122.173614
 20
100.256222
 11
122.258676
 21
100.293912
  0
LINE
  8
CSLAYER4
  6
CONTINUOUS
 62
     7
 10
122.258676
 20
100.293912
 11
122.342309
 21
100.334644
  0
LINE
  8
CSLAYER4
  6
CONTINUOUS
 62
     7
 10
122.342309
 20
100.334644
 11
122.424500
 21
100.378315
  0
LINE
  8
CSLAYER4
  6
CONTINUOUS
 62
     7
 10
122.424500
 20
100.378315
 11
122.505292
 21
100.424835
  0
LINE
  8
CSLAYER4
  6
CONTINUOUS
 62
     7
 10
122.505292
 20
100.424835
 11
122.584681
 21
100.474088
  0
LINE
  8
CSLAYER4
  6
CONTINUOUS
 62
     7
 10
122.584681
 20
100.474088
 11
122.618725
 21
100.496411
  0
LINE
  8
CSLAYER4
  6
CONTINUOUS
 62
     7
 10
122.618725
 20
100.496411
 11
122.652082
 21
100.519619
  0
LINE
  8
CSLAYER4
  6
CONTINUOUS
 62
     7
 10
122.652082
 20
100.519619
 11
122.684753
 21
100.543700
  0
LINE
  8
CSLAYER4
  6
CONTINUOUS
 62
     7
 10
122.684753
 20
100.543700
 11
122.716751
 21
100.568639
  0
LINE
  8
CSLAYER4
  6
CONTINUOUS
 62
     7
 10
122.716751
 20
100.568639
 11
122.748076
 21
100.594423
  0
LINE
  8
CSLAYER4
  6
CONTINUOUS
 62
     7
 10
122.748076
 20
100.594423
 11
122.778755
 21
100.621044
  0
LINE
  8
CSLAYER4
  6
CONTINUOUS
 62
     7
 10
122.778755
 20
100.621044
 11
122.808761
 21
100.648482
  0
LINE
  8
CSLAYER4
  6
CONTINUOUS
 62
     7
 10
122.808761
 20
100.648482
 11
122.838122
 21
100.676738
  0
LINE
  8
CSLAYER4
  6
CONTINUOUS
 62
     7
 10
122.838122
 20
100.676738
 11
122.866810
 21
100.705769
  0
LINE
  8
CSLAYER4
  6
CONTINUOUS
 62
     7
 10
122.866810
 20
100.705769
 11
122.894770
 21
100.735473
  0
LINE
  8
CSLAYER4
  6
CONTINUOUS
 62
     7
 10
122.894770
 20
100.735473
 11
122.921989
 21
100.765830
  0
LINE
  8
CSLAYER4
  6
CONTINUOUS
 62
     7
 10
122.921989
 20
100.765830
 11
122.948494
 21
100.796804
  0
LINE
  8
CSLAYER4
  6
CONTINUOUS
 62
     7
 10
122.948494
 20
100.796804
 11
122.974284
 21
100.828383
  0
LINE
  8
CSLAYER4
  6
CONTINUOUS
 62
     7
 10
122.974284
 20
100.828383
 11
122.999374
 21
100.860539
  0
LINE
  8
CSLAYER4
  6
CONTINUOUS
 62
     7
 10
122.999374
 20
100.860539
 11
123.023777
 21
100.893251
  0
LINE
  8
CSLAYER4
  6
CONTINUOUS
 62
     7
 10
123.023777
 20
100.893251
 11
123.047494
 21
100.926491
  0
LINE
  8
CSLAYER4
  6
CONTINUOUS
 62
     7
 10
123.047494
 20
100.926491
 11
123.070538
 21
100.960240
  0
LINE
  8
CSLAYER4
  6
CONTINUOUS
 62
     7
 10
123.070538
 20
100.960240
 11
123.092936
 21
100.994462
  0
LINE
  8
CSLAYER4
  6
CONTINUOUS
 62
     7
 10
123.092936
 20
100.994462
 11
123.114662
 21
101.029117
  0
LINE
  8
CSLAYER4
  6
CONTINUOUS
 62
     7
 10
123.114662
 20
101.029117
 11
123.135742
 21
101.064191
  0
LINE
  8
CSLAYER4
  6
CONTINUOUS
 62
     7
 10
123.135742
 20
101.064191
 11
123.156190
 21
101.099642
  0
LINE
  8
CSLAYER4
  6
CONTINUOUS
 62
     7
 10
123.156190
 20
101.099642
 11
123.176006
 21
101.135458
  0
LINE
  8
CSLAYER4
  6
CONTINUOUS
 62
     7
 10
123.176006
 20
101.135458
 11
123.195205
 21
101.171610
  0
LINE
  8
CSLAYER4
  6
CONTINUOUS
 62
     7
 10
123.195205
 20
101.171610
 11
123.213814
 21
101.208064
  0
LINE
  8
CSLAYER4
  6
CONTINUOUS
 62
     7
 10
123.213814
 20
101.208064
 11
123.233287
 21
101.248453
  0
LINE
  8
CSLAYER4
  6
CONTINUOUS
 62
     7
 10
123.233287
 20
101.248453
 11
123.251634
 21
101.289356
  0
LINE
  8
CSLAYER4
  6
CONTINUOUS
 62
     7
 10
123.251634
 20
101.289356
 11
123.268868
 21
101.330747
  0
LINE
  8
CSLAYER4
  6
CONTINUOUS
 62
     7
 10
123.268868
 20
101.330747
 11
123.285019
 21
101.372591
  0
LINE
  8
CSLAYER4
  6
CONTINUOUS
 62
     7
 10
123.285019
 20
101.372591
 11
123.300125
 21
101.414861
  0
LINE
  8
CSLAYER4
  6
CONTINUOUS
 62
     7
 10
123.300125
 20
101.414861
 11
123.314201
 21
101.457508
  0
LINE
  8
CSLAYER4
  6
CONTINUOUS
 62
     7
 10
123.314201
 20
101.457508
 11
123.327289
 21
101.500513
  0
LINE
  8
CSLAYER4
  6
CONTINUOUS
 62
     7
 10
123.327289
 20
101.500513
 11
123.339401
 21
101.543833
  0
LINE
  8
CSLAYER4
  6
CONTINUOUS
 62
     7
 10
123.339401
 20
101.543833
 11
123.350566
 21
101.587435
  0
LINE
  8
CSLAYER4
  6
CONTINUOUS
 62
     7
 10
123.350566
 20
101.587435
 11
123.360811
 21
101.631292
  0
LINE
  8
CSLAYER4
  6
CONTINUOUS
 62
     7
 10
123.360811
 20
101.631292
 11
123.370176
 21
101.675368
  0
LINE
  8
CSLAYER4
  6
CONTINUOUS
 62
     7
 10
123.370176
 20
101.675368
 11
123.378677
 21
101.719622
  0
LINE
  8
CSLAYER4
  6
CONTINUOUS
 62
     7
 10
123.378677
 20
101.719622
 11
123.386340
 21
101.764020
  0
LINE
  8
CSLAYER4
  6
CONTINUOUS
 62
     7
 10
123.386340
 20
101.764020
 11
123.393206
 21
101.808542
  0
LINE
  8
CSLAYER4
  6
CONTINUOUS
 62
     7
 10
123.393206
 20
101.808542
 11
123.399290
 21
101.853140
  0
LINE
  8
CSLAYER4
  6
CONTINUOUS
 62
     7
 10
123.399290
 20
101.853140
 11
123.404618
 21
101.897786
  0
LINE
  8
CSLAYER4
  6
CONTINUOUS
 62
     7
 10
123.404618
 20
101.897786
 11
123.409232
 21
101.942445
  0
LINE
  8
CSLAYER4
  6
CONTINUOUS
 62
     7
 10
123.409232
 20
101.942445
 11
123.413147
 21
101.987173
  0
LINE
  8
CSLAYER4
  6
CONTINUOUS
 62
     7
 10
123.413147
 20
101.987173
 11
123.416401
 21
102.031997
  0
LINE
  8
CSLAYER4
  6
CONTINUOUS
 62
     7
 10
123.416401
 20
102.031997
 11
123.419024
 21
102.076890
  0
LINE
  8
CSLAYER4
  6
CONTINUOUS
 62
     7
 10
123.419024
 20
102.076890
 11
123.421016
 21
102.121831
  0
LINE
  8
CSLAYER4
  6
CONTINUOUS
 62
     7
 10
123.421016
 20
102.121831
 11
123.422416
 21
102.166779
  0
LINE
  8
CSLAYER4
  6
CONTINUOUS
 62
     7
 10
123.422416
 20
102.166779
 11
123.423254
 21
102.211713
  0
LINE
  8
CSLAYER4
  6
CONTINUOUS
 62
     7
 10
123.423254
 20
102.211713
 11
123.423515
 21
102.256613
  0
LINE
  8
CSLAYER4
  6
CONTINUOUS
 62
     7
 10
123.423515
 20
102.256613
 11
123.422911
 21
102.312732
  0
LINE
  8
CSLAYER4
  6
CONTINUOUS
 62
     7
 10
123.422911
 20
102.312732
 11
123.421029
 21
102.368852
  0
LINE
  8
CSLAYER4
  6
CONTINUOUS
 62
     7
 10
123.421029
 20
102.368852
 11
123.417816
 21
102.424916
  0
LINE
  8
CSLAYER4
  6
CONTINUOUS
 62
     7
 10
123.417816
 20
102.424916
 11
123.413229
 21
102.480871
  0
LINE
  8
CSLAYER4
  6
CONTINUOUS
 62
     7
 10
123.413229
 20
102.480871
 11
123.407214
 21
102.536675
  0
LINE
  8
CSLAYER4
  6
CONTINUOUS
 62
     7
 10
123.407214
 20
102.536675
 11
123.399688
 21
102.592279
  0
LINE
  8
CSLAYER4
  6
CONTINUOUS
 62
     7
 10
123.399688
 20
102.592279
 11
123.390625
 21
102.647630
  0
LINE
  8
CSLAYER4
  6
CONTINUOUS
 62
     7
 10
123.390625
 20
102.647630
 11
123.379940
 21
102.702685
  0
LINE
  8
CSLAYER4
  6
CONTINUOUS
 62
     7
 10
123.379940
 20
102.702685
 11
123.367594
 21
102.757390
  0
LINE
  8
CSLAYER4
  6
CONTINUOUS
 62
     7
 10
123.367594
 20
102.757390
 11
123.353546
 21
102.811656
  0
LINE
  8
CSLAYER4
  6
CONTINUOUS
 62
     7
 10
123.353546
 20
102.811656
 11
123.337794
 21
102.865255
  0
LINE
  8
CSLAYER4
  6
CONTINUOUS
 62
     7
 10
123.337794
 20
102.865255
 11
123.320299
 21
102.918134
  0
LINE
  8
CSLAYER4
  6
CONTINUOUS
 62
     7
 10
123.320299
 20
102.918134
 11
123.301031
 21
102.970271
  0
LINE
  8
CSLAYER4
  6
CONTINUOUS
 62
     7
 10
123.301031
 20
102.970271
 11
123.279965
 21
103.021639
  0
LINE
  8
CSLAYER4
  6
CONTINUOUS
 62
     7
 10
123.279965
 20
103.021639
 11
123.257058
 21
103.072204
  0
LINE
  8
CSLAYER4
  6
CONTINUOUS
 62
     7
 10
123.257058
 20
103.072204
 11
123.232270
 21
103.121944
  0
LINE
  8
CSLAYER4
  6
CONTINUOUS
 62
     7
 10
123.232270
 20
103.121944
 11
123.205560
 21
103.170833
  0
LINE
  8
CSLAYER4
  6
CONTINUOUS
 62
     7
 10
123.205560
 20
103.170833
 11
123.176913
 21
103.218844
  0
LINE
  8
CSLAYER4
  6
CONTINUOUS
 62
     7
 10
123.176913
 20
103.218844
 11
123.146453
 21
103.265700
  0
LINE
  8
CSLAYER4
  6
CONTINUOUS
 62
     7
 10
123.146453
 20
103.265700
 11
123.114291
 21
103.311204
  0
LINE
  8
CSLAYER4
  6
CONTINUOUS
 62
     7
 10
123.114291
 20
103.311204
 11
123.080480
 21
103.355369
  0
LINE
  8
CSLAYER4
  6
CONTINUOUS
 62
     7
 10
123.080480
 20
103.355369
 11
123.045008
 21
103.398202
  0
LINE
  8
CSLAYER4
  6
CONTINUOUS
 62
     7
 10
123.045008
 20
103.398202
 11
123.007888
 21
103.439710
  0
LINE
  8
CSLAYER4
  6
CONTINUOUS
 62
     7
 10
123.007888
 20
103.439710
 11
122.969148
 21
103.479913
  0
LINE
  8
CSLAYER4
  6
CONTINUOUS
 62
     7
 10
122.969148
 20
103.479913
 11
122.942162
 21
103.506520
  0
LINE
  8
CSLAYER4
  6
CONTINUOUS
 62
     7
 10
122.942162
 20
103.506520
 11
122.914834
 21
103.532702
  0
LINE
  8
CSLAYER4
  6
CONTINUOUS
 62
     7
 10
122.914834
 20
103.532702
 11
122.887176
 21
103.558465
  0
LINE
  8
CSLAYER4
  6
CONTINUOUS
 62
     7
 10
122.887176
 20
103.558465
 11
122.859202
 21
103.583803
  0
LINE
  8
CSLAYER4
  6
CONTINUOUS
 62
     7
 10
122.859202
 20
103.583803
 11
122.830898
 21
103.608721
  0
LINE
  8
CSLAYER4
  6
CONTINUOUS
 62
     7
 10
122.830898
 20
103.608721
 11
122.802266
 21
103.633220
  0
LINE
  8
CSLAYER4
  6
CONTINUOUS
 62
     7
 10
122.802266
 20
103.633220
 11
122.773303
 21
103.657301
  0
LINE
  8
CSLAYER4
  6
CONTINUOUS
 62
     7
 10
122.773303
 20
103.657301
 11
122.744038
 21
103.680970
  0
LINE
  8
CSLAYER4
  6
CONTINUOUS
 62
     7
 10
122.744038
 20
103.680970
 11
122.714444
 21
103.704226
  0
LINE
  8
CSLAYER4
  6
CONTINUOUS
 62
     7
 10
122.714444
 20
103.704226
 11
122.684533
 21
103.727071
  0
LINE
  8
CSLAYER4
  6
CONTINUOUS
 62
     7
 10
122.684533
 20
103.727071
 11
122.654307
 21
103.749503
  0
LINE
  8
CSLAYER4
  6
CONTINUOUS
 62
     7
 10
122.654307
 20
103.749503
 11
122.623779
 21
103.771531
  0
LINE
  8
CSLAYER4
  6
CONTINUOUS
 62
     7
 10
122.623779
 20
103.771531
 11
122.592935
 21
103.793161
  0
LINE
  8
CSLAYER4
  6
CONTINUOUS
 62
     7
 10
122.592935
 20
103.793161
 11
122.561789
 21
103.814378
  0
LINE
  8
CSLAYER4
  6
CONTINUOUS
 62
     7
 10
122.561789
 20
103.814378
 11
122.530327
 21
103.835204
  0
LINE
  8
CSLAYER4
  6
CONTINUOUS
 62
     7
 10
122.530327
 20
103.835204
 11
122.498576
 21
103.855625
  0
LINE
  8
CSLAYER4
  6
CONTINUOUS
 62
     7
 10
122.498576
 20
103.855625
 11
122.466509
 21
103.875647
  0
LINE
  8
CSLAYER4
  6
CONTINUOUS
 62
     7
 10
122.466509
 20
103.875647
 11
122.434155
 21
103.895272
  0
LINE
  8
CSLAYER4
  6
CONTINUOUS
 62
     7
 10
122.434155
 20
103.895272
 11
122.401553
 21
103.914470
  0
LINE
  8
CSLAYER4
  6
CONTINUOUS
 62
     7
 10
122.401553
 20
103.914470
 11
122.368731
 21
103.933250
  0
LINE
  8
CSLAYER4
  6
CONTINUOUS
 62
     7
 10
122.368731
 20
103.933250
 11
122.335676
 21
103.951604
  0
LINE
  8
CSLAYER4
  6
CONTINUOUS
 62
     7
 10
122.335676
 20
103.951604
 11
122.302388
 21
103.969546
  0
LINE
  8
CSLAYER4
  6
CONTINUOUS
 62
     7
 10
122.302388
 20
103.969546
 11
122.268893
 21
103.987069
  0
LINE
  8
CSLAYER4
  6
CONTINUOUS
 62
     7
 10
122.268893
 20
103.987069
 11
122.235165
 21
104.004181
  0
LINE
  8
CSLAYER4
  6
CONTINUOUS
 62
     7
 10
121.046819
 20
104.528455
 11
122.235169
 21
104.004184
  0
LINE
  8
CSLAYER4
  6
CONTINUOUS
 62
     7
 10
121.046822
 20
104.528455
 11
121.021300
 21
104.538837
  0
LINE
  8
CSLAYER4
  6
CONTINUOUS
 62
     7
 10
121.021300
 20
104.538837
 11
120.995852
 21
104.549535
  0
LINE
  8
CSLAYER4
  6
CONTINUOUS
 62
     7
 10
120.995852
 20
104.549535
 11
120.970495
 21
104.560556
  0
LINE
  8
CSLAYER4
  6
CONTINUOUS
 62
     7
 10
120.970495
 20
104.560556
 11
120.945239
 21
104.571913
  0
LINE
  8
CSLAYER4
  6
CONTINUOUS
 62
     7
 10
120.945239
 20
104.571913
 11
120.920115
 21
104.583599
  0
LINE
  8
CSLAYER4
  6
CONTINUOUS
 62
     7
 10
120.920115
 20
104.583599
 11
120.895128
 21
104.595637
  0
LINE
  8
CSLAYER4
  6
CONTINUOUS
 62
     7
 10
120.895128
 20
104.595637
 11
120.870292
 21
104.608024
  0
LINE
  8
CSLAYER4
  6
CONTINUOUS
 62
     7
 10
120.870292
 20
104.608024
 11
120.845635
 21
104.620760
  0
LINE
  8
CSLAYER4
  6
CONTINUOUS
 62
     7
 10
120.845635
 20
104.620760
 11
120.821163
 21
104.633862
  0
LINE
  8
CSLAYER4
  6
CONTINUOUS
 62
     7
 10
120.821163
 20
104.633862
 11
120.796897
 21
104.647327
  0
LINE
  8
CSLAYER4
  6
CONTINUOUS
 62
     7
 10
120.796897
 20
104.647327
 11
120.772850
 21
104.661170
  0
LINE
  8
CSLAYER4
  6
CONTINUOUS
 62
     7
 10
120.772850
 20
104.661170
 11
120.749044
 21
104.675390
  0
LINE
  8
CSLAYER4
  6
CONTINUOUS
 62
     7
 10
120.749044
 20
104.675390
 11
120.725492
 21
104.689988
  0
LINE
  8
CSLAYER4
  6
CONTINUOUS
 62
     7
 10
120.725492
 20
104.689988
 11
120.702208
 21
104.704985
  0
LINE
  8
CSLAYER4
  6
CONTINUOUS
 62
     7
 10
120.702208
 20
104.704985
 11
120.679205
 21
104.720379
  0
LINE
  8
CSLAYER4
  6
CONTINUOUS
 62
     7
 10
120.679205
 20
104.720379
 11
120.656512
 21
104.736179
  0
LINE
  8
CSLAYER4
  6
CONTINUOUS
 62
     7
 10
120.656512
 20
104.736179
 11
120.634134
 21
104.752384
  0
LINE
  8
CSLAYER4
  6
CONTINUOUS
 62
     7
 10
120.634134
 20
104.752384
 11
120.612100
 21
104.769001
  0
LINE
  8
CSLAYER4
  6
CONTINUOUS
 62
     7
 10
120.612100
 20
104.769001
 11
120.590402
 21
104.786043
  0
LINE
  8
CSLAYER4
  6
CONTINUOUS
 62
     7
 10
120.590402
 20
104.786043
 11
120.569068
 21
104.803532
  0
LINE
  8
CSLAYER4
  6
CONTINUOUS
 62
     7
 10
120.569068
 20
104.803532
 11
120.548098
 21
104.821453
  0
LINE
  8
CSLAYER4
  6
CONTINUOUS
 62
     7
 10
120.548098
 20
104.821453
 11
120.527519
 21
104.839835
  0
LINE
  8
CSLAYER4
  6
CONTINUOUS
 62
     7
 10
120.527519
 20
104.839835
 11
120.507345
 21
104.858669
  0
LINE
  8
CSLAYER4
  6
CONTINUOUS
 62
     7
 10
120.507345
 20
104.858669
 11
120.487597
 21
104.877971
  0
LINE
  8
CSLAYER4
  6
CONTINUOUS
 62
     7
 10
120.487597
 20
104.877971
 11
120.471674
 21
104.894306
  0
LINE
  8
CSLAYER4
  6
CONTINUOUS
 62
     7
 10
120.471674
 20
104.894306
 11
120.456218
 21
104.911047
  0
LINE
  8
CSLAYER4
  6
CONTINUOUS
 62
     7
 10
120.456218
 20
104.911047
 11
120.441235
 21
104.928185
  0
LINE
  8
CSLAYER4
  6
CONTINUOUS
 62
     7
 10
120.441235
 20
104.928185
 11
120.426760
 21
104.945736
  0
LINE
  8
CSLAYER4
  6
CONTINUOUS
 62
     7
 10
120.426760
 20
104.945736
 11
120.412808
 21
104.963706
  0
LINE
  8
CSLAYER4
  6
CONTINUOUS
 62
     7
 10
120.412808
 20
104.963706
 11
120.399412
 21
104.982094
  0
LINE
  8
CSLAYER4
  6
CONTINUOUS
 62
     7
 10
120.399412
 20
104.982094
 11
120.386585
 21
105.000915
  0
LINE
  8
CSLAYER4
  6
CONTINUOUS
 62
     7
 10
120.386585
 20
105.000915
 11
120.374356
 21
105.020162
  0
LINE
  8
CSLAYER4
  6
CONTINUOUS
 62
     7
 10
120.374356
 20
105.020162
 11
120.362738
 21
105.039855
  0
LINE
  8
CSLAYER4
  6
CONTINUOUS
 62
     7
 10
120.362738
 20
105.039855
 11
120.351806
 21
105.059918
  0
LINE
  8
CSLAYER4
  6
CONTINUOUS
 62
     7
 10
120.351806
 20
105.059918
 11
120.341609
 21
105.080271
  0
LINE
  8
CSLAYER4
  6
CONTINUOUS
 62
     7
 10
120.341609
 20
105.080271
 11
120.332147
 21
105.100911
  0
LINE
  8
CSLAYER4
  6
CONTINUOUS
 62
     7
 10
120.332147
 20
105.100911
 11
120.323441
 21
105.121840
  0
LINE
  8
CSLAYER4
  6
CONTINUOUS
 62
     7
 10
120.323441
 20
105.121840
 11
120.315476
 21
105.143057
  0
LINE
  8
CSLAYER4
  6
CONTINUOUS
 62
     7
 10
120.315476
 20
105.143057
 11
120.308266
 21
105.164570
  0
LINE
  8
CSLAYER4
  6
CONTINUOUS
 62
     7
 10
120.308266
 20
105.164570
 11
120.301811
 21
105.186371
  0
LINE
  8
CSLAYER4
  6
CONTINUOUS
 62
     7
 10
120.301811
 20
105.186371
 11
120.296119
 21
105.208460
  0
LINE
  8
CSLAYER4
  6
CONTINUOUS
 62
     7
 10
120.296119
 20
105.208460
 11
120.291196
 21
105.230845
  0
LINE
  8
CSLAYER4
  6
CONTINUOUS
 62
     7
 10
120.291196
 20
105.230845
 11
120.287062
 21
105.253374
  0
LINE
  8
CSLAYER4
  6
CONTINUOUS
 62
     7
 10
120.287062
 20
105.253374
 11
120.283718
 21
105.275999
  0
LINE
  8
CSLAYER4
  6
CONTINUOUS
 62
     7
 10
120.283718
 20
105.275999
 11
120.281144
 21
105.298706
  0
LINE
  8
CSLAYER4
  6
CONTINUOUS
 62
     7
 10
120.281144
 20
105.298706
 11
120.279324
 21
105.321496
  0
LINE
  8
CSLAYER4
  6
CONTINUOUS
 62
     7
 10
120.279324
 20
105.321496
 11
120.278246
 21
105.344362
  0
LINE
  8
CSLAYER4
  6
CONTINUOUS
 62
     7
 10
120.278246
 20
105.344362
 11
120.277889
 21
105.367289
  0
LINE
  8
CSLAYER4
  6
CONTINUOUS
 62
     7
 10
120.277889
 20
105.367289
 11
120.278308
 21
105.405590
  0
LINE
  8
CSLAYER4
  6
CONTINUOUS
 62
     7
 10
120.278308
 20
105.405590
 11
120.279599
 21
105.443987
  0
LINE
  8
CSLAYER4
  6
CONTINUOUS
 62
     7
 10
120.279599
 20
105.443987
 11
120.281824
 21
105.482411
  0
LINE
  8
CSLAYER4
  6
CONTINUOUS
 62
     7
 10
120.281824
 20
105.482411
 11
120.285037
 21
105.520802
  0
LINE
  8
CSLAYER4
  6
CONTINUOUS
 62
     7
 10
120.285037
 20
105.520802
 11
120.289301
 21
105.559096
  0
LINE
  8
CSLAYER4
  6
CONTINUOUS
 62
     7
 10
120.289301
 20
105.559096
 11
120.294664
 21
105.597218
  0
LINE
  8
CSLAYER4
  6
CONTINUOUS
 62
     7
 10
120.294664
 20
105.597218
 11
120.301193
 21
105.635122
  0
LINE
  8
CSLAYER4
  6
CONTINUOUS
 62
     7
 10
120.301193
 20
105.635122
 11
120.308946
 21
105.672736
  0
LINE
  8
CSLAYER4
  6
CONTINUOUS
 62
     7
 10
120.308946
 20
105.672736
 11
120.317975
 21
105.709987
  0
LINE
  8
CSLAYER4
  6
CONTINUOUS
 62
     7
 10
120.317975
 20
105.709987
 11
120.328337
 21
105.746818
  0
LINE
  8
CSLAYER4
  6
CONTINUOUS
 62
     7
 10
120.328337
 20
105.746818
 11
120.340085
 21
105.783121
  0
LINE
  8
CSLAYER4
  6
CONTINUOUS
 62
     7
 10
120.340085
 20
105.783121
 11
120.353221
 21
105.818744
  0
LINE
  8
CSLAYER4
  6
CONTINUOUS
 62
     7
 10
120.353221
 20
105.818744
 11
120.367798
 21
105.853640
  0
LINE
  8
CSLAYER4
  6
CONTINUOUS
 62
     7
 10
120.367798
 20
105.853640
 11
120.383859
 21
105.887766
  0
LINE
  8
CSLAYER4
  6
CONTINUOUS
 62
     7
 10
120.383859
 20
105.887766
 11
120.401444
 21
105.921082
  0
LINE
  8
CSLAYER4
  6
CONTINUOUS
 62
     7
 10
120.401444
 20
105.921082
 11
120.420601
 21
105.953526
  0
LINE
  8
CSLAYER4
  6
CONTINUOUS
 62
     7
 10
120.420601
 20
105.953526
 11
120.441365
 21
105.985077
  0
LINE
  8
CSLAYER4
  6
CONTINUOUS
 62
     7
 10
120.441365
 20
105.985077
 11
120.463791
 21
106.015674
  0
LINE
  8
CSLAYER4
  6
CONTINUOUS
 62
     7
 10
120.463791
 20
106.015674
 11
120.487783
 21
106.045111
  0
LINE
  8
CSLAYER4
  6
CONTINUOUS
 62
     7
 10
120.487783
 20
106.045111
 11
120.513106
 21
106.073126
  0
LINE
  8
CSLAYER4
  6
CONTINUOUS
 62
     7
 10
120.513106
 20
106.073126
 11
120.539755
 21
106.099720
  0
LINE
  8
CSLAYER4
  6
CONTINUOUS
 62
     7
 10
120.539755
 20
106.099720
 11
120.567701
 21
106.124912
  0
LINE
  8
CSLAYER4
  6
CONTINUOUS
 62
     7
 10
120.567701
 20
106.124912
 11
120.596925
 21
106.148725
  0
LINE
  8
CSLAYER4
  6
CONTINUOUS
 62
     7
 10
120.596925
 20
106.148725
 11
120.627405
 21
106.171172
  0
LINE
  8
CSLAYER4
  6
CONTINUOUS
 62
     7
 10
120.627405
 20
106.171172
 11
120.655475
 21
106.190130
  0
LINE
  8
CSLAYER4
  6
CONTINUOUS
 62
     7
 10
120.655475
 20
106.190130
 11
120.684081
 21
106.208045
  0
LINE
  8
CSLAYER4
  6
CONTINUOUS
 62
     7
 10
120.684081
 20
106.208045
 11
120.713222
 21
106.224868
  0
LINE
  8
CSLAYER4
  6
CONTINUOUS
 62
     7
 10
120.713222
 20
106.224868
 11
120.742899
 21
106.240564
  0
LINE
  8
CSLAYER4
  6
CONTINUOUS
 62
     7
 10
120.742899
 20
106.240564
 11
120.773132
 21
106.255094
  0
LINE
  8
CSLAYER4
  6
CONTINUOUS
 62
     7
 10
120.773132
 20
106.255094
 11
120.803914
 21
106.268408
  0
LINE
  8
CSLAYER4
  6
CONTINUOUS
 62
     7
 10
120.803914
 20
106.268408
 11
120.835253
 21
106.280472
  0
LINE
  8
CSLAYER4
  6
CONTINUOUS
 62
     7
 10
120.835253
 20
106.280472
 11
120.867148
 21
106.291239
  0
LINE
  8
CSLAYER4
  6
CONTINUOUS
 62
     7
 10
120.867148
 20
106.291239
 11
120.899605
 21
106.300666
  0
LINE
  8
CSLAYER4
  6
CONTINUOUS
 62
     7
 10
120.899605
 20
106.300666
 11
120.932351
 21
106.308652
  0
LINE
  8
CSLAYER4
  6
CONTINUOUS
 62
     7
 10
120.932351
 20
106.308652
 11
120.965228
 21
106.315168
  0
LINE
  8
CSLAYER4
  6
CONTINUOUS
 62
     7
 10
120.965228
 20
106.315168
 11
120.998235
 21
106.320229
  0
LINE
  8
CSLAYER4
  6
CONTINUOUS
 62
     7
 10
120.998235
 20
106.320229
 11
121.031366
 21
106.323854
  0
LINE
  8
CSLAYER4
  6
CONTINUOUS
 62
     7
 10
121.031366
 20
106.323854
 11
121.064627
 21
106.326059
  0
LINE
  8
CSLAYER4
  6
CONTINUOUS
 62
     7
 10
121.064627
 20
106.326059
 11
121.098004
 21
106.326862
  0
LINE
  8
CSLAYER4
  6
CONTINUOUS
 62
     7
 10
121.098004
 20
106.326862
 11
121.131506
 21
106.326278
  0
LINE
  8
CSLAYER4
  6
CONTINUOUS
 62
     7
 10
121.131506
 20
106.326278
 11
121.165117
 21
106.324321
  0
LINE
  8
CSLAYER4
  6
CONTINUOUS
 62
     7
 10
121.165117
 20
106.324321
 11
121.198783
 21
106.321019
  0
LINE
  8
CSLAYER4
  6
CONTINUOUS
 62
     7
 10
121.198783
 20
106.321019
 11
121.232285
 21
106.316432
  0
LINE
  8
CSLAYER4
  6
CONTINUOUS
 62
     7
 10
121.232285
 20
106.316432
 11
121.265573
 21
106.310602
  0
LINE
  8
CSLAYER4
  6
CONTINUOUS
 62
     7
 10
121.265573
 20
106.310602
 11
121.298635
 21
106.303598
  0
LINE
  8
CSLAYER4
  6
CONTINUOUS
 62
     7
 10
121.298635
 20
106.303598
 11
121.331457
 21
106.295462
  0
LINE
  8
CSLAYER4
  6
CONTINUOUS
 62
     7
 10
121.331457
 20
106.295462
 11
121.364032
 21
106.286254
  0
LINE
  8
CSLAYER4
  6
CONTINUOUS
 62
     7
 10
121.364032
 20
106.286254
 11
121.396331
 21
106.276030
  0
LINE
  8
CSLAYER4
  6
CONTINUOUS
 62
     7
 10
121.396331
 20
106.276030
 11
121.454579
 21
106.255842
  0
LINE
  8
CSLAYER4
  6
CONTINUOUS
 62
     7
 10
121.454579
 20
106.255842
 11
121.511406
 21
106.232434
  0
LINE
  8
CSLAYER4
  6
CONTINUOUS
 62
     7
 10
121.511406
 20
106.232434
 11
121.566730
 21
106.205690
  0
LINE
  8
CSLAYER4
  6
CONTINUOUS
 62
     7
 10
121.566730
 20
106.205690
 11
121.620480
 21
106.175512
  0
LINE
  8
CSLAYER4
  6
CONTINUOUS
 62
     7
 10
121.620480
 20
106.175512
 11
121.672349
 21
106.141934
  0
LINE
  8
CSLAYER4
  6
CONTINUOUS
 62
     7
 10
121.672349
 20
106.141934
 11
121.721801
 21
106.105288
  0
LINE
  8
CSLAYER4
  6
CONTINUOUS
 62
     7
 10
121.721801
 20
106.105288
 11
121.768795
 21
106.065634
  0
LINE
  8
CSLAYER4
  6
CONTINUOUS
 62
     7
 10
121.768795
 20
106.065634
 11
121.813386
 21
106.023014
  0
LINE
  8
CSLAYER4
  6
CONTINUOUS
 62
     7
 10
121.813386
 20
106.023014
 11
121.855505
 21
105.977538
  0
LINE
  8
CSLAYER4
  6
CONTINUOUS
 62
     7
 10
121.855505
 20
105.977538
 11
121.894808
 21
105.929782
  0
LINE
  8
CSLAYER4
  6
CONTINUOUS
 62
     7
 10
121.894808
 20
105.929782
 11
121.931311
 21
105.879993
  0
LINE
  8
CSLAYER4
  6
CONTINUOUS
 62
     7
 10
121.931311
 20
105.879993
 11
121.965135
 21
105.828344
  0
LINE
  8
CSLAYER4
  6
CONTINUOUS
 62
     7
 10
121.965135
 20
105.828344
 11
121.996363
 21
105.775025
  0
LINE
  8
CSLAYER4
  6
CONTINUOUS
 62
     7
 10
121.996363
 20
105.775025
 11
122.025120
 21
105.720204
  0
LINE
  8
CSLAYER4
  6
CONTINUOUS
 62
     7
 10
122.025120
 20
105.720204
 11
122.051501
 21
105.664064
  0
LINE
  8
CSLAYER4
  6
CONTINUOUS
 62
     7
 10
122.051501
 20
105.664064
 11
122.075616
 21
105.606777
  0
LINE
  8
CSLAYER4
  6
CONTINUOUS
 62
     7
 10
122.075616
 20
105.606777
 11
122.097575
 21
105.548515
  0
LINE
  8
CSLAYER4
  6
CONTINUOUS
 62
     7
 10
122.097575
 20
105.548515
 11
122.117529
 21
105.489305
  0
LINE
  8
CSLAYER4
  6
CONTINUOUS
 62
     7
 10
122.117529
 20
105.489305
 11
122.135560
 21
105.429286
  0
LINE
  8
CSLAYER4
  6
CONTINUOUS
 62
     7
 10
122.135560
 20
105.429286
 11
122.151765
 21
105.368607
  0
LINE
  8
CSLAYER4
  6
CONTINUOUS
 62
     7
 10
122.151765
 20
105.368607
 11
122.166253
 21
105.307447
  0
LINE
  8
CSLAYER4
  6
CONTINUOUS
 62
     7
 10
122.166253
 20
105.307447
 11
122.179094
 21
105.245951
  0
LINE
  8
CSLAYER4
  6
CONTINUOUS
 62
     7
 10
122.179094
 20
105.245951
 11
122.190382
 21
105.184291
  0
LINE
  8
CSLAYER4
  6
CONTINUOUS
 62
     7
 10
122.190382
 20
105.184291
 11
122.200215
 21
105.122630
  0
LINE
  8
CSLAYER4
  6
CONTINUOUS
 62
     7
 10
123.248761
 20
105.122630
 11
122.200217
 21
105.122630
  0
LINE
  8
CSLAYER4
  6
CONTINUOUS
 62
     7
 10
123.248764
 20
105.122630
 11
123.245522
 21
105.195868
  0
LINE
  8
CSLAYER4
  6
CONTINUOUS
 62
     7
 10
123.245522
 20
105.195868
 11
123.240812
 21
105.269084
  0
LINE
  8
CSLAYER4
  6
CONTINUOUS
 62
     7
 10
123.240812
 20
105.269084
 11
123.234564
 21
105.342219
  0
LINE
  8
CSLAYER4
  6
CONTINUOUS
 62
     7
 10
123.234564
 20
105.342219
 11
123.226722
 21
105.415210
  0
LINE
  8
CSLAYER4
  6
CONTINUOUS
 62
     7
 10
123.226722
 20
105.415210
 11
123.217219
 21
105.487994
  0
LINE
  8
CSLAYER4
  6
CONTINUOUS
 62
     7
 10
123.217219
 20
105.487994
 11
123.205985
 21
105.560504
  0
LINE
  8
CSLAYER4
  6
CONTINUOUS
 62
     7
 10
123.205985
 20
105.560504
 11
123.192967
 21
105.632684
  0
LINE
  8
CSLAYER4
  6
CONTINUOUS
 62
     7
 10
123.192967
 20
105.632684
 11
123.178108
 21
105.704473
  0
LINE
  8
CSLAYER4
  6
CONTINUOUS
 62
     7
 10
123.178108
 20
105.704473
 11
123.161312
 21
105.775795
  0
LINE
  8
CSLAYER4
  6
CONTINUOUS
 62
     7
 10
123.161312
 20
105.775795
 11
123.142567
 21
105.846574
  0
LINE
  8
CSLAYER4
  6
CONTINUOUS
 62
     7
 10
123.142567
 20
105.846574
 11
123.121803
 21
105.916625
  0
LINE
  8
CSLAYER4
  6
CONTINUOUS
 62
     7
 10
123.121803
 20
105.916625
 11
123.099020
 21
105.985874
  0
LINE
  8
CSLAYER4
  6
CONTINUOUS
 62
     7
 10
123.099020
 20
105.985874
 11
123.074136
 21
106.054284
  0
LINE
  8
CSLAYER4
  6
CONTINUOUS
 62
     7
 10
123.074136
 20
106.054284
 11
123.047110
 21
106.121795
  0
LINE
  8
CSLAYER4
  6
CONTINUOUS
 62
     7
 10
123.047110
 20
106.121795
 11
123.017886
 21
106.188365
  0
LINE
  8
CSLAYER4
  6
CONTINUOUS
 62
     7
 10
123.017886
 20
106.188365
 11
122.986424
 21
106.253947
  0
LINE
  8
CSLAYER4
  6
CONTINUOUS
 62
     7
 10
122.986424
 20
106.253947
 11
122.952668
 21
106.318499
  0
LINE
  8
CSLAYER4
  6
CONTINUOUS
 62
     7
 10
122.952668
 20
106.318499
 11
122.916565
 21
106.381972
  0
LINE
  8
CSLAYER4
  6
CONTINUOUS
 62
     7
 10
122.916565
 20
106.381972
 11
122.878208
 21
106.444100
  0
LINE
  8
CSLAYER4
  6
CONTINUOUS
 62
     7
 10
122.878208
 20
106.444100
 11
122.837738
 21
106.504614
  0
LINE
  8
CSLAYER4
  6
CONTINUOUS
 62
     7
 10
122.837738
 20
106.504614
 11
122.795138
 21
106.563508
  0
LINE
  8
CSLAYER4
  6
CONTINUOUS
 62
     7
 10
122.795138
 20
106.563508
 11
122.750410
 21
106.620767
  0
LINE
  8
CSLAYER4
  6
CONTINUOUS
 62
     7
 10
122.750410
 20
106.620767
 11
122.703567
 21
106.676399
  0
LINE
  8
CSLAYER4
  6
CONTINUOUS
 62
     7
 10
122.703567
 20
106.676399
 11
122.654582
 21
106.730396
  0
LINE
  8
CSLAYER4
  6
CONTINUOUS
 62
     7
 10
122.654582
 20
106.730396
 11
122.605047
 21
106.783852
  0
LINE
  8
CSLAYER4
  6
CONTINUOUS
 62
     7
 10
122.605047
 20
106.783852
 11
122.554043
 21
106.835666
  0
LINE
  8
CSLAYER4
  6
CONTINUOUS
 62
     7
 10
122.554043
 20
106.835666
 11
122.501556
 21
106.885764
  0
LINE
  8
CSLAYER4
  6
CONTINUOUS
 62
     7
 10
122.501556
 20
106.885764
 11
122.447545
 21
106.934049
  0
LINE
  8
CSLAYER4
  6
CONTINUOUS
 62
     7
 10
122.447545
 20
106.934049
 11
122.392009
 21
106.980439
  0
LINE
  8
CSLAYER4
  6
CONTINUOUS
 62
     7
 10
122.392009
 20
106.980439
 11
122.334907
 21
107.024851
  0
LINE
  8
CSLAYER4
  6
CONTINUOUS
 62
     7
 10
122.334907
 20
107.024851
 11
122.276199
 21
107.067196
  0
LINE
  8
CSLAYER4
  6
CONTINUOUS
 62
     7
 10
122.276199
 20
107.067196
 11
122.215898
 21
107.107385
  0
LINE
  8
CSLAYER4
  6
CONTINUOUS
 62
     7
 10
122.215898
 20
107.107385
 11
122.153935
 21
107.145337
  0
LINE
  8
CSLAYER4
  6
CONTINUOUS
 62
     7
 10
122.153935
 20
107.145337
 11
122.090654
 21
107.180774
  0
LINE
  8
CSLAYER4
  6
CONTINUOUS
 62
     7
 10
122.090654
 20
107.180774
 11
122.026384
 21
107.213500
  0
LINE
  8
CSLAYER4
  6
CONTINUOUS
 62
     7
 10
122.026384
 20
107.213500
 11
121.961125
 21
107.243520
  0
LINE
  8
CSLAYER4
  6
CONTINUOUS
 62
     7
 10
121.961125
 20
107.243520
 11
121.894864
 21
107.270828
  0
LINE
  8
CSLAYER4
  6
CONTINUOUS
 62
     7
 10
121.894864
 20
107.270828
 11
121.827613
 21
107.295437
  0
LINE
  8
CSLAYER4
  6
CONTINUOUS
 62
     7
 10
121.827613
 20
107.295437
 11
121.759375
 21
107.317348
  0
LINE
  8
CSLAYER4
  6
CONTINUOUS
 62
     7
 10
121.759375
 20
107.317348
 11
121.690161
 21
107.336560
  0
LINE
  8
CSLAYER4
  6
CONTINUOUS
 62
     7
 10
121.690161
 20
107.336560
 11
121.619944
 21
107.353088
  0
LINE
  8
CSLAYER4
  6
CONTINUOUS
 62
     7
 10
121.619944
 20
107.353088
 11
121.548815
 21
107.366917
  0
LINE
  8
CSLAYER4
  6
CONTINUOUS
 62
     7
 10
121.548815
 20
107.366917
 11
121.477287
 21
107.377993
  0
LINE
  8
CSLAYER4
  6
CONTINUOUS
 62
     7
 10
121.477287
 20
107.377993
 11
121.405519
 21
107.386370
  0
LINE
  8
CSLAYER4
  6
CONTINUOUS
 62
     7
 10
121.405519
 20
107.386370
 11
121.333538
 21
107.392124
  0
LINE
  8
CSLAYER4
  6
CONTINUOUS
 62
     7
 10
121.333538
 20
107.392124
 11
121.261385
 21
107.395344
  0
LINE
  8
CSLAYER4
  6
CONTINUOUS
 62
     7
 10
121.261385
 20
107.395344
 11
121.189102
 21
107.396099
  0
LINE
  8
CSLAYER4
  6
CONTINUOUS
 62
     7
 10
121.189102
 20
107.396099
 11
121.116722
 21
107.394472
  0
LINE
  8
CSLAYER4
  6
CONTINUOUS
 62
     7
 10
121.116722
 20
107.394472
 11
121.040608
 21
107.390428
  0
LINE
  8
CSLAYER4
  6
CONTINUOUS
 62
     7
 10
121.040608
 20
107.390428
 11
120.964933
 21
107.383898
  0
LINE
  8
CSLAYER4
  6
CONTINUOUS
 62
     7
 10
120.964933
 20
107.383898
 11
120.889711
 21
107.374827
  0
LINE
  8
CSLAYER4
  6
CONTINUOUS
 62
     7
 10
120.889711
 20
107.374827
 11
120.814983
 21
107.363154
  0
LINE
  8
CSLAYER4
  6
CONTINUOUS
 62
     7
 10
120.814983
 20
107.363154
 11
120.740770
 21
107.348824
  0
LINE
  8
CSLAYER4
  6
CONTINUOUS
 62
     7
 10
120.740770
 20
107.348824
 11
120.667107
 21
107.331775
  0
LINE
  8
CSLAYER4
  6
CONTINUOUS
 62
     7
 10
120.667107
 20
107.331775
 11
120.594020
 21
107.311944
  0
LINE
  8
CSLAYER4
  6
CONTINUOUS
 62
     7
 10
120.594020
 20
107.311944
 11
120.521538
 21
107.289285
  0
LINE
  8
CSLAYER4
  6
CONTINUOUS
 62
     7
 10
120.521538
 20
107.289285
 11
120.449708
 21
107.263735
  0
LINE
  8
CSLAYER4
  6
CONTINUOUS
 62
     7
 10
120.449708
 20
107.263735
 11
120.379073
 21
107.235459
  0
LINE
  8
CSLAYER4
  6
CONTINUOUS
 62
     7
 10
120.379073
 20
107.235459
 11
120.309887
 21
107.204573
  0
LINE
  8
CSLAYER4
  6
CONTINUOUS
 62
     7
 10
120.309887
 20
107.204573
 11
120.242122
 21
107.171113
  0
LINE
  8
CSLAYER4
  6
CONTINUOUS
 62
     7
 10
120.242122
 20
107.171113
 11
120.175764
 21
107.135105
  0
LINE
  8
CSLAYER4
  6
CONTINUOUS
 62
     7
 10
120.175764
 20
107.135105
 11
120.110814
 21
107.096585
  0
LINE
  8
CSLAYER4
  6
CONTINUOUS
 62
     7
 10
120.110814
 20
107.096585
 11
120.047251
 21
107.055592
  0
LINE
  8
CSLAYER4
  6
CONTINUOUS
 62
     7
 10
120.047251
 20
107.055592
 11
119.985062
 21
107.012141
  0
LINE
  8
CSLAYER4
  6
CONTINUOUS
 62
     7
 10
119.985062
 20
107.012141
 11
119.924232
 21
106.966280
  0
LINE
  8
CSLAYER4
  6
CONTINUOUS
 62
     7
 10
119.924232
 20
106.966280
 11
119.864824
 21
106.918091
  0
LINE
  8
CSLAYER4
  6
CONTINUOUS
 62
     7
 10
119.864824
 20
106.918091
 11
119.807132
 21
106.867897
  0
LINE
  8
CSLAYER4
  6
CONTINUOUS
 62
     7
 10
119.807132
 20
106.867897
 11
119.751156
 21
106.815822
  0
LINE
  8
CSLAYER4
  6
CONTINUOUS
 62
     7
 10
119.751156
 20
106.815822
 11
119.696884
 21
106.761962
  0
LINE
  8
CSLAYER4
  6
CONTINUOUS
 62
     7
 10
119.696884
 20
106.761962
 11
119.644266
 21
106.706412
  0
LINE
  8
CSLAYER4
  6
CONTINUOUS
 62
     7
 10
119.644266
 20
106.706412
 11
119.593289
 21
106.649256
  0
LINE
  8
CSLAYER4
  6
CONTINUOUS
 62
     7
 10
119.593289
 20
106.649256
 11
119.543906
 21
106.590589
  0
LINE
  8
CSLAYER4
  6
CONTINUOUS
 62
     7
 10
119.543906
 20
106.590589
 11
119.509162
 21
106.542887
  0
LINE
  8
CSLAYER4
  6
CONTINUOUS
 62
     7
 10
119.509162
 20
106.542887
 11
119.475853
 21
106.494328
  0
LINE
  8
CSLAYER4
  6
CONTINUOUS
 62
     7
 10
119.475853
 20
106.494328
 11
119.443985
 21
106.444924
  0
LINE
  8
CSLAYER4
  6
CONTINUOUS
 62
     7
 10
119.443985
 20
106.444924
 11
119.413580
 21
106.394661
  0
LINE
  8
CSLAYER4
  6
CONTINUOUS
 62
     7
 10
119.413580
 20
106.394661
 11
119.384645
 21
106.343540
  0
LINE
  8
CSLAYER4
  6
CONTINUOUS
 62
     7
 10
119.384645
 20
106.343540
 11
119.357180
 21
106.291555
  0
LINE
  8
CSLAYER4
  6
CONTINUOUS
 62
     7
 10
119.357180
 20
106.291555
 11
119.331197
 21
106.238704
  0
LINE
  8
CSLAYER4
  6
CONTINUOUS
 62
     7
 10
119.331197
 20
106.238704
 11
119.306704
 21
106.184974
  0
LINE
  8
CSLAYER4
  6
CONTINUOUS
 62
     7
 10
119.306704
 20
106.184974
 11
119.283722
 21
106.130399
  0
LINE
  8
CSLAYER4
  6
CONTINUOUS
 62
     7
 10
119.283722
 20
106.130399
 11
119.262368
 21
106.075241
  0
LINE
  8
CSLAYER4
  6
CONTINUOUS
 62
     7
 10
119.262368
 20
106.075241
 11
119.242640
 21
106.019595
  0
LINE
  8
CSLAYER4
  6
CONTINUOUS
 62
     7
 10
119.242640
 20
106.019595
 11
119.224526
 21
105.963475
  0
LINE
  8
CSLAYER4
  6
CONTINUOUS
 62
     7
 10
119.224526
 20
105.963475
 11
119.207992
 21
105.906889
  0
LINE
  8
CSLAYER4
  6
CONTINUOUS
 62
     7
 10
119.207992
 20
105.906889
 11
119.193030
 21
105.849842
  0
LINE
  8
CSLAYER4
  6
CONTINUOUS
 62
     7
 10
119.193030
 20
105.849842
 11
119.179606
 21
105.792364
  0
LINE
  8
CSLAYER4
  6
CONTINUOUS
 62
     7
 10
119.179606
 20
105.792364
 11
119.167700
 21
105.734452
  0
LINE
  8
CSLAYER4
  6
CONTINUOUS
 62
     7
 10
119.167700
 20
105.734452
 11
119.157297
 21
105.676128
  0
LINE
  8
CSLAYER4
  6
CONTINUOUS
 62
     7
 10
119.157297
 20
105.676128
 11
119.148371
 21
105.617440
  0
LINE
  8
CSLAYER4
  6
CONTINUOUS
 62
     7
 10
119.148371
 20
105.617440
 11
119.140914
 21
105.558568
  0
LINE
  8
CSLAYER4
  6
CONTINUOUS
 62
     7
 10
119.140914
 20
105.558568
 11
119.134899
 21
105.499543
  0
LINE
  8
CSLAYER4
  6
CONTINUOUS
 62
     7
 10
119.134899
 20
105.499543
 11
119.130292
 21
105.440396
  0
LINE
  8
CSLAYER4
  6
CONTINUOUS
 62
     7
 10
119.130292
 20
105.440396
 11
119.127043
 21
105.381145
  0
LINE
  8
CSLAYER4
  6
CONTINUOUS
 62
     7
 10
119.127043
 20
105.381145
 11
119.125121
 21
105.321819
  0
LINE
  8
CSLAYER4
  6
CONTINUOUS
 62
     7
 10
119.125121
 20
105.321819
 11
119.124489
 21
105.262438
  0
LINE
  8
CSLAYER4
  6
CONTINUOUS
 62
     7
 10
119.124489
 20
105.262438
 11
119.125079
 21
105.204863
  0
LINE
  8
CSLAYER4
  6
CONTINUOUS
 62
     7
 10
119.125079
 20
105.204863
 11
119.126899
 21
105.147260
  0
LINE
  8
CSLAYER4
  6
CONTINUOUS
 62
     7
 10
119.126899
 20
105.147260
 11
119.129996
 21
105.089671
  0
LINE
  8
CSLAYER4
  6
CONTINUOUS
 62
     7
 10
119.129996
 20
105.089671
 11
119.134439
 21
105.032171
  0
LINE
  8
CSLAYER4
  6
CONTINUOUS
 62
     7
 10
119.134439
 20
105.032171
 11
119.140289
 21
104.974802
  0
LINE
  8
CSLAYER4
  6
CONTINUOUS
 62
     7
 10
119.140289
 20
104.974802
 11
119.147602
 21
104.917632
  0
LINE
  8
CSLAYER4
  6
CONTINUOUS
 62
     7
 10
119.147602
 20
104.917632
 11
119.156432
 21
104.860709
  0
LINE
  8
CSLAYER4
  6
CONTINUOUS
 62
     7
 10
119.156432
 20
104.860709
 11
119.166855
 21
104.804095
  0
LINE
  8
CSLAYER4
  6
CONTINUOUS
 62
     7
 10
119.166855
 20
104.804095
 11
119.178920
 21
104.747845
  0
LINE
  8
CSLAYER4
  6
CONTINUOUS
 62
     7
 10
119.178920
 20
104.747845
 11
119.192680
 21
104.692034
  0
LINE
  8
CSLAYER4
  6
CONTINUOUS
 62
     7
 10
119.192680
 20
104.692034
 11
119.208164
 21
104.636863
  0
LINE
  8
CSLAYER4
  6
CONTINUOUS
 62
     7
 10
119.208164
 20
104.636863
 11
119.225399
 21
104.582384
  0
LINE
  8
CSLAYER4
  6
CONTINUOUS
 62
     7
 10
119.225399
 20
104.582384
 11
119.244433
 21
104.528647
  0
LINE
  8
CSLAYER4
  6
CONTINUOUS
 62
     7
 10
119.244433
 20
104.528647
 11
119.265313
 21
104.475686
  0
LINE
  8
CSLAYER4
  6
CONTINUOUS
 62
     7
 10
119.265313
 20
104.475686
 11
119.288089
 21
104.423542
  0
LINE
  8
CSLAYER4
  6
CONTINUOUS
 62
     7
 10
119.288089
 20
104.423542
 11
119.312795
 21
104.372257
  0
LINE
  8
CSLAYER4
  6
CONTINUOUS
 62
     7
 10
119.312795
 20
104.372257
 11
119.339492
 21
104.321864
  0
LINE
  8
CSLAYER4
  6
CONTINUOUS
 62
     7
 10
119.339492
 20
104.321864
 11
119.368207
 21
104.272398
  0
LINE
  8
CSLAYER4
  6
CONTINUOUS
 62
     7
 10
119.368207
 20
104.272398
 11
119.398873
 21
104.224106
  0
LINE
  8
CSLAYER4
  6
CONTINUOUS
 62
     7
 10
119.398873
 20
104.224106
 11
119.431324
 21
104.177257
  0
LINE
  8
CSLAYER4
  6
CONTINUOUS
 62
     7
 10
119.431324
 20
104.177257
 11
119.465553
 21
104.131841
  0
LINE
  8
CSLAYER4
  6
CONTINUOUS
 62
     7
 10
119.465553
 20
104.131841
 11
119.501554
 21
104.087862
  0
LINE
  8
CSLAYER4
  6
CONTINUOUS
 62
     7
 10
119.501554
 20
104.087862
 11
119.539326
 21
104.045311
  0
LINE
  8
CSLAYER4
  6
CONTINUOUS
 62
     7
 10
119.539326
 20
104.045311
 11
119.578856
 21
104.004181
  0
LINE
  8
CSLAYER4
  6
CONTINUOUS
 62
     7
 10
119.578856
 20
104.004181
 11
119.601907
 21
103.981370
  0
LINE
  8
CSLAYER4
  6
CONTINUOUS
 62
     7
 10
119.601907
 20
103.981370
 11
119.625246
 21
103.958745
  0
LINE
  8
CSLAYER4
  6
CONTINUOUS
 62
     7
 10
119.625246
 20
103.958745
 11
119.648867
 21
103.936340
  0
LINE
  8
CSLAYER4
  6
CONTINUOUS
 62
     7
 10
119.648867
 20
103.936340
 11
119.672776
 21
103.914161
  0
LINE
  8
CSLAYER4
  6
CONTINUOUS
 62
     7
 10
119.672776
 20
103.914161
 11
119.696966
 21
103.892237
  0
LINE
  8
CSLAYER4
  6
CONTINUOUS
 62
     7
 10
119.696966
 20
103.892237
 11
119.721438
 21
103.870580
  0
LINE
  8
CSLAYER4
  6
CONTINUOUS
 62
     7
 10
119.721438
 20
103.870580
 11
119.746185
 21
103.849219
  0
LINE
  8
CSLAYER4
  6
CONTINUOUS
 62
     7
 10
119.746185
 20
103.849219
 11
119.771206
 21
103.828172
  0
LINE
  8
CSLAYER4
  6
CONTINUOUS
 62
     7
 10
119.771206
 20
103.828172
 11
119.796502
 21
103.807457
  0
LINE
  8
CSLAYER4
  6
CONTINUOUS
 62
     7
 10
119.796502
 20
103.807457
 11
119.822073
 21
103.787090
  0
LINE
  8
CSLAYER4
  6
CONTINUOUS
 62
     7
 10
119.822073
 20
103.787090
 11
119.847905
 21
103.767095
  0
LINE
  8
CSLAYER4
  6
CONTINUOUS
 62
     7
 10
119.847905
 20
103.767095
 11
119.874011
 21
103.747499
  0
LINE
  8
CSLAYER4
  6
CONTINUOUS
 62
     7
 10
119.874011
 20
103.747499
 11
119.900378
 21
103.728314
  0
LINE
  8
CSLAYER4
  6
CONTINUOUS
 62
     7
 10
119.900378
 20
103.728314
 11
119.927006
 21
103.709555
  0
LINE
  8
CSLAYER4
  6
CONTINUOUS
 62
     7
 10
119.927006
 20
103.709555
 11
119.953888
 21
103.691255
  0
LINE
  8
CSLAYER4
  6
CONTINUOUS
 62
     7
 10
119.953888
 20
103.691255
 11
119.981032
 21
103.673423
  0
LINE
  8
CSLAYER4
  6
CONTINUOUS
 62
     7
 10
119.981032
 20
103.673423
 11
120.008435
 21
103.656086
  0
LINE
  8
CSLAYER4
  6
CONTINUOUS
 62
     7
 10
120.008435
 20
103.656086
 11
120.036086
 21
103.639263
  0
LINE
  8
CSLAYER4
  6
CONTINUOUS
 62
     7
 10
120.036086
 20
103.639263
 11
120.064006
 21
103.622962
  0
LINE
  8
CSLAYER4
  6
CONTINUOUS
 62
     7
 10
120.064006
 20
103.622962
 11
120.092220
 21
103.607183
  0
LINE
  8
CSLAYER4
  6
CONTINUOUS
 62
     7
 10
120.092220
 20
103.607183
 11
120.120722
 21
103.591960
  0
LINE
  8
CSLAYER4
  6
CONTINUOUS
 62
     7
 10
120.120722
 20
103.591960
 11
120.149521
 21
103.577307
  0
LINE
  8
CSLAYER4
  6
CONTINUOUS
 62
     7
 10
120.149521
 20
103.577307
 11
120.178607
 21
103.563251
  0
LINE
  8
CSLAYER4
  6
CONTINUOUS
 62
     7
 10
120.178607
 20
103.563251
 11
120.207982
 21
103.549813
  0
LINE
  8
CSLAYER4
  6
CONTINUOUS
 62
     7
 10
121.675945
 20
102.920688
 11
120.207984
 21
103.549814
  0
LINE
  8
CSLAYER4
  6
CONTINUOUS
 62
     7
 10
121.675947
 20
102.920688
 11
121.717874
 21
102.901428
  0
LINE
  8
CSLAYER4
  6
CONTINUOUS
 62
     7
 10
121.717874
 20
102.901428
 11
121.759031
 21
102.880581
  0
LINE
  8
CSLAYER4
  6
CONTINUOUS
 62
     7
 10
121.759031
 20
102.880581
 11
121.799324
 21
102.858073
  0
LINE
  8
CSLAYER4
  6
CONTINUOUS
 62
     7
 10
121.799324
 20
102.858073
 11
121.838600
 21
102.833841
  0
LINE
  8
CSLAYER4
  6
CONTINUOUS
 62
     7
 10
121.838600
 20
102.833841
 11
121.876750
 21
102.807817
  0
LINE
  8
CSLAYER4
  6
CONTINUOUS
 62
     7
 10
121.876750
 20
102.807817
 11
121.913581
 21
102.779981
  0
LINE
  8
CSLAYER4
  6
CONTINUOUS
 62
     7
 10
121.913581
 20
102.779981
 11
121.948834
 21
102.750400
  0
LINE
  8
CSLAYER4
  6
CONTINUOUS
 62
     7
 10
121.948834
 20
102.750400
 11
121.982425
 21
102.719041
  0
LINE
  8
CSLAYER4
  6
CONTINUOUS
 62
     7
 10
121.982425
 20
102.719041
 11
122.014258
 21
102.685855
  0
LINE
  8
CSLAYER4
  6
CONTINUOUS
 62
     7
 10
122.014258
 20
102.685855
 11
122.044277
 21
102.650802
  0
LINE
  8
CSLAYER4
  6
CONTINUOUS
 62
     7
 10
122.044277
 20
102.650802
 11
122.072238
 21
102.614046
  0
LINE
  8
CSLAYER4
  6
CONTINUOUS
 62
     7
 10
122.072238
 20
102.614046
 11
122.097836
 21
102.576013
  0
LINE
  8
CSLAYER4
  6
CONTINUOUS
 62
     7
 10
122.097836
 20
102.576013
 11
122.121100
 21
102.536757
  0
LINE
  8
CSLAYER4
  6
CONTINUOUS
 62
     7
 10
122.121100
 20
102.536757
 11
122.142070
 21
102.496300
  0
LINE
  8
CSLAYER4
  6
CONTINUOUS
 62
     7
 10
122.142070
 20
102.496300
 11
122.160774
 21
102.454682
  0
LINE
  8
CSLAYER4
  6
CONTINUOUS
 62
     7
 10
122.160774
 20
102.454682
 11
122.177281
 21
102.411932
  0
LINE
  8
CSLAYER4
  6
CONTINUOUS
 62
     7
 10
122.177281
 20
102.411932
 11
122.191618
 21
102.368076
  0
LINE
  8
CSLAYER4
  6
CONTINUOUS
 62
     7
 10
122.191618
 20
102.368076
 11
122.203813
 21
102.323272
  0
LINE
  8
CSLAYER4
  6
CONTINUOUS
 62
     7
 10
122.203813
 20
102.323272
 11
122.213838
 21
102.277947
  0
LINE
  8
CSLAYER4
  6
CONTINUOUS
 62
     7
 10
122.213838
 20
102.277947
 11
122.221803
 21
102.232202
  0
LINE
  8
CSLAYER4
  6
CONTINUOUS
 62
     7
 10
122.221803
 20
102.232202
 11
122.227818
 21
102.186136
  0
LINE
  8
CSLAYER4
  6
CONTINUOUS
 62
     7
 10
122.227818
 20
102.186136
 11
122.231965
 21
102.139835
  0
LINE
  8
CSLAYER4
  6
CONTINUOUS
 62
     7
 10
122.231965
 20
102.139835
 11
122.234382
 21
102.093397
  0
LINE
  8
CSLAYER4
  6
CONTINUOUS
 62
     7
 10
122.234382
 20
102.093397
 11
122.235165
 21
102.046904
  0
LINE
  8
CSLAYER4
  6
CONTINUOUS
 62
     7
 10
122.235165
 20
102.046904
 11
122.234190
 21
102.003446
  0
LINE
  8
CSLAYER4
  6
CONTINUOUS
 62
     7
 10
122.234190
 20
102.003446
 11
122.231182
 21
101.960181
  0
LINE
  8
CSLAYER4
  6
CONTINUOUS
 62
     7
 10
122.231182
 20
101.960181
 11
122.226074
 21
101.917149
  0
LINE
  8
CSLAYER4
  6
CONTINUOUS
 62
     7
 10
122.226074
 20
101.917149
 11
122.218741
 21
101.874398
  0
LINE
  8
CSLAYER4
  6
CONTINUOUS
 62
     7
 10
122.218741
 20
101.874398
 11
122.209127
 21
101.832025
  0
LINE
  8
CSLAYER4
  6
CONTINUOUS
 62
     7
 10
122.209127
 20
101.832025
 11
122.197235
 21
101.790394
  0
LINE
  8
CSLAYER4
  6
CONTINUOUS
 62
     7
 10
122.197235
 20
101.790394
 11
122.183062
 21
101.749628
  0
LINE
  8
CSLAYER4
  6
CONTINUOUS
 62
     7
 10
122.183062
 20
101.749628
 11
122.166596
 21
101.709727
  0
LINE
  8
CSLAYER4
  6
CONTINUOUS
 62
     7
 10
122.166596
 20
101.709727
 11
122.147810
 21
101.670705
  0
LINE
  8
CSLAYER4
  6
CONTINUOUS
 62
     7
 10
122.147810
 20
101.670705
 11
122.126854
 21
101.632816
  0
LINE
  8
CSLAYER4
  6
CONTINUOUS
 62
     7
 10
122.126854
 20
101.632816
 11
122.103947
 21
101.596382
  0
LINE
  8
CSLAYER4
  6
CONTINUOUS
 62
     7
 10
122.103947
 20
101.596382
 11
122.079187
 21
101.561377
  0
LINE
  8
CSLAYER4
  6
CONTINUOUS
 62
     7
 10
122.079187
 20
101.561377
 11
122.052682
 21
101.527773
  0
LINE
  8
CSLAYER4
  6
CONTINUOUS
 62
     7
 10
122.052682
 20
101.527773
 11
122.024516
 21
101.495528
  0
LINE
  8
CSLAYER4
  6
CONTINUOUS
 62
     7
 10
122.024516
 20
101.495528
 11
121.994784
 21
101.464609
  0
LINE
  8
CSLAYER4
  6
CONTINUOUS
 62
     7
 10
121.994784
 20
101.464609
 11
121.963555
 21
101.434987
  0
LINE
  8
CSLAYER4
  6
CONTINUOUS
 62
     7
 10
121.963555
 20
101.434987
 11
121.930954
 21
101.406628
  0
LINE
  8
CSLAYER4
  6
CONTINUOUS
 62
     7
 10
121.930954
 20
101.406628
 11
121.897115
 21
101.379560
  0
LINE
  8
CSLAYER4
  6
CONTINUOUS
 62
     7
 10
121.897115
 20
101.379560
 11
121.862221
 21
101.353784
  0
LINE
  8
CSLAYER4
  6
CONTINUOUS
 62
     7
 10
121.862221
 20
101.353784
 11
121.826377
 21
101.329264
  0
LINE
  8
CSLAYER4
  6
CONTINUOUS
 62
     7
 10
121.826377
 20
101.329264
 11
121.789711
 21
101.305959
  0
LINE
  8
CSLAYER4
  6
CONTINUOUS
 62
     7
 10
121.789711
 20
101.305959
 11
121.752343
 21
101.283849
  0
LINE
  8
CSLAYER4
  6
CONTINUOUS
 62
     7
 10
121.752343
 20
101.283849
 11
121.714385
 21
101.262879
  0
LINE
  8
CSLAYER4
  6
CONTINUOUS
 62
     7
 10
121.714385
 20
101.262879
 11
121.675947
 21
101.243021
  0
LINE
  8
CSLAYER4
  6
CONTINUOUS
 62
     7
 10
121.675947
 20
101.243021
 11
121.638731
 21
101.232097
  0
LINE
  8
CSLAYER4
  6
CONTINUOUS
 62
     7
 10
121.638731
 20
101.232097
 11
121.601343
 21
101.222181
  0
LINE
  8
CSLAYER4
  6
CONTINUOUS
 62
     7
 10
121.601343
 20
101.222181
 11
121.563763
 21
101.213296
  0
LINE
  8
CSLAYER4
  6
CONTINUOUS
 62
     7
 10
121.563763
 20
101.213296
 11
121.526005
 21
101.205448
  0
LINE
  8
CSLAYER4
  6
CONTINUOUS
 62
     7
 10
121.526005
 20
101.205448
 11
121.488061
 21
101.198657
  0
LINE
  8
CSLAYER4
  6
CONTINUOUS
 62
     7
 10
121.488061
 20
101.198657
 11
121.449931
 21
101.192930
  0
LINE
  8
CSLAYER4
  6
CONTINUOUS
 62
     7
 10
121.449931
 20
101.192930
 11
121.411623
 21
101.188302
  0
LINE
  8
CSLAYER4
  6
CONTINUOUS
 62
     7
 10
121.411623
 20
101.188302
 11
121.373137
 21
101.184773
  0
LINE
  8
CSLAYER4
  6
CONTINUOUS
 62
     7
 10
121.373137
 20
101.184773
 11
121.334471
 21
101.182363
  0
LINE
  8
CSLAYER4
  6
CONTINUOUS
 62
     7
 10
121.334471
 20
101.182363
 11
121.295800
 21
101.181099
  0
LINE
  8
CSLAYER4
  6
CONTINUOUS
 62
     7
 10
121.295800
 20
101.181099
 11
121.257217
 21
101.180969
  0
LINE
  8
CSLAYER4
  6
CONTINUOUS
 62
     7
 10
121.257217
 20
101.180969
 11
121.218717
 21
101.181964
  0
LINE
  8
CSLAYER4
  6
CONTINUOUS
 62
     7
 10
121.218717
 20
101.181964
 11
121.180292
 21
101.184093
  0
LINE
  8
CSLAYER4
  6
CONTINUOUS
 62
     7
 10
121.180292
 20
101.184093
 11
121.141957
 21
101.187327
  0
LINE
  8
CSLAYER4
  6
CONTINUOUS
 62
     7
 10
121.141957
 20
101.187327
 11
121.103704
 21
101.191681
  0
LINE
  8
CSLAYER4
  6
CONTINUOUS
 62
     7
 10
121.103704
 20
101.191681
 11
121.065526
 21
101.197132
  0
LINE
  8
CSLAYER4
  6
CONTINUOUS
 62
     7
 10
121.065526
 20
101.197132
 11
121.027438
 21
101.203676
  0
LINE
  8
CSLAYER4
  6
CONTINUOUS
 62
     7
 10
121.027438
 20
101.203676
 11
120.989453
 21
101.211305
  0
LINE
  8
CSLAYER4
  6
CONTINUOUS
 62
     7
 10
120.989453
 20
101.211305
 11
120.951722
 21
101.219970
  0
LINE
  8
CSLAYER4
  6
CONTINUOUS
 62
     7
 10
120.951722
 20
101.219970
 11
120.914258
 21
101.229645
  0
LINE
  8
CSLAYER4
  6
CONTINUOUS
 62
     7
 10
120.914258
 20
101.229645
 11
120.877076
 21
101.240309
  0
LINE
  8
CSLAYER4
  6
CONTINUOUS
 62
     7
 10
120.877076
 20
101.240309
 11
120.840176
 21
101.251934
  0
LINE
  8
CSLAYER4
  6
CONTINUOUS
 62
     7
 10
120.840176
 20
101.251934
 11
120.803550
 21
101.264492
  0
LINE
  8
CSLAYER4
  6
CONTINUOUS
 62
     7
 10
120.803550
 20
101.264492
 11
120.767206
 21
101.277971
  0
LINE
  8
CSLAYER4
  6
CONTINUOUS
 62
     7
 10
120.767206
 20
101.277971
 11
120.741807
 21
101.288435
  0
LINE
  8
CSLAYER4
  6
CONTINUOUS
 62
     7
 10
120.741807
 20
101.288435
 11
120.716607
 21
101.299436
  0
LINE
  8
CSLAYER4
  6
CONTINUOUS
 62
     7
 10
120.716607
 20
101.299436
 11
120.691655
 21
101.310992
  0
LINE
  8
CSLAYER4
  6
CONTINUOUS
 62
     7
 10
120.691655
 20
101.310992
 11
120.666963
 21
101.323111
  0
LINE
  8
CSLAYER4
  6
CONTINUOUS
 62
     7
 10
120.666963
 20
101.323111
 11
120.642566
 21
101.335821
  0
LINE
  8
CSLAYER4
  6
CONTINUOUS
 62
     7
 10
120.642566
 20
101.335821
 11
120.618493
 21
101.349121
  0
LINE
  8
CSLAYER4
  6
CONTINUOUS
 62
     7
 10
120.618493
 20
101.349121
 11
120.594776
 21
101.363040
  0
LINE
  8
CSLAYER4
  6
CONTINUOUS
 62
     7
 10
120.594776
 20
101.363040
 11
120.571436
 21
101.377590
  0
LINE
  8
CSLAYER4
  6
CONTINUOUS
 62
     7
 10
120.571436
 20
101.377590
 11
120.548503
 21
101.392778
  0
LINE
  8
CSLAYER4
  6
CONTINUOUS
 62
     7
 10
120.548503
 20
101.392778
 11
120.526022
 21
101.408619
  0
LINE
  8
CSLAYER4
  6
CONTINUOUS
 62
     7
 10
120.526022
 20
101.408619
 11
120.504063
 21
101.425085
  0
LINE
  8
CSLAYER4
  6
CONTINUOUS
 62
     7
 10
120.504063
 20
101.425085
 11
120.482660
 21
101.442182
  0
LINE
  8
CSLAYER4
  6
CONTINUOUS
 62
     7
 10
120.482660
 20
101.442182
 11
120.461834
 21
101.459926
  0
LINE
  8
CSLAYER4
  6
CONTINUOUS
 62
     7
 10
120.461834
 20
101.459926
 11
120.441599
 21
101.478320
  0
LINE
  8
CSLAYER4
  6
CONTINUOUS
 62
     7
 10
120.441599
 20
101.478320
 11
120.421975
 21
101.497382
  0
LINE
  8
CSLAYER4
  6
CONTINUOUS
 62
     7
 10
120.421975
 20
101.497382
 11
120.402982
 21
101.517123
  0
LINE
  8
CSLAYER4
  6
CONTINUOUS
 62
     7
 10
120.402982
 20
101.517123
 11
120.384641
 21
101.537551
  0
LINE
  8
CSLAYER4
  6
CONTINUOUS
 62
     7
 10
120.384641
 20
101.537551
 11
120.366974
 21
101.558679
  0
LINE
  8
CSLAYER4
  6
CONTINUOUS
 62
     7
 10
120.366974
 20
101.558679
 11
120.350062
 21
101.580439
  0
LINE
  8
CSLAYER4
  6
CONTINUOUS
 62
     7
 10
120.350062
 20
101.580439
 11
120.333974
 21
101.602748
  0
LINE
  8
CSLAYER4
  6
CONTINUOUS
 62
     7
 10
120.333974
 20
101.602748
 11
120.318717
 21
101.625592
  0
LINE
  8
CSLAYER4
  6
CONTINUOUS
 62
     7
 10
120.318717
 20
101.625592
 11
120.304283
 21
101.648980
  0
LINE
  8
CSLAYER4
  6
CONTINUOUS
 62
     7
 10
120.304283
 20
101.648980
 11
120.290674
 21
101.672916
  0
LINE
  8
CSLAYER4
  6
CONTINUOUS
 62
     7
 10
120.290674
 20
101.672916
 11
120.277889
 21
101.697388
  0
LINE
  8
CSLAYER4
  6
CONTINUOUS
 62
     7
 10
120.277889
 20
101.697388
 11
120.264163
 21
101.725787
  0
LINE
  8
CSLAYER4
  6
CONTINUOUS
 62
     7
 10
120.264163
 20
101.725787
 11
120.250958
 21
101.754984
  0
LINE
  8
CSLAYER4
  6
CONTINUOUS
 62
     7
 10
120.250958
 20
101.754984
 11
120.238270
 21
101.784928
  0
LINE
  8
CSLAYER4
  6
CONTINUOUS
 62
     7
 10
120.238270
 20
101.784928
 11
120.226075
 21
101.815573
  0
LINE
  8
CSLAYER4
  6
CONTINUOUS
 62
     7
 10
120.226075
 20
101.815573
 11
120.214367
 21
101.846864
  0
LINE
  8
CSLAYER4
  6
CONTINUOUS
 62
     7
 10
120.214367
 20
101.846864
 11
120.203141
 21
101.878745
  0
LINE
  8
CSLAYER4
  6
CONTINUOUS
 62
     7
 10
120.203141
 20
101.878745
 11
120.192374
 21
101.911162
  0
LINE
  8
CSLAYER4
  6
CONTINUOUS
 62
     7
 10
120.192374
 20
101.911162
 11
120.182054
 21
101.944079
  0
LINE
  8
CSLAYER4
  6
CONTINUOUS
 62
     7
 10
120.182054
 20
101.944079
 11
120.172180
 21
101.977423
  0
LINE
  8
CSLAYER4
  6
CONTINUOUS
 62
     7
 10
120.172180
 20
101.977423
 11
120.162739
 21
102.011164
  0
LINE
  8
CSLAYER4
  6
CONTINUOUS
 62
     7
 10
120.162739
 20
102.011164
 11
120.153709
 21
102.045236
  0
LINE
  8
CSLAYER4
  6
CONTINUOUS
 62
     7
 10
120.153709
 20
102.045236
 11
120.145085
 21
102.079589
  0
LINE
  8
CSLAYER4
  6
CONTINUOUS
 62
     7
 10
120.145085
 20
102.079589
 11
120.136852
 21
102.114175
  0
LINE
  8
CSLAYER4
  6
CONTINUOUS
 62
     7
 10
120.136852
 20
102.114175
 11
120.129004
 21
102.148940
  0
LINE
  8
CSLAYER4
  6
CONTINUOUS
 62
     7
 10
120.129004
 20
102.148940
 11
120.121519
 21
102.183829
  0
LINE
  8
CSLAYER4
  6
CONTINUOUS
 62
     7
 10
120.121519
 20
102.183829
 11
120.114398
 21
102.218799
  0
LINE
  8
CSLAYER4
  6
CONTINUOUS
 62
     7
 10
120.114398
 20
102.218799
 11
120.107614
 21
102.253804
  0
LINE
  8
CSLAYER4
  6
CONTINUOUS
 62
     7
 10
120.107614
 20
102.253804
 11
120.101146
 21
102.288947
  0
LINE
  8
CSLAYER4
  6
CONTINUOUS
 62
     7
 10
120.101146
 20
102.288947
 11
120.094966
 21
102.324220
  0
LINE
  8
CSLAYER4
  6
CONTINUOUS
 62
     7
 10
120.094966
 20
102.324220
 11
120.089068
 21
102.359596
  0
LINE
  8
CSLAYER4
  6
CONTINUOUS
 62
     7
 10
120.089068
 20
102.359596
 11
120.083452
 21
102.395027
  0
LINE
  8
CSLAYER4
  6
CONTINUOUS
 62
     7
 10
120.083452
 20
102.395027
 11
120.078103
 21
102.430471
  0
LINE
  8
CSLAYER4
  6
CONTINUOUS
 62
     7
 10
120.078103
 20
102.430471
 11
120.073015
 21
102.465902
  0
LINE
  8
CSLAYER4
  6
CONTINUOUS
 62
     7
 10
120.073015
 20
102.465902
 11
120.068180
 21
102.501271
  0
LINE
  8
CSLAYER4
  6
CONTINUOUS
 62
     7
 10
118.949732
 20
102.501271
 11
120.068179
 21
102.501271
  0
LINE
  8
CSLAYER4
  6
CONTINUOUS
 62
     7
 10
118.949731
 20
102.501271
 11
118.960168
 21
102.377325
  0
LINE
  8
CSLAYER4
  6
CONTINUOUS
 62
     7
 10
118.960168
 20
102.377325
 11
118.973640
 21
102.253172
  0
LINE
  8
CSLAYER4
  6
CONTINUOUS
 62
     7
 10
118.973640
 20
102.253172
 11
118.990373
 21
102.129164
  0
LINE
  8
CSLAYER4
  6
CONTINUOUS
 62
     7
 10
118.990373
 20
102.129164
 11
119.010595
 21
102.005671
  0
LINE
  8
CSLAYER4
  6
CONTINUOUS
 62
     7
 10
119.010595
 20
102.005671
 11
119.034532
 21
101.883057
  0
LINE
  8
CSLAYER4
  6
CONTINUOUS
 62
     7
 10
119.034532
 20
101.883057
 11
119.062409
 21
101.761679
  0
LINE
  8
CSLAYER4
  6
CONTINUOUS
 62
     7
 10
119.062409
 20
101.761679
 11
119.094476
 21
101.641818
  0
LINE
  8
CSLAYER4
  6
CONTINUOUS
 62
     7
 10
119.094476
 20
101.641818
 11
119.131157
 21
101.523282
  0
LINE
  8
CSLAYER4
  6
CONTINUOUS
 62
     7
 10
119.131157
 20
101.523282
 11
119.172774
 21
101.406408
  0
LINE
  8
CSLAYER4
  6
CONTINUOUS
 62
     7
 10
119.172774
 20
101.406408
 11
119.219624
 21
101.291649
  0
LINE
  8
CSLAYER4
  6
CONTINUOUS
 62
     7
 10
119.219624
 20
101.291649
 11
119.272001
 21
101.179479
  0
LINE
  8
CSLAYER4
  6
CONTINUOUS
 62
     7
 10
119.272001
 20
101.179479
 11
119.330201
 21
101.070337
  0
LINE
  8
CSLAYER4
  6
CONTINUOUS
 62
     7
 10
119.330201
 20
101.070337
 11
119.394279
 21
100.965074
  0
LINE
  8
CSLAYER4
  6
CONTINUOUS
 62
     7
 10
119.394279
 20
100.965074
 11
119.464028
 21
100.864652
  0
LINE
  8
CSLAYER4
  6
CONTINUOUS
 62
     7
 10
119.464028
 20
100.864652
 11
119.539628
 21
100.769318
  0
LINE
  8
CSLAYER4
  6
CONTINUOUS
 62
     7
 10
119.539628
 20
100.769318
 11
119.621236
 21
100.679312
  0
LINE
  8
CSLAYER4
  6
CONTINUOUS
 62
     7
 10
119.621236
 20
100.679312
 11
119.709031
 21
100.594855
  0
LINE
  8
CSLAYER4
  6
CONTINUOUS
 62
     7
 10
119.709031
 20
100.594855
 11
119.803149
 21
100.516214
  0
LINE
  8
CSLAYER4
  6
CONTINUOUS
 62
     7
 10
119.803149
 20
100.516214
 11
119.902218
 21
100.444637
  0
LINE
  8
CSLAYER4
  6
CONTINUOUS
 62
     7
 10
119.902218
 20
100.444637
 11
120.005256
 21
100.380580
  0
LINE
  8
CSLAYER4
  6
CONTINUOUS
 62
     7
 10
120.005256
 20
100.380580
 11
120.112036
 21
100.323781
  0
LINE
  8
CSLAYER4
  6
CONTINUOUS
 62
     7
 10
120.112036
 20
100.323781
 11
120.222339
 21
100.273999
  0
LINE
  8
CSLAYER4
  6
CONTINUOUS
 62
     7
 10
120.222339
 20
100.273999
 11
120.335951
 21
100.230981
  0
LINE
  8
CSLAYER4
  6
CONTINUOUS
 62
     7
 10
120.335951
 20
100.230981
 11
120.452647
 21
100.194472
  0
ENDBLK
  8
0
  0
BLOCK
  8
CSLAYER1
  2
BLKF0006
 70
   64
 10
0.0
 20
0.0
 30
0.0
  0
LINE
  8
CSLAYER4
  6
CONTINUOUS
 62
     7
 10
84.573326
 20
91.224518
 11
84.662645
 21
91.198852
  0
LINE
  8
CSLAYER4
  6
CONTINUOUS
 62
     7
 10
84.662645
 20
91.198852
 11
84.752513
 21
91.175877
  0
LINE
  8
CSLAYER4
  6
CONTINUOUS
 62
     7
 10
84.752513
 20
91.175877
 11
84.842903
 21
91.155703
  0
LINE
  8
CSLAYER4
  6
CONTINUOUS
 62
     7
 10
84.842903
 20
91.155703
 11
84.933794
 21
91.138441
  0
LINE
  8
CSLAYER4
  6
CONTINUOUS
 62
     7
 10
84.933794
 20
91.138441
 11
85.025153
 21
91.124213
  0
LINE
  8
CSLAYER4
  6
CONTINUOUS
 62
     7
 10
85.025153
 20
91.124213
 11
85.116943
 21
91.113118
  0
LINE
  8
CSLAYER4
  6
CONTINUOUS
 62
     7
 10
85.116943
 20
91.113118
 11
85.209146
 21
91.105276
  0
LINE
  8
CSLAYER4
  6
CONTINUOUS
 62
     7
 10
85.209146
 20
91.105276
 11
85.301726
 21
91.100792
  0
LINE
  8
CSLAYER4
  6
CONTINUOUS
 62
     7
 10
85.301726
 20
91.100792
 11
85.394664
 21
91.099776
  0
LINE
  8
CSLAYER4
  6
CONTINUOUS
 62
     7
 10
85.394664
 20
91.099776
 11
85.487478
 21
91.102323
  0
LINE
  8
CSLAYER4
  6
CONTINUOUS
 62
     7
 10
85.487478
 20
91.102323
 11
85.579674
 21
91.108448
  0
LINE
  8
CSLAYER4
  6
CONTINUOUS
 62
     7
 10
85.579674
 20
91.108448
 11
85.671259
 21
91.118150
  0
LINE
  8
CSLAYER4
  6
CONTINUOUS
 62
     7
 10
85.671259
 20
91.118150
 11
85.762225
 21
91.131444
  0
LINE
  8
CSLAYER4
  6
CONTINUOUS
 62
     7
 10
85.762225
 20
91.131444
 11
85.852588
 21
91.148321
  0
LINE
  8
CSLAYER4
  6
CONTINUOUS
 62
     7
 10
85.852588
 20
91.148321
 11
85.942333
 21
91.168790
  0
LINE
  8
CSLAYER4
  6
CONTINUOUS
 62
     7
 10
85.942333
 20
91.168790
 11
86.031445
 21
91.192850
  0
LINE
  8
CSLAYER4
  6
CONTINUOUS
 62
     7
 10
86.031445
 20
91.192850
 11
86.119954
 21
91.220509
  0
LINE
  8
CSLAYER4
  6
CONTINUOUS
 62
     7
 10
86.119954
 20
91.220509
 11
86.207776
 21
91.251737
  0
LINE
  8
CSLAYER4
  6
CONTINUOUS
 62
     7
 10
86.207776
 20
91.251737
 11
86.294293
 21
91.286269
  0
LINE
  8
CSLAYER4
  6
CONTINUOUS
 62
     7
 10
86.294293
 20
91.286269
 11
86.379355
 21
91.323959
  0
LINE
  8
CSLAYER4
  6
CONTINUOUS
 62
     7
 10
86.379355
 20
91.323959
 11
86.462988
 21
91.364690
  0
LINE
  8
CSLAYER4
  6
CONTINUOUS
 62
     7
 10
86.462988
 20
91.364690
 11
86.545180
 21
91.408361
  0
LINE
  8
CSLAYER4
  6
CONTINUOUS
 62
     7
 10
86.545180
 20
91.408361
 11
86.625970
 21
91.454881
  0
LINE
  8
CSLAYER4
  6
CONTINUOUS
 62
     7
 10
86.625970
 20
91.454881
 11
86.705360
 21
91.504135
  0
LINE
  8
CSLAYER4
  6
CONTINUOUS
 62
     7
 10
86.705360
 20
91.504135
 11
86.739404
 21
91.526458
  0
LINE
  8
CSLAYER4
  6
CONTINUOUS
 62
     7
 10
86.739404
 20
91.526458
 11
86.772761
 21
91.549666
  0
LINE
  8
CSLAYER4
  6
CONTINUOUS
 62
     7
 10
86.772761
 20
91.549666
 11
86.805432
 21
91.573747
  0
LINE
  8
CSLAYER4
  6
CONTINUOUS
 62
     7
 10
86.805432
 20
91.573747
 11
86.837430
 21
91.598686
  0
LINE
  8
CSLAYER4
  6
CONTINUOUS
 62
     7
 10
86.837430
 20
91.598686
 11
86.868755
 21
91.624469
  0
LINE
  8
CSLAYER4
  6
CONTINUOUS
 62
     7
 10
86.868755
 20
91.624469
 11
86.899434
 21
91.651090
  0
LINE
  8
CSLAYER4
  6
CONTINUOUS
 62
     7
 10
86.899434
 20
91.651090
 11
86.929441
 21
91.678529
  0
LINE
  8
CSLAYER4
  6
CONTINUOUS
 62
     7
 10
86.929441
 20
91.678529
 11
86.958801
 21
91.706784
  0
LINE
  8
CSLAYER4
  6
CONTINUOUS
 62
     7
 10
86.958801
 20
91.706784
 11
86.987489
 21
91.735816
  0
LINE
  8
CSLAYER4
  6
CONTINUOUS
 62
     7
 10
86.987489
 20
91.735816
 11
87.015449
 21
91.765520
  0
LINE
  8
CSLAYER4
  6
CONTINUOUS
 62
     7
 10
87.015449
 20
91.765520
 11
87.042668
 21
91.795876
  0
LINE
  8
CSLAYER4
  6
CONTINUOUS
 62
     7
 10
87.042668
 20
91.795876
 11
87.069173
 21
91.826851
  0
LINE
  8
CSLAYER4
  6
CONTINUOUS
 62
     7
 10
87.069173
 20
91.826851
 11
87.094963
 21
91.858430
  0
LINE
  8
CSLAYER4
  6
CONTINUOUS
 62
     7
 10
87.094963
 20
91.858430
 11
87.120053
 21
91.890586
  0
LINE
  8
CSLAYER4
  6
CONTINUOUS
 62
     7
 10
87.120053
 20
91.890586
 11
87.144457
 21
91.923297
  0
LINE
  8
CSLAYER4
  6
CONTINUOUS
 62
     7
 10
87.144457
 20
91.923297
 11
87.168173
 21
91.956538
  0
LINE
  8
CSLAYER4
  6
CONTINUOUS
 62
     7
 10
87.168173
 20
91.956538
 11
87.191217
 21
91.990286
  0
LINE
  8
CSLAYER4
  6
CONTINUOUS
 62
     7
 10
87.191217
 20
91.990286
 11
87.213616
 21
92.024509
  0
LINE
  8
CSLAYER4
  6
CONTINUOUS
 62
     7
 10
87.213616
 20
92.024509
 11
87.235341
 21
92.059164
  0
LINE
  8
CSLAYER4
  6
CONTINUOUS
 62
     7
 10
87.235341
 20
92.059164
 11
87.256421
 21
92.094238
  0
LINE
  8
CSLAYER4
  6
CONTINUOUS
 62
     7
 10
87.256421
 20
92.094238
 11
87.276869
 21
92.129689
  0
LINE
  8
CSLAYER4
  6
CONTINUOUS
 62
     7
 10
87.276869
 20
92.129689
 11
87.296686
 21
92.165504
  0
LINE
  8
CSLAYER4
  6
CONTINUOUS
 62
     7
 10
87.296686
 20
92.165504
 11
87.315884
 21
92.201656
  0
LINE
  8
CSLAYER4
  6
CONTINUOUS
 62
     7
 10
87.315884
 20
92.201656
 11
87.334492
 21
92.238110
  0
LINE
  8
CSLAYER4
  6
CONTINUOUS
 62
     7
 10
87.334492
 20
92.238110
 11
87.353966
 21
92.278499
  0
LINE
  8
CSLAYER4
  6
CONTINUOUS
 62
     7
 10
87.353966
 20
92.278499
 11
87.372313
 21
92.319403
  0
LINE
  8
CSLAYER4
  6
CONTINUOUS
 62
     7
 10
87.372313
 20
92.319403
 11
87.389548
 21
92.360794
  0
LINE
  8
CSLAYER4
  6
CONTINUOUS
 62
     7
 10
87.389548
 20
92.360794
 11
87.405698
 21
92.402638
  0
LINE
  8
CSLAYER4
  6
CONTINUOUS
 62
     7
 10
87.405698
 20
92.402638
 11
87.420804
 21
92.444908
  0
LINE
  8
CSLAYER4
  6
CONTINUOUS
 62
     7
 10
87.420804
 20
92.444908
 11
87.434880
 21
92.487555
  0
LINE
  8
CSLAYER4
  6
CONTINUOUS
 62
     7
 10
87.434880
 20
92.487555
 11
87.447968
 21
92.530559
  0
LINE
  8
CSLAYER4
  6
CONTINUOUS
 62
     7
 10
87.447968
 20
92.530559
 11
87.460080
 21
92.573880
  0
LINE
  8
CSLAYER4
  6
CONTINUOUS
 62
     7
 10
87.460080
 20
92.573880
 11
87.471245
 21
92.617482
  0
LINE
  8
CSLAYER4
  6
CONTINUOUS
 62
     7
 10
87.471245
 20
92.617482
 11
87.481490
 21
92.661338
  0
LINE
  8
CSLAYER4
  6
CONTINUOUS
 62
     7
 10
87.481490
 20
92.661338
 11
87.490855
 21
92.705414
  0
LINE
  8
CSLAYER4
  6
CONTINUOUS
 62
     7
 10
87.490855
 20
92.705414
 11
87.499356
 21
92.749668
  0
LINE
  8
CSLAYER4
  6
CONTINUOUS
 62
     7
 10
87.499356
 20
92.749668
 11
87.507019
 21
92.794067
  0
LINE
  8
CSLAYER4
  6
CONTINUOUS
 62
     7
 10
87.507019
 20
92.794067
 11
87.513886
 21
92.838589
  0
LINE
  8
CSLAYER4
  6
CONTINUOUS
 62
     7
 10
87.513886
 20
92.838589
 11
87.519969
 21
92.883187
  0
LINE
  8
CSLAYER4
  6
CONTINUOUS
 62
     7
 10
87.519969
 20
92.883187
 11
87.525298
 21
92.927832
  0
LINE
  8
CSLAYER4
  6
CONTINUOUS
 62
     7
 10
87.525298
 20
92.927832
 11
87.529912
 21
92.972492
  0
LINE
  8
CSLAYER4
  6
CONTINUOUS
 62
     7
 10
87.529912
 20
92.972492
 11
87.533825
 21
93.017219
  0
LINE
  8
CSLAYER4
  6
CONTINUOUS
 62
     7
 10
87.533825
 20
93.017219
 11
87.537080
 21
93.062044
  0
LINE
  8
CSLAYER4
  6
CONTINUOUS
 62
     7
 10
87.537080
 20
93.062044
 11
87.539704
 21
93.106937
  0
LINE
  8
CSLAYER4
  6
CONTINUOUS
 62
     7
 10
87.539704
 20
93.106937
 11
87.541694
 21
93.151878
  0
LINE
  8
CSLAYER4
  6
CONTINUOUS
 62
     7
 10
87.541694
 20
93.151878
 11
87.543095
 21
93.196826
  0
LINE
  8
CSLAYER4
  6
CONTINUOUS
 62
     7
 10
87.543095
 20
93.196826
 11
87.543933
 21
93.241760
  0
LINE
  8
CSLAYER4
  6
CONTINUOUS
 62
     7
 10
87.543933
 20
93.241760
 11
87.544194
 21
93.286660
  0
LINE
  8
CSLAYER4
  6
CONTINUOUS
 62
     7
 10
87.544194
 20
93.286660
 11
87.543590
 21
93.342779
  0
LINE
  8
CSLAYER4
  6
CONTINUOUS
 62
     7
 10
87.543590
 20
93.342779
 11
87.541708
 21
93.398899
  0
LINE
  8
CSLAYER4
  6
CONTINUOUS
 62
     7
 10
87.541708
 20
93.398899
 11
87.538495
 21
93.454963
  0
LINE
  8
CSLAYER4
  6
CONTINUOUS
 62
     7
 10
87.538495
 20
93.454963
 11
87.533908
 21
93.510918
  0
LINE
  8
CSLAYER4
  6
CONTINUOUS
 62
     7
 10
87.533908
 20
93.510918
 11
87.527893
 21
93.566722
  0
LINE
  8
CSLAYER4
  6
CONTINUOUS
 62
     7
 10
87.527893
 20
93.566722
 11
87.520367
 21
93.622326
  0
LINE
  8
CSLAYER4
  6
CONTINUOUS
 62
     7
 10
87.520367
 20
93.622326
 11
87.511304
 21
93.677677
  0
LINE
  8
CSLAYER4
  6
CONTINUOUS
 62
     7
 10
87.511304
 20
93.677677
 11
87.500620
 21
93.732732
  0
LINE
  8
CSLAYER4
  6
CONTINUOUS
 62
     7
 10
87.500620
 20
93.732732
 11
87.488273
 21
93.787437
  0
LINE
  8
CSLAYER4
  6
CONTINUOUS
 62
     7
 10
87.488273
 20
93.787437
 11
87.474225
 21
93.841702
  0
LINE
  8
CSLAYER4
  6
CONTINUOUS
 62
     7
 10
87.474225
 20
93.841702
 11
87.458473
 21
93.895302
  0
LINE
  8
CSLAYER4
  6
CONTINUOUS
 62
     7
 10
87.458473
 20
93.895302
 11
87.440977
 21
93.948181
  0
LINE
  8
CSLAYER4
  6
CONTINUOUS
 62
     7
 10
87.440977
 20
93.948181
 11
87.421710
 21
94.000318
  0
LINE
  8
CSLAYER4
  6
CONTINUOUS
 62
     7
 10
87.421710
 20
94.000318
 11
87.400644
 21
94.051685
  0
LINE
  8
CSLAYER4
  6
CONTINUOUS
 62
     7
 10
87.400644
 20
94.051685
 11
87.377737
 21
94.102250
  0
LINE
  8
CSLAYER4
  6
CONTINUOUS
 62
     7
 10
87.377737
 20
94.102250
 11
87.352949
 21
94.151990
  0
LINE
  8
CSLAYER4
  6
CONTINUOUS
 62
     7
 10
87.352949
 20
94.151990
 11
87.326239
 21
94.200880
  0
LINE
  8
CSLAYER4
  6
CONTINUOUS
 62
     7
 10
87.326239
 20
94.200880
 11
87.297592
 21
94.248890
  0
LINE
  8
CSLAYER4
  6
CONTINUOUS
 62
     7
 10
87.297592
 20
94.248890
 11
87.267133
 21
94.295747
  0
LINE
  8
CSLAYER4
  6
CONTINUOUS
 62
     7
 10
87.267133
 20
94.295747
 11
87.234970
 21
94.341251
  0
LINE
  8
CSLAYER4
  6
CONTINUOUS
 62
     7
 10
87.234970
 20
94.341251
 11
87.201160
 21
94.385416
  0
LINE
  8
CSLAYER4
  6
CONTINUOUS
 62
     7
 10
87.201160
 20
94.385416
 11
87.165688
 21
94.428249
  0
LINE
  8
CSLAYER4
  6
CONTINUOUS
 62
     7
 10
87.165688
 20
94.428249
 11
87.128567
 21
94.469756
  0
LINE
  8
CSLAYER4
  6
CONTINUOUS
 62
     7
 10
87.128567
 20
94.469756
 11
87.089827
 21
94.509959
  0
LINE
  8
CSLAYER4
  6
CONTINUOUS
 62
     7
 10
87.089827
 20
94.509959
 11
87.062842
 21
94.536567
  0
LINE
  8
CSLAYER4
  6
CONTINUOUS
 62
     7
 10
87.062842
 20
94.536567
 11
87.035513
 21
94.562749
  0
LINE
  8
CSLAYER4
  6
CONTINUOUS
 62
     7
 10
87.035513
 20
94.562749
 11
87.007855
 21
94.588512
  0
LINE
  8
CSLAYER4
  6
CONTINUOUS
 62
     7
 10
87.007855
 20
94.588512
 11
86.979881
 21
94.613849
  0
LINE
  8
CSLAYER4
  6
CONTINUOUS
 62
     7
 10
86.979881
 20
94.613849
 11
86.951578
 21
94.638767
  0
LINE
  8
CSLAYER4
  6
CONTINUOUS
 62
     7
 10
86.951578
 20
94.638767
 11
86.922944
 21
94.663267
  0
LINE
  8
CSLAYER4
  6
CONTINUOUS
 62
     7
 10
86.922944
 20
94.663267
 11
86.893982
 21
94.687348
  0
LINE
  8
CSLAYER4
  6
CONTINUOUS
 62
     7
 10
86.893982
 20
94.687348
 11
86.864717
 21
94.711016
  0
LINE
  8
CSLAYER4
  6
CONTINUOUS
 62
     7
 10
86.864717
 20
94.711016
 11
86.835122
 21
94.734273
  0
LINE
  8
CSLAYER4
  6
CONTINUOUS
 62
     7
 10
86.835122
 20
94.734273
 11
86.805212
 21
94.757117
  0
LINE
  8
CSLAYER4
  6
CONTINUOUS
 62
     7
 10
86.805212
 20
94.757117
 11
86.774986
 21
94.779550
  0
LINE
  8
CSLAYER4
  6
CONTINUOUS
 62
     7
 10
86.774986
 20
94.779550
 11
86.744458
 21
94.801578
  0
LINE
  8
CSLAYER4
  6
CONTINUOUS
 62
     7
 10
86.744458
 20
94.801578
 11
86.713614
 21
94.823207
  0
LINE
  8
CSLAYER4
  6
CONTINUOUS
 62
     7
 10
86.713614
 20
94.823207
 11
86.682467
 21
94.844425
  0
LINE
  8
CSLAYER4
  6
CONTINUOUS
 62
     7
 10
86.682467
 20
94.844425
 11
86.651006
 21
94.865251
  0
LINE
  8
CSLAYER4
  6
CONTINUOUS
 62
     7
 10
86.651006
 20
94.865251
 11
86.619255
 21
94.885672
  0
LINE
  8
CSLAYER4
  6
CONTINUOUS
 62
     7
 10
86.619255
 20
94.885672
 11
86.587189
 21
94.905694
  0
LINE
  8
CSLAYER4
  6
CONTINUOUS
 62
     7
 10
86.587189
 20
94.905694
 11
86.554834
 21
94.925318
  0
LINE
  8
CSLAYER4
  6
CONTINUOUS
 62
     7
 10
86.554834
 20
94.925318
 11
86.522232
 21
94.944517
  0
LINE
  8
CSLAYER4
  6
CONTINUOUS
 62
     7
 10
86.522232
 20
94.944517
 11
86.489410
 21
94.963297
  0
LINE
  8
CSLAYER4
  6
CONTINUOUS
 62
     7
 10
86.489410
 20
94.963297
 11
86.456355
 21
94.981651
  0
LINE
  8
CSLAYER4
  6
CONTINUOUS
 62
     7
 10
86.456355
 20
94.981651
 11
86.423067
 21
94.999592
  0
LINE
  8
CSLAYER4
  6
CONTINUOUS
 62
     7
 10
86.423067
 20
94.999592
 11
86.389572
 21
95.017116
  0
LINE
  8
CSLAYER4
  6
CONTINUOUS
 62
     7
 10
86.389572
 20
95.017116
 11
86.355844
 21
95.034227
  0
LINE
  8
CSLAYER4
  6
CONTINUOUS
 62
     7
 10
85.167499
 20
95.558502
 11
86.355848
 21
95.034230
  0
LINE
  8
CSLAYER4
  6
CONTINUOUS
 62
     7
 10
85.167501
 20
95.558501
 11
85.141978
 21
95.568884
  0
LINE
  8
CSLAYER4
  6
CONTINUOUS
 62
     7
 10
85.141978
 20
95.568884
 11
85.116532
 21
95.579582
  0
LINE
  8
CSLAYER4
  6
CONTINUOUS
 62
     7
 10
85.116532
 20
95.579582
 11
85.091174
 21
95.590602
  0
LINE
  8
CSLAYER4
  6
CONTINUOUS
 62
     7
 10
85.091174
 20
95.590602
 11
85.065919
 21
95.601959
  0
LINE
  8
CSLAYER4
  6
CONTINUOUS
 62
     7
 10
85.065919
 20
95.601959
 11
85.040794
 21
95.613646
  0
LINE
  8
CSLAYER4
  6
CONTINUOUS
 62
     7
 10
85.040794
 20
95.613646
 11
85.015807
 21
95.625683
  0
LINE
  8
CSLAYER4
  6
CONTINUOUS
 62
     7
 10
85.015807
 20
95.625683
 11
84.990971
 21
95.638070
  0
LINE
  8
CSLAYER4
  6
CONTINUOUS
 62
     7
 10
84.990971
 20
95.638070
 11
84.966314
 21
95.650807
  0
LINE
  8
CSLAYER4
  6
CONTINUOUS
 62
     7
 10
84.966314
 20
95.650807
 11
84.941842
 21
95.663908
  0
LINE
  8
CSLAYER4
  6
CONTINUOUS
 62
     7
 10
84.941842
 20
95.663908
 11
84.917576
 21
95.677373
  0
LINE
  8
CSLAYER4
  6
CONTINUOUS
 62
     7
 10
84.917576
 20
95.677373
 11
84.893530
 21
95.691217
  0
LINE
  8
CSLAYER4
  6
CONTINUOUS
 62
     7
 10
84.893530
 20
95.691217
 11
84.869723
 21
95.705437
  0
LINE
  8
CSLAYER4
  6
CONTINUOUS
 62
     7
 10
84.869723
 20
95.705437
 11
84.846172
 21
95.720035
  0
LINE
  8
CSLAYER4
  6
CONTINUOUS
 62
     7
 10
84.846172
 20
95.720035
 11
84.822887
 21
95.735031
  0
LINE
  8
CSLAYER4
  6
CONTINUOUS
 62
     7
 10
84.822887
 20
95.735031
 11
84.799885
 21
95.750426
  0
LINE
  8
CSLAYER4
  6
CONTINUOUS
 62
     7
 10
84.799885
 20
95.750426
 11
84.777191
 21
95.766226
  0
LINE
  8
CSLAYER4
  6
CONTINUOUS
 62
     7
 10
84.777191
 20
95.766226
 11
84.754813
 21
95.782430
  0
LINE
  8
CSLAYER4
  6
CONTINUOUS
 62
     7
 10
84.754813
 20
95.782430
 11
84.732779
 21
95.799047
  0
LINE
  8
CSLAYER4
  6
CONTINUOUS
 62
     7
 10
84.732779
 20
95.799047
 11
84.711081
 21
95.816090
  0
LINE
  8
CSLAYER4
  6
CONTINUOUS
 62
     7
 10
84.711081
 20
95.816090
 11
84.689747
 21
95.833579
  0
LINE
  8
CSLAYER4
  6
CONTINUOUS
 62
     7
 10
84.689747
 20
95.833579
 11
84.668777
 21
95.851500
  0
LINE
  8
CSLAYER4
  6
CONTINUOUS
 62
     7
 10
84.668777
 20
95.851500
 11
84.648198
 21
95.869882
  0
LINE
  8
CSLAYER4
  6
CONTINUOUS
 62
     7
 10
84.648198
 20
95.869882
 11
84.628024
 21
95.888716
  0
LINE
  8
CSLAYER4
  6
CONTINUOUS
 62
     7
 10
84.628024
 20
95.888716
 11
84.608276
 21
95.908018
  0
LINE
  8
CSLAYER4
  6
CONTINUOUS
 62
     7
 10
84.608276
 20
95.908018
 11
84.592353
 21
95.924353
  0
LINE
  8
CSLAYER4
  6
CONTINUOUS
 62
     7
 10
84.592353
 20
95.924353
 11
84.576896
 21
95.941094
  0
LINE
  8
CSLAYER4
  6
CONTINUOUS
 62
     7
 10
84.576896
 20
95.941094
 11
84.561914
 21
95.958232
  0
LINE
  8
CSLAYER4
  6
CONTINUOUS
 62
     7
 10
84.561914
 20
95.958232
 11
84.547439
 21
95.975783
  0
LINE
  8
CSLAYER4
  6
CONTINUOUS
 62
     7
 10
84.547439
 20
95.975783
 11
84.533487
 21
95.993752
  0
LINE
  8
CSLAYER4
  6
CONTINUOUS
 62
     7
 10
84.533487
 20
95.993752
 11
84.520090
 21
96.012141
  0
LINE
  8
CSLAYER4
  6
CONTINUOUS
 62
     7
 10
84.520090
 20
96.012141
 11
84.507264
 21
96.030962
  0
LINE
  8
CSLAYER4
  6
CONTINUOUS
 62
     7
 10
84.507264
 20
96.030962
 11
84.495035
 21
96.050209
  0
LINE
  8
CSLAYER4
  6
CONTINUOUS
 62
     7
 10
84.495035
 20
96.050209
 11
84.483417
 21
96.069901
  0
LINE
  8
CSLAYER4
  6
CONTINUOUS
 62
     7
 10
84.483417
 20
96.069901
 11
84.472486
 21
96.089965
  0
LINE
  8
CSLAYER4
  6
CONTINUOUS
 62
     7
 10
84.472486
 20
96.089965
 11
84.462289
 21
96.110317
  0
LINE
  8
CSLAYER4
  6
CONTINUOUS
 62
     7
 10
84.462289
 20
96.110317
 11
84.452827
 21
96.130958
  0
LINE
  8
CSLAYER4
  6
CONTINUOUS
 62
     7
 10
84.452827
 20
96.130958
 11
84.444120
 21
96.151887
  0
LINE
  8
CSLAYER4
  6
CONTINUOUS
 62
     7
 10
84.444120
 20
96.151887
 11
84.436155
 21
96.173104
  0
LINE
  8
CSLAYER4
  6
CONTINUOUS
 62
     7
 10
84.436155
 20
96.173104
 11
84.428945
 21
96.194617
  0
LINE
  8
CSLAYER4
  6
CONTINUOUS
 62
     7
 10
84.428945
 20
96.194617
 11
84.422491
 21
96.216418
  0
LINE
  8
CSLAYER4
  6
CONTINUOUS
 62
     7
 10
84.422491
 20
96.216418
 11
84.416798
 21
96.238507
  0
LINE
  8
CSLAYER4
  6
CONTINUOUS
 62
     7
 10
84.416798
 20
96.238507
 11
84.411875
 21
96.260892
  0
LINE
  8
CSLAYER4
  6
CONTINUOUS
 62
     7
 10
84.411875
 20
96.260892
 11
84.407741
 21
96.283421
  0
LINE
  8
CSLAYER4
  6
CONTINUOUS
 62
     7
 10
84.407741
 20
96.283421
 11
84.404398
 21
96.306046
  0
LINE
  8
CSLAYER4
  6
CONTINUOUS
 62
     7
 10
84.404398
 20
96.306046
 11
84.401822
 21
96.328753
  0
LINE
  8
CSLAYER4
  6
CONTINUOUS
 62
     7
 10
84.401822
 20
96.328753
 11
84.400003
 21
96.351543
  0
LINE
  8
CSLAYER4
  6
CONTINUOUS
 62
     7
 10
84.400003
 20
96.351543
 11
84.398925
 21
96.374408
  0
LINE
  8
CSLAYER4
  6
CONTINUOUS
 62
     7
 10
84.398925
 20
96.374408
 11
84.398568
 21
96.397335
  0
LINE
  8
CSLAYER4
  6
CONTINUOUS
 62
     7
 10
84.398568
 20
96.397335
 11
84.398987
 21
96.435636
  0
LINE
  8
CSLAYER4
  6
CONTINUOUS
 62
     7
 10
84.398987
 20
96.435636
 11
84.400278
 21
96.474034
  0
LINE
  8
CSLAYER4
  6
CONTINUOUS
 62
     7
 10
84.400278
 20
96.474034
 11
84.402502
 21
96.512458
  0
LINE
  8
CSLAYER4
  6
CONTINUOUS
 62
     7
 10
84.402502
 20
96.512458
 11
84.405716
 21
96.550849
  0
LINE
  8
CSLAYER4
  6
CONTINUOUS
 62
     7
 10
84.405716
 20
96.550849
 11
84.409980
 21
96.589143
  0
LINE
  8
CSLAYER4
  6
CONTINUOUS
 62
     7
 10
84.409980
 20
96.589143
 11
84.415343
 21
96.627265
  0
LINE
  8
CSLAYER4
  6
CONTINUOUS
 62
     7
 10
84.415343
 20
96.627265
 11
84.421873
 21
96.665168
  0
LINE
  8
CSLAYER4
  6
CONTINUOUS
 62
     7
 10
84.421873
 20
96.665168
 11
84.429625
 21
96.702782
  0
LINE
  8
CSLAYER4
  6
CONTINUOUS
 62
     7
 10
84.429625
 20
96.702782
 11
84.438655
 21
96.740033
  0
LINE
  8
CSLAYER4
  6
CONTINUOUS
 62
     7
 10
84.438655
 20
96.740033
 11
84.449016
 21
96.776865
  0
LINE
  8
CSLAYER4
  6
CONTINUOUS
 62
     7
 10
84.449016
 20
96.776865
 11
84.460765
 21
96.813167
  0
LINE
  8
CSLAYER4
  6
CONTINUOUS
 62
     7
 10
84.460765
 20
96.813167
 11
84.473900
 21
96.848791
  0
LINE
  8
CSLAYER4
  6
CONTINUOUS
 62
     7
 10
84.473900
 20
96.848791
 11
84.488477
 21
96.883686
  0
LINE
  8
CSLAYER4
  6
CONTINUOUS
 62
     7
 10
84.488477
 20
96.883686
 11
84.504538
 21
96.917812
  0
LINE
  8
CSLAYER4
  6
CONTINUOUS
 62
     7
 10
84.504538
 20
96.917812
 11
84.522123
 21
96.951128
  0
LINE
  8
CSLAYER4
  6
CONTINUOUS
 62
     7
 10
84.522123
 20
96.951128
 11
84.541280
 21
96.983572
  0
LINE
  8
CSLAYER4
  6
CONTINUOUS
 62
     7
 10
84.541280
 20
96.983572
 11
84.562045
 21
97.015124
  0
LINE
  8
CSLAYER4
  6
CONTINUOUS
 62
     7
 10
84.562045
 20
97.015124
 11
84.584470
 21
97.045721
  0
LINE
  8
CSLAYER4
  6
CONTINUOUS
 62
     7
 10
84.584470
 20
97.045721
 11
84.608462
 21
97.075157
  0
LINE
  8
CSLAYER4
  6
CONTINUOUS
 62
     7
 10
84.608462
 20
97.075157
 11
84.633785
 21
97.103173
  0
LINE
  8
CSLAYER4
  6
CONTINUOUS
 62
     7
 10
84.633785
 20
97.103173
 11
84.660434
 21
97.129766
  0
LINE
  8
CSLAYER4
  6
CONTINUOUS
 62
     7
 10
84.660434
 20
97.129766
 11
84.688381
 21
97.154959
  0
LINE
  8
CSLAYER4
  6
CONTINUOUS
 62
     7
 10
84.688381
 20
97.154959
 11
84.717604
 21
97.178772
  0
LINE
  8
CSLAYER4
  6
CONTINUOUS
 62
     7
 10
84.717604
 20
97.178772
 11
84.748084
 21
97.201219
  0
LINE
  8
CSLAYER4
  6
CONTINUOUS
 62
     7
 10
84.748084
 20
97.201219
 11
84.776155
 21
97.220177
  0
LINE
  8
CSLAYER4
  6
CONTINUOUS
 62
     7
 10
84.776155
 20
97.220177
 11
84.804760
 21
97.238092
  0
LINE
  8
CSLAYER4
  6
CONTINUOUS
 62
     7
 10
84.804760
 20
97.238092
 11
84.833901
 21
97.254914
  0
LINE
  8
CSLAYER4
  6
CONTINUOUS
 62
     7
 10
84.833901
 20
97.254914
 11
84.863578
 21
97.270611
  0
LINE
  8
CSLAYER4
  6
CONTINUOUS
 62
     7
 10
84.863578
 20
97.270611
 11
84.893811
 21
97.285141
  0
LINE
  8
CSLAYER4
  6
CONTINUOUS
 62
     7
 10
84.893811
 20
97.285141
 11
84.924593
 21
97.298455
  0
LINE
  8
CSLAYER4
  6
CONTINUOUS
 62
     7
 10
84.924593
 20
97.298455
 11
84.955932
 21
97.310519
  0
LINE
  8
CSLAYER4
  6
CONTINUOUS
 62
     7
 10
84.955932
 20
97.310519
 11
84.987827
 21
97.321285
  0
LINE
  8
CSLAYER4
  6
CONTINUOUS
 62
     7
 10
84.987827
 20
97.321285
 11
85.020284
 21
97.330713
  0
LINE
  8
CSLAYER4
  6
CONTINUOUS
 62
     7
 10
85.020284
 20
97.330713
 11
85.053031
 21
97.338698
  0
LINE
  8
CSLAYER4
  6
CONTINUOUS
 62
     7
 10
85.053031
 20
97.338698
 11
85.085907
 21
97.345215
  0
LINE
  8
CSLAYER4
  6
CONTINUOUS
 62
     7
 10
85.085907
 20
97.345215
 11
85.118914
 21
97.350275
  0
LINE
  8
CSLAYER4
  6
CONTINUOUS
 62
     7
 10
85.118914
 20
97.350275
 11
85.152044
 21
97.353901
  0
LINE
  8
CSLAYER4
  6
CONTINUOUS
 62
     7
 10
85.152044
 20
97.353901
 11
85.185306
 21
97.356105
  0
LINE
  8
CSLAYER4
  6
CONTINUOUS
 62
     7
 10
85.185306
 20
97.356105
 11
85.218683
 21
97.356908
  0
LINE
  8
CSLAYER4
  6
CONTINUOUS
 62
     7
 10
85.218683
 20
97.356908
 11
85.252185
 21
97.356325
  0
LINE
  8
CSLAYER4
  6
CONTINUOUS
 62
     7
 10
85.252185
 20
97.356325
 11
85.285796
 21
97.354368
  0
LINE
  8
CSLAYER4
  6
CONTINUOUS
 62
     7
 10
85.285796
 20
97.354368
 11
85.319462
 21
97.351065
  0
LINE
  8
CSLAYER4
  6
CONTINUOUS
 62
     7
 10
85.319462
 20
97.351065
 11
85.352964
 21
97.346479
  0
LINE
  8
CSLAYER4
  6
CONTINUOUS
 62
     7
 10
85.352964
 20
97.346479
 11
85.386253
 21
97.340649
  0
LINE
  8
CSLAYER4
  6
CONTINUOUS
 62
     7
 10
85.386253
 20
97.340649
 11
85.419314
 21
97.333645
  0
LINE
  8
CSLAYER4
  6
CONTINUOUS
 62
     7
 10
85.419314
 20
97.333645
 11
85.452136
 21
97.325508
  0
LINE
  8
CSLAYER4
  6
CONTINUOUS
 62
     7
 10
85.452136
 20
97.325508
 11
85.484711
 21
97.316300
  0
LINE
  8
CSLAYER4
  6
CONTINUOUS
 62
     7
 10
85.484711
 20
97.316300
 11
85.517011
 21
97.306076
  0
LINE
  8
CSLAYER4
  6
CONTINUOUS
 62
     7
 10
85.517011
 20
97.306076
 11
85.575259
 21
97.285889
  0
LINE
  8
CSLAYER4
  6
CONTINUOUS
 62
     7
 10
85.575259
 20
97.285889
 11
85.632085
 21
97.262481
  0
LINE
  8
CSLAYER4
  6
CONTINUOUS
 62
     7
 10
85.632085
 20
97.262481
 11
85.687408
 21
97.235736
  0
LINE
  8
CSLAYER4
  6
CONTINUOUS
 62
     7
 10
85.687408
 20
97.235736
 11
85.741159
 21
97.205558
  0
LINE
  8
CSLAYER4
  6
CONTINUOUS
 62
     7
 10
85.741159
 20
97.205558
 11
85.793028
 21
97.171981
  0
LINE
  8
CSLAYER4
  6
CONTINUOUS
 62
     7
 10
85.793028
 20
97.171981
 11
85.842481
 21
97.135335
  0
LINE
  8
CSLAYER4
  6
CONTINUOUS
 62
     7
 10
85.842481
 20
97.135335
 11
85.889474
 21
97.095681
  0
LINE
  8
CSLAYER4
  6
CONTINUOUS
 62
     7
 10
85.889474
 20
97.095681
 11
85.934065
 21
97.053061
  0
LINE
  8
CSLAYER4
  6
CONTINUOUS
 62
     7
 10
85.934065
 20
97.053061
 11
85.976184
 21
97.007584
  0
LINE
  8
CSLAYER4
  6
CONTINUOUS
 62
     7
 10
85.976184
 20
97.007584
 11
86.015488
 21
96.959828
  0
LINE
  8
CSLAYER4
  6
CONTINUOUS
 62
     7
 10
86.015488
 20
96.959828
 11
86.051990
 21
96.910040
  0
LINE
  8
CSLAYER4
  6
CONTINUOUS
 62
     7
 10
86.051990
 20
96.910040
 11
86.085814
 21
96.858390
  0
LINE
  8
CSLAYER4
  6
CONTINUOUS
 62
     7
 10
86.085814
 20
96.858390
 11
86.117042
 21
96.805072
  0
LINE
  8
CSLAYER4
  6
CONTINUOUS
 62
     7
 10
86.117042
 20
96.805072
 11
86.145799
 21
96.750250
  0
LINE
  8
CSLAYER4
  6
CONTINUOUS
 62
     7
 10
86.145799
 20
96.750250
 11
86.172180
 21
96.694110
  0
LINE
  8
CSLAYER4
  6
CONTINUOUS
 62
     7
 10
86.172180
 20
96.694110
 11
86.196295
 21
96.636823
  0
LINE
  8
CSLAYER4
  6
CONTINUOUS
 62
     7
 10
86.196295
 20
96.636823
 11
86.218254
 21
96.578561
  0
LINE
  8
CSLAYER4
  6
CONTINUOUS
 62
     7
 10
86.218254
 20
96.578561
 11
86.238208
 21
96.519352
  0
LINE
  8
CSLAYER4
  6
CONTINUOUS
 62
     7
 10
86.238208
 20
96.519352
 11
86.256239
 21
96.459332
  0
LINE
  8
CSLAYER4
  6
CONTINUOUS
 62
     7
 10
86.256239
 20
96.459332
 11
86.272444
 21
96.398654
  0
LINE
  8
CSLAYER4
  6
CONTINUOUS
 62
     7
 10
86.272444
 20
96.398654
 11
86.286932
 21
96.337494
  0
LINE
  8
CSLAYER4
  6
CONTINUOUS
 62
     7
 10
86.286932
 20
96.337494
 11
86.299772
 21
96.275998
  0
LINE
  8
CSLAYER4
  6
CONTINUOUS
 62
     7
 10
86.299772
 20
96.275998
 11
86.311061
 21
96.214337
  0
LINE
  8
CSLAYER4
  6
CONTINUOUS
 62
     7
 10
86.311061
 20
96.214337
 11
86.320894
 21
96.152677
  0
LINE
  8
CSLAYER4
  6
CONTINUOUS
 62
     7
 10
87.369440
 20
96.152677
 11
86.320897
 21
96.152677
  0
LINE
  8
CSLAYER4
  6
CONTINUOUS
 62
     7
 10
87.369443
 20
96.152677
 11
87.366202
 21
96.225914
  0
LINE
  8
CSLAYER4
  6
CONTINUOUS
 62
     7
 10
87.366202
 20
96.225914
 11
87.361492
 21
96.299131
  0
LINE
  8
CSLAYER4
  6
CONTINUOUS
 62
     7
 10
87.361492
 20
96.299131
 11
87.355243
 21
96.372266
  0
LINE
  8
CSLAYER4
  6
CONTINUOUS
 62
     7
 10
87.355243
 20
96.372266
 11
87.347401
 21
96.445256
  0
LINE
  8
CSLAYER4
  6
CONTINUOUS
 62
     7
 10
87.347401
 20
96.445256
 11
87.337898
 21
96.518041
  0
LINE
  8
CSLAYER4
  6
CONTINUOUS
 62
     7
 10
87.337898
 20
96.518041
 11
87.326665
 21
96.590551
  0
LINE
  8
CSLAYER4
  6
CONTINUOUS
 62
     7
 10
87.326665
 20
96.590551
 11
87.313646
 21
96.662731
  0
LINE
  8
CSLAYER4
  6
CONTINUOUS
 62
     7
 10
87.313646
 20
96.662731
 11
87.298787
 21
96.734519
  0
LINE
  8
CSLAYER4
  6
CONTINUOUS
 62
     7
 10
87.298787
 20
96.734519
 11
87.281992
 21
96.805841
  0
LINE
  8
CSLAYER4
  6
CONTINUOUS
 62
     7
 10
87.281992
 20
96.805841
 11
87.263246
 21
96.876620
  0
LINE
  8
CSLAYER4
  6
CONTINUOUS
 62
     7
 10
87.263246
 20
96.876620
 11
87.242482
 21
96.946672
  0
LINE
  8
CSLAYER4
  6
CONTINUOUS
 62
     7
 10
87.242482
 20
96.946672
 11
87.219699
 21
97.015921
  0
LINE
  8
CSLAYER4
  6
CONTINUOUS
 62
     7
 10
87.219699
 20
97.015921
 11
87.194815
 21
97.084331
  0
LINE
  8
CSLAYER4
  6
CONTINUOUS
 62
     7
 10
87.194815
 20
97.084331
 11
87.167789
 21
97.151842
  0
LINE
  8
CSLAYER4
  6
CONTINUOUS
 62
     7
 10
87.167789
 20
97.151842
 11
87.138565
 21
97.218412
  0
LINE
  8
CSLAYER4
  6
CONTINUOUS
 62
     7
 10
87.138565
 20
97.218412
 11
87.107103
 21
97.283993
  0
LINE
  8
CSLAYER4
  6
CONTINUOUS
 62
     7
 10
87.107103
 20
97.283993
 11
87.073348
 21
97.348545
  0
LINE
  8
CSLAYER4
  6
CONTINUOUS
 62
     7
 10
87.073348
 20
97.348545
 11
87.037244
 21
97.412018
  0
LINE
  8
CSLAYER4
  6
CONTINUOUS
 62
     7
 10
87.037244
 20
97.412018
 11
86.998888
 21
97.474147
  0
LINE
  8
CSLAYER4
  6
CONTINUOUS
 62
     7
 10
86.998888
 20
97.474147
 11
86.958417
 21
97.534660
  0
LINE
  8
CSLAYER4
  6
CONTINUOUS
 62
     7
 10
86.958417
 20
97.534660
 11
86.915817
 21
97.593554
  0
LINE
  8
CSLAYER4
  6
CONTINUOUS
 62
     7
 10
86.915817
 20
97.593554
 11
86.871089
 21
97.650814
  0
LINE
  8
CSLAYER4
  6
CONTINUOUS
 62
     7
 10
86.871089
 20
97.650814
 11
86.824246
 21
97.706446
  0
LINE
  8
CSLAYER4
  6
CONTINUOUS
 62
     7
 10
86.824246
 20
97.706446
 11
86.775261
 21
97.760443
  0
LINE
  8
CSLAYER4
  6
CONTINUOUS
 62
     7
 10
86.775261
 20
97.760443
 11
86.725726
 21
97.813898
  0
LINE
  8
CSLAYER4
  6
CONTINUOUS
 62
     7
 10
86.725726
 20
97.813898
 11
86.674722
 21
97.865713
  0
LINE
  8
CSLAYER4
  6
CONTINUOUS
 62
     7
 10
86.674722
 20
97.865713
 11
86.622235
 21
97.915811
  0
LINE
  8
CSLAYER4
  6
CONTINUOUS
 62
     7
 10
86.622235
 20
97.915811
 11
86.568224
 21
97.964095
  0
LINE
  8
CSLAYER4
  6
CONTINUOUS
 62
     7
 10
86.568224
 20
97.964095
 11
86.512688
 21
98.010485
  0
LINE
  8
CSLAYER4
  6
CONTINUOUS
 62
     7
 10
86.512688
 20
98.010485
 11
86.455586
 21
98.054897
  0
LINE
  8
CSLAYER4
  6
CONTINUOUS
 62
     7
 10
86.455586
 20
98.054897
 11
86.396878
 21
98.097243
  0
LINE
  8
CSLAYER4
  6
CONTINUOUS
 62
     7
 10
86.396878
 20
98.097243
 11
86.336577
 21
98.137432
  0
LINE
  8
CSLAYER4
  6
CONTINUOUS
 62
     7
 10
86.336577
 20
98.137432
 11
86.274614
 21
98.175383
  0
LINE
  8
CSLAYER4
  6
CONTINUOUS
 62
     7
 10
86.274614
 20
98.175383
 11
86.211332
 21
98.210821
  0
LINE
  8
CSLAYER4
  6
CONTINUOUS
 62
     7
 10
86.211332
 20
98.210821
 11
86.147063
 21
98.243546
  0
LINE
  8
CSLAYER4
  6
CONTINUOUS
 62
     7
 10
86.147063
 20
98.243546
 11
86.081804
 21
98.273567
  0
LINE
  8
CSLAYER4
  6
CONTINUOUS
 62
     7
 10
86.081804
 20
98.273567
 11
86.015543
 21
98.300875
  0
LINE
  8
CSLAYER4
  6
CONTINUOUS
 62
     7
 10
86.015543
 20
98.300875
 11
85.948292
 21
98.325484
  0
LINE
  8
CSLAYER4
  6
CONTINUOUS
 62
     7
 10
85.948292
 20
98.325484
 11
85.880054
 21
98.347394
  0
LINE
  8
CSLAYER4
  6
CONTINUOUS
 62
     7
 10
85.880054
 20
98.347394
 11
85.810840
 21
98.366607
  0
LINE
  8
CSLAYER4
  6
CONTINUOUS
 62
     7
 10
85.810840
 20
98.366607
 11
85.740623
 21
98.383135
  0
LINE
  8
CSLAYER4
  6
CONTINUOUS
 62
     7
 10
85.740623
 20
98.383135
 11
85.669494
 21
98.396963
  0
LINE
  8
CSLAYER4
  6
CONTINUOUS
 62
     7
 10
85.669494
 20
98.396963
 11
85.597966
 21
98.408039
  0
LINE
  8
CSLAYER4
  6
CONTINUOUS
 62
     7
 10
85.597966
 20
98.408039
 11
85.526198
 21
98.416416
  0
LINE
  8
CSLAYER4
  6
CONTINUOUS
 62
     7
 10
85.526198
 20
98.416416
 11
85.454217
 21
98.422171
  0
LINE
  8
CSLAYER4
  6
CONTINUOUS
 62
     7
 10
85.454217
 20
98.422171
 11
85.382064
 21
98.425391
  0
LINE
  8
CSLAYER4
  6
CONTINUOUS
 62
     7
 10
85.382064
 20
98.425391
 11
85.309781
 21
98.426146
  0
LINE
  8
CSLAYER4
  6
CONTINUOUS
 62
     7
 10
85.309781
 20
98.426146
 11
85.237402
 21
98.424518
  0
LINE
  8
CSLAYER4
  6
CONTINUOUS
 62
     7
 10
85.237402
 20
98.424518
 11
85.161287
 21
98.420474
  0
LINE
  8
CSLAYER4
  6
CONTINUOUS
 62
     7
 10
85.161287
 20
98.420474
 11
85.085612
 21
98.413945
  0
LINE
  8
CSLAYER4
  6
CONTINUOUS
 62
     7
 10
85.085612
 20
98.413945
 11
85.010390
 21
98.404874
  0
LINE
  8
CSLAYER4
  6
CONTINUOUS
 62
     7
 10
85.010390
 20
98.404874
 11
84.935662
 21
98.393201
  0
LINE
  8
CSLAYER4
  6
CONTINUOUS
 62
     7
 10
84.935662
 20
98.393201
 11
84.861449
 21
98.378870
  0
LINE
  8
CSLAYER4
  6
CONTINUOUS
 62
     7
 10
84.861449
 20
98.378870
 11
84.787786
 21
98.361821
  0
LINE
  8
CSLAYER4
  6
CONTINUOUS
 62
     7
 10
84.787786
 20
98.361821
 11
84.714700
 21
98.341991
  0
LINE
  8
CSLAYER4
  6
CONTINUOUS
 62
     7
 10
84.714700
 20
98.341991
 11
84.642217
 21
98.319331
  0
LINE
  8
CSLAYER4
  6
CONTINUOUS
 62
     7
 10
84.642217
 20
98.319331
 11
84.570387
 21
98.293781
  0
LINE
  8
CSLAYER4
  6
CONTINUOUS
 62
     7
 10
84.570387
 20
98.293781
 11
84.499752
 21
98.265505
  0
LINE
  8
CSLAYER4
  6
CONTINUOUS
 62
     7
 10
84.499752
 20
98.265505
 11
84.430565
 21
98.234620
  0
LINE
  8
CSLAYER4
  6
CONTINUOUS
 62
     7
 10
84.430565
 20
98.234620
 11
84.362801
 21
98.201160
  0
LINE
  8
CSLAYER4
  6
CONTINUOUS
 62
     7
 10
84.362801
 20
98.201160
 11
84.296443
 21
98.165152
  0
LINE
  8
CSLAYER4
  6
CONTINUOUS
 62
     7
 10
84.296443
 20
98.165152
 11
84.231493
 21
98.126631
  0
LINE
  8
CSLAYER4
  6
CONTINUOUS
 62
     7
 10
84.231493
 20
98.126631
 11
84.167930
 21
98.085638
  0
LINE
  8
CSLAYER4
  6
CONTINUOUS
 62
     7
 10
84.167930
 20
98.085638
 11
84.105741
 21
98.042188
  0
LINE
  8
CSLAYER4
  6
CONTINUOUS
 62
     7
 10
84.105741
 20
98.042188
 11
84.044911
 21
97.996327
  0
LINE
  8
CSLAYER4
  6
CONTINUOUS
 62
     7
 10
84.044911
 20
97.996327
 11
83.985503
 21
97.948138
  0
LINE
  8
CSLAYER4
  6
CONTINUOUS
 62
     7
 10
83.985503
 20
97.948138
 11
83.927810
 21
97.897944
  0
LINE
  8
CSLAYER4
  6
CONTINUOUS
 62
     7
 10
83.927810
 20
97.897944
 11
83.871835
 21
97.845869
  0
LINE
  8
CSLAYER4
  6
CONTINUOUS
 62
     7
 10
83.871835
 20
97.845869
 11
83.817563
 21
97.792009
  0
LINE
  8
CSLAYER4
  6
CONTINUOUS
 62
     7
 10
83.817563
 20
97.792009
 11
83.764945
 21
97.736459
  0
LINE
  8
CSLAYER4
  6
CONTINUOUS
 62
     7
 10
83.764945
 20
97.736459
 11
83.713969
 21
97.679302
  0
LINE
  8
CSLAYER4
  6
CONTINUOUS
 62
     7
 10
83.713969
 20
97.679302
 11
83.664585
 21
97.620635
  0
LINE
  8
CSLAYER4
  6
CONTINUOUS
 62
     7
 10
83.664585
 20
97.620635
 11
83.629841
 21
97.572934
  0
LINE
  8
CSLAYER4
  6
CONTINUOUS
 62
     7
 10
83.629841
 20
97.572934
 11
83.596532
 21
97.524374
  0
LINE
  8
CSLAYER4
  6
CONTINUOUS
 62
     7
 10
83.596532
 20
97.524374
 11
83.564665
 21
97.474970
  0
LINE
  8
CSLAYER4
  6
CONTINUOUS
 62
     7
 10
83.564665
 20
97.474970
 11
83.534260
 21
97.424708
  0
LINE
  8
CSLAYER4
  6
CONTINUOUS
 62
     7
 10
83.534260
 20
97.424708
 11
83.505325
 21
97.373587
  0
LINE
  8
CSLAYER4
  6
CONTINUOUS
 62
     7
 10
83.505325
 20
97.373587
 11
83.477859
 21
97.321601
  0
LINE
  8
CSLAYER4
  6
CONTINUOUS
 62
     7
 10
83.477859
 20
97.321601
 11
83.451876
 21
97.268750
  0
LINE
  8
CSLAYER4
  6
CONTINUOUS
 62
     7
 10
83.451876
 20
97.268750
 11
83.427383
 21
97.215020
  0
LINE
  8
CSLAYER4
  6
CONTINUOUS
 62
     7
 10
83.427383
 20
97.215020
 11
83.404402
 21
97.160446
  0
LINE
  8
CSLAYER4
  6
CONTINUOUS
 62
     7
 10
83.404402
 20
97.160446
 11
83.383047
 21
97.105287
  0
LINE
  8
CSLAYER4
  6
CONTINUOUS
 62
     7
 10
83.383047
 20
97.105287
 11
83.363320
 21
97.049642
  0
LINE
  8
CSLAYER4
  6
CONTINUOUS
 62
     7
 10
83.363320
 20
97.049642
 11
83.345206
 21
96.993522
  0
LINE
  8
CSLAYER4
  6
CONTINUOUS
 62
     7
 10
83.345206
 20
96.993522
 11
83.328671
 21
96.936935
  0
LINE
  8
CSLAYER4
  6
CONTINUOUS
 62
     7
 10
83.328671
 20
96.936935
 11
83.313709
 21
96.879889
  0
LINE
  8
CSLAYER4
  6
CONTINUOUS
 62
     7
 10
83.313709
 20
96.879889
 11
83.300285
 21
96.822410
  0
LINE
  8
CSLAYER4
  6
CONTINUOUS
 62
     7
 10
83.300285
 20
96.822410
 11
83.288379
 21
96.764498
  0
LINE
  8
CSLAYER4
  6
CONTINUOUS
 62
     7
 10
83.288379
 20
96.764498
 11
83.277976
 21
96.706175
  0
LINE
  8
CSLAYER4
  6
CONTINUOUS
 62
     7
 10
83.277976
 20
96.706175
 11
83.269050
 21
96.647487
  0
LINE
  8
CSLAYER4
  6
CONTINUOUS
 62
     7
 10
83.269050
 20
96.647487
 11
83.261593
 21
96.588614
  0
LINE
  8
CSLAYER4
  6
CONTINUOUS
 62
     7
 10
83.261593
 20
96.588614
 11
83.255578
 21
96.529590
  0
LINE
  8
CSLAYER4
  6
CONTINUOUS
 62
     7
 10
83.255578
 20
96.529590
 11
83.250970
 21
96.470443
  0
LINE
  8
CSLAYER4
  6
CONTINUOUS
 62
     7
 10
83.250970
 20
96.470443
 11
83.247722
 21
96.411191
  0
LINE
  8
CSLAYER4
  6
CONTINUOUS
 62
     7
 10
83.247722
 20
96.411191
 11
83.245800
 21
96.351865
  0
LINE
  8
CSLAYER4
  6
CONTINUOUS
 62
     7
 10
83.245800
 20
96.351865
 11
83.245168
 21
96.292484
  0
LINE
  8
CSLAYER4
  6
CONTINUOUS
 62
     7
 10
83.245168
 20
96.292484
 11
83.245759
 21
96.234909
  0
LINE
  8
CSLAYER4
  6
CONTINUOUS
 62
     7
 10
83.245759
 20
96.234909
 11
83.247578
 21
96.177307
  0
LINE
  8
CSLAYER4
  6
CONTINUOUS
 62
     7
 10
83.247578
 20
96.177307
 11
83.250675
 21
96.119717
  0
LINE
  8
CSLAYER4
  6
CONTINUOUS
 62
     7
 10
83.250675
 20
96.119717
 11
83.255118
 21
96.062218
  0
LINE
  8
CSLAYER4
  6
CONTINUOUS
 62
     7
 10
83.255118
 20
96.062218
 11
83.260968
 21
96.004849
  0
LINE
  8
CSLAYER4
  6
CONTINUOUS
 62
     7
 10
83.260968
 20
96.004849
 11
83.268281
 21
95.947678
  0
LINE
  8
CSLAYER4
  6
CONTINUOUS
 62
     7
 10
83.268281
 20
95.947678
 11
83.277111
 21
95.890756
  0
LINE
  8
CSLAYER4
  6
CONTINUOUS
 62
     7
 10
83.277111
 20
95.890756
 11
83.287534
 21
95.834141
  0
LINE
  8
CSLAYER4
  6
CONTINUOUS
 62
     7
 10
83.287534
 20
95.834141
 11
83.299598
 21
95.777891
  0
LINE
  8
CSLAYER4
  6
CONTINUOUS
 62
     7
 10
83.299598
 20
95.777891
 11
83.313359
 21
95.722081
  0
LINE
  8
CSLAYER4
  6
CONTINUOUS
 62
     7
 10
83.313359
 20
95.722081
 11
83.328843
 21
95.666909
  0
LINE
  8
CSLAYER4
  6
CONTINUOUS
 62
     7
 10
83.328843
 20
95.666909
 11
83.346078
 21
95.612431
  0
LINE
  8
CSLAYER4
  6
CONTINUOUS
 62
     7
 10
83.346078
 20
95.612431
 11
83.365112
 21
95.558694
  0
LINE
  8
CSLAYER4
  6
CONTINUOUS
 62
     7
 10
83.365112
 20
95.558694
 11
83.385992
 21
95.505733
  0
LINE
  8
CSLAYER4
  6
CONTINUOUS
 62
     7
 10
83.385992
 20
95.505733
 11
83.408768
 21
95.453589
  0
LINE
  8
CSLAYER4
  6
CONTINUOUS
 62
     7
 10
83.408768
 20
95.453589
 11
83.433474
 21
95.402303
  0
LINE
  8
CSLAYER4
  6
CONTINUOUS
 62
     7
 10
83.433474
 20
95.402303
 11
83.460171
 21
95.351911
  0
LINE
  8
CSLAYER4
  6
CONTINUOUS
 62
     7
 10
83.460171
 20
95.351911
 11
83.488886
 21
95.302445
  0
LINE
  8
CSLAYER4
  6
CONTINUOUS
 62
     7
 10
83.488886
 20
95.302445
 11
83.519552
 21
95.254153
  0
LINE
  8
CSLAYER4
  6
CONTINUOUS
 62
     7
 10
83.519552
 20
95.254153
 11
83.552003
 21
95.207303
  0
LINE
  8
CSLAYER4
  6
CONTINUOUS
 62
     7
 10
83.552003
 20
95.207303
 11
83.586232
 21
95.161888
  0
LINE
  8
CSLAYER4
  6
CONTINUOUS
 62
     7
 10
83.586232
 20
95.161888
 11
83.622233
 21
95.117909
  0
LINE
  8
CSLAYER4
  6
CONTINUOUS
 62
     7
 10
83.622233
 20
95.117909
 11
83.660005
 21
95.075357
  0
LINE
  8
CSLAYER4
  6
CONTINUOUS
 62
     7
 10
83.660005
 20
95.075357
 11
83.699536
 21
95.034227
  0
LINE
  8
CSLAYER4
  6
CONTINUOUS
 62
     7
 10
83.699536
 20
95.034227
 11
83.722586
 21
95.011417
  0
LINE
  8
CSLAYER4
  6
CONTINUOUS
 62
     7
 10
83.722586
 20
95.011417
 11
83.745925
 21
94.988792
  0
LINE
  8
CSLAYER4
  6
CONTINUOUS
 62
     7
 10
83.745925
 20
94.988792
 11
83.769546
 21
94.966387
  0
LINE
  8
CSLAYER4
  6
CONTINUOUS
 62
     7
 10
83.769546
 20
94.966387
 11
83.793455
 21
94.944208
  0
LINE
  8
CSLAYER4
  6
CONTINUOUS
 62
     7
 10
83.793455
 20
94.944208
 11
83.817645
 21
94.922283
  0
LINE
  8
CSLAYER4
  6
CONTINUOUS
 62
     7
 10
83.817645
 20
94.922283
 11
83.842117
 21
94.900627
  0
LINE
  8
CSLAYER4
  6
CONTINUOUS
 62
     7
 10
83.842117
 20
94.900627
 11
83.866864
 21
94.879265
  0
LINE
  8
CSLAYER4
  6
CONTINUOUS
 62
     7
 10
83.866864
 20
94.879265
 11
83.891885
 21
94.858219
  0
LINE
  8
CSLAYER4
  6
CONTINUOUS
 62
     7
 10
83.891885
 20
94.858219
 11
83.917181
 21
94.837503
  0
LINE
  8
CSLAYER4
  6
CONTINUOUS
 62
     7
 10
83.917181
 20
94.837503
 11
83.942752
 21
94.817137
  0
LINE
  8
CSLAYER4
  6
CONTINUOUS
 62
     7
 10
83.942752
 20
94.817137
 11
83.968583
 21
94.797142
  0
LINE
  8
CSLAYER4
  6
CONTINUOUS
 62
     7
 10
83.968583
 20
94.797142
 11
83.994690
 21
94.777545
  0
LINE
  8
CSLAYER4
  6
CONTINUOUS
 62
     7
 10
83.994690
 20
94.777545
 11
84.021057
 21
94.758361
  0
LINE
  8
CSLAYER4
  6
CONTINUOUS
 62
     7
 10
84.021057
 20
94.758361
 11
84.047685
 21
94.739601
  0
LINE
  8
CSLAYER4
  6
CONTINUOUS
 62
     7
 10
84.047685
 20
94.739601
 11
84.074567
 21
94.721302
  0
LINE
  8
CSLAYER4
  6
CONTINUOUS
 62
     7
 10
84.074567
 20
94.721302
 11
84.101711
 21
94.703470
  0
LINE
  8
CSLAYER4
  6
CONTINUOUS
 62
     7
 10
84.101711
 20
94.703470
 11
84.129115
 21
94.686132
  0
LINE
  8
CSLAYER4
  6
CONTINUOUS
 62
     7
 10
84.129115
 20
94.686132
 11
84.156766
 21
94.669309
  0
LINE
  8
CSLAYER4
  6
CONTINUOUS
 62
     7
 10
84.156766
 20
94.669309
 11
84.184685
 21
94.653008
  0
LINE
  8
CSLAYER4
  6
CONTINUOUS
 62
     7
 10
84.184685
 20
94.653008
 11
84.212899
 21
94.637229
  0
LINE
  8
CSLAYER4
  6
CONTINUOUS
 62
     7
 10
84.212899
 20
94.637229
 11
84.241402
 21
94.622006
  0
LINE
  8
CSLAYER4
  6
CONTINUOUS
 62
     7
 10
84.241402
 20
94.622006
 11
84.270200
 21
94.607353
  0
LINE
  8
CSLAYER4
  6
CONTINUOUS
 62
     7
 10
84.270200
 20
94.607353
 11
84.299286
 21
94.593298
  0
LINE
  8
CSLAYER4
  6
CONTINUOUS
 62
     7
 10
84.299286
 20
94.593298
 11
84.328661
 21
94.579860
  0
LINE
  8
CSLAYER4
  6
CONTINUOUS
 62
     7
 10
85.796624
 20
93.950735
 11
84.328663
 21
94.579861
  0
LINE
  8
CSLAYER4
  6
CONTINUOUS
 62
     7
 10
85.796626
 20
93.950735
 11
85.838553
 21
93.931474
  0
LINE
  8
CSLAYER4
  6
CONTINUOUS
 62
     7
 10
85.838553
 20
93.931474
 11
85.879711
 21
93.910628
  0
LINE
  8
CSLAYER4
  6
CONTINUOUS
 62
     7
 10
85.879711
 20
93.910628
 11
85.920003
 21
93.888119
  0
LINE
  8
CSLAYER4
  6
CONTINUOUS
 62
     7
 10
85.920003
 20
93.888119
 11
85.959279
 21
93.863888
  0
LINE
  8
CSLAYER4
  6
CONTINUOUS
 62
     7
 10
85.959279
 20
93.863888
 11
85.997429
 21
93.837864
  0
LINE
  8
CSLAYER4
  6
CONTINUOUS
 62
     7
 10
85.997429
 20
93.837864
 11
86.034260
 21
93.810028
  0
LINE
  8
CSLAYER4
  6
CONTINUOUS
 62
     7
 10
86.034260
 20
93.810028
 11
86.069513
 21
93.780447
  0
LINE
  8
CSLAYER4
  6
CONTINUOUS
 62
     7
 10
86.069513
 20
93.780447
 11
86.103104
 21
93.749087
  0
LINE
  8
CSLAYER4
  6
CONTINUOUS
 62
     7
 10
86.103104
 20
93.749087
 11
86.134937
 21
93.715902
  0
LINE
  8
CSLAYER4
  6
CONTINUOUS
 62
     7
 10
86.134937
 20
93.715902
 11
86.164957
 21
93.680849
  0
LINE
  8
CSLAYER4
  6
CONTINUOUS
 62
     7
 10
86.164957
 20
93.680849
 11
86.192917
 21
93.644093
  0
LINE
  8
CSLAYER4
  6
CONTINUOUS
 62
     7
 10
86.192917
 20
93.644093
 11
86.218515
 21
93.606059
  0
LINE
  8
CSLAYER4
  6
CONTINUOUS
 62
     7
 10
86.218515
 20
93.606059
 11
86.241779
 21
93.566804
  0
LINE
  8
CSLAYER4
  6
CONTINUOUS
 62
     7
 10
86.241779
 20
93.566804
 11
86.262749
 21
93.526346
  0
LINE
  8
CSLAYER4
  6
CONTINUOUS
 62
     7
 10
86.262749
 20
93.526346
 11
86.281453
 21
93.484729
  0
LINE
  8
CSLAYER4
  6
CONTINUOUS
 62
     7
 10
86.281453
 20
93.484729
 11
86.297960
 21
93.441979
  0
LINE
  8
CSLAYER4
  6
CONTINUOUS
 62
     7
 10
86.297960
 20
93.441979
 11
86.312297
 21
93.398123
  0
LINE
  8
CSLAYER4
  6
CONTINUOUS
 62
     7
 10
86.312297
 20
93.398123
 11
86.324492
 21
93.353319
  0
LINE
  8
CSLAYER4
  6
CONTINUOUS
 62
     7
 10
86.324492
 20
93.353319
 11
86.334517
 21
93.307993
  0
LINE
  8
CSLAYER4
  6
CONTINUOUS
 62
     7
 10
86.334517
 20
93.307993
 11
86.342482
 21
93.262249
  0
LINE
  8
CSLAYER4
  6
CONTINUOUS
 62
     7
 10
86.342482
 20
93.262249
 11
86.348497
 21
93.216182
  0
LINE
  8
CSLAYER4
  6
CONTINUOUS
 62
     7
 10
86.348497
 20
93.216182
 11
86.352644
 21
93.169882
  0
LINE
  8
CSLAYER4
  6
CONTINUOUS
 62
     7
 10
86.352644
 20
93.169882
 11
86.355061
 21
93.123444
  0
LINE
  8
CSLAYER4
  6
CONTINUOUS
 62
     7
 10
86.355061
 20
93.123444
 11
86.355844
 21
93.076951
  0
LINE
  8
CSLAYER4
  6
CONTINUOUS
 62
     7
 10
86.355844
 20
93.076951
 11
86.354869
 21
93.033493
  0
LINE
  8
CSLAYER4
  6
CONTINUOUS
 62
     7
 10
86.354869
 20
93.033493
 11
86.351861
 21
92.990228
  0
LINE
  8
CSLAYER4
  6
CONTINUOUS
 62
     7
 10
86.351861
 20
92.990228
 11
86.346753
 21
92.947196
  0
LINE
  8
CSLAYER4
  6
CONTINUOUS
 62
     7
 10
86.346753
 20
92.947196
 11
86.339420
 21
92.904445
  0
LINE
  8
CSLAYER4
  6
CONTINUOUS
 62
     7
 10
86.339420
 20
92.904445
 11
86.329807
 21
92.862072
  0
LINE
  8
CSLAYER4
  6
CONTINUOUS
 62
     7
 10
86.329807
 20
92.862072
 11
86.317914
 21
92.820441
  0
LINE
  8
CSLAYER4
  6
CONTINUOUS
 62
     7
 10
86.317914
 20
92.820441
 11
86.303741
 21
92.779675
  0
LINE
  8
CSLAYER4
  6
CONTINUOUS
 62
     7
 10
86.303741
 20
92.779675
 11
86.287276
 21
92.739773
  0
LINE
  8
CSLAYER4
  6
CONTINUOUS
 62
     7
 10
86.287276
 20
92.739773
 11
86.268489
 21
92.700752
  0
LINE
  8
CSLAYER4
  6
CONTINUOUS
 62
     7
 10
86.268489
 20
92.700752
 11
86.247533
 21
92.662862
  0
LINE
  8
CSLAYER4
  6
CONTINUOUS
 62
     7
 10
86.247533
 20
92.662862
 11
86.224626
 21
92.626429
  0
LINE
  8
CSLAYER4
  6
CONTINUOUS
 62
     7
 10
86.224626
 20
92.626429
 11
86.199866
 21
92.591424
  0
LINE
  8
CSLAYER4
  6
CONTINUOUS
 62
     7
 10
86.199866
 20
92.591424
 11
86.173361
 21
92.557819
  0
LINE
  8
CSLAYER4
  6
CONTINUOUS
 62
     7
 10
86.173361
 20
92.557819
 11
86.145195
 21
92.525575
  0
LINE
  8
CSLAYER4
  6
CONTINUOUS
 62
     7
 10
86.145195
 20
92.525575
 11
86.115463
 21
92.494655
  0
LINE
  8
CSLAYER4
  6
CONTINUOUS
 62
     7
 10
86.115463
 20
92.494655
 11
86.084234
 21
92.465033
  0
LINE
  8
CSLAYER4
  6
CONTINUOUS
 62
     7
 10
86.084234
 20
92.465033
 11
86.051633
 21
92.436674
  0
LINE
  8
CSLAYER4
  6
CONTINUOUS
 62
     7
 10
86.051633
 20
92.436674
 11
86.017795
 21
92.409607
  0
LINE
  8
CSLAYER4
  6
CONTINUOUS
 62
     7
 10
86.017795
 20
92.409607
 11
85.982899
 21
92.383831
  0
LINE
  8
CSLAYER4
  6
CONTINUOUS
 62
     7
 10
85.982899
 20
92.383831
 11
85.947056
 21
92.359310
  0
LINE
  8
CSLAYER4
  6
CONTINUOUS
 62
     7
 10
85.947056
 20
92.359310
 11
85.910390
 21
92.336006
  0
LINE
  8
CSLAYER4
  6
CONTINUOUS
 62
     7
 10
85.910390
 20
92.336006
 11
85.873022
 21
92.313896
  0
LINE
  8
CSLAYER4
  6
CONTINUOUS
 62
     7
 10
85.873022
 20
92.313896
 11
85.835065
 21
92.292925
  0
LINE
  8
CSLAYER4
  6
CONTINUOUS
 62
     7
 10
85.835065
 20
92.292925
 11
85.796626
 21
92.273068
  0
LINE
  8
CSLAYER4
  6
CONTINUOUS
 62
     7
 10
85.796626
 20
92.273068
 11
85.759410
 21
92.262143
  0
LINE
  8
CSLAYER4
  6
CONTINUOUS
 62
     7
 10
85.759410
 20
92.262143
 11
85.722022
 21
92.252228
  0
LINE
  8
CSLAYER4
  6
CONTINUOUS
 62
     7
 10
85.722022
 20
92.252228
 11
85.684442
 21
92.243342
  0
LINE
  8
CSLAYER4
  6
CONTINUOUS
 62
     7
 10
85.684442
 20
92.243342
 11
85.646683
 21
92.235494
  0
LINE
  8
CSLAYER4
  6
CONTINUOUS
 62
     7
 10
85.646683
 20
92.235494
 11
85.608739
 21
92.228704
  0
LINE
  8
CSLAYER4
  6
CONTINUOUS
 62
     7
 10
85.608739
 20
92.228704
 11
85.570610
 21
92.222977
  0
LINE
  8
CSLAYER4
  6
CONTINUOUS
 62
     7
 10
85.570610
 20
92.222977
 11
85.532302
 21
92.218349
  0
LINE
  8
CSLAYER4
  6
CONTINUOUS
 62
     7
 10
85.532302
 20
92.218349
 11
85.493816
 21
92.214820
  0
LINE
  8
CSLAYER4
  6
CONTINUOUS
 62
     7
 10
85.493816
 20
92.214820
 11
85.455151
 21
92.212409
  0
LINE
  8
CSLAYER4
  6
CONTINUOUS
 62
     7
 10
85.455151
 20
92.212409
 11
85.416479
 21
92.211146
  0
LINE
  8
CSLAYER4
  6
CONTINUOUS
 62
     7
 10
85.416479
 20
92.211146
 11
85.377896
 21
92.211016
  0
LINE
  8
CSLAYER4
  6
CONTINUOUS
 62
     7
 10
85.377896
 20
92.211016
 11
85.339396
 21
92.212011
  0
LINE
  8
CSLAYER4
  6
CONTINUOUS
 62
     7
 10
85.339396
 20
92.212011
 11
85.300971
 21
92.214140
  0
LINE
  8
CSLAYER4
  6
CONTINUOUS
 62
     7
 10
85.300971
 20
92.214140
 11
85.262636
 21
92.217374
  0
LINE
  8
CSLAYER4
  6
CONTINUOUS
 62
     7
 10
85.262636
 20
92.217374
 11
85.224383
 21
92.221727
  0
LINE
  8
CSLAYER4
  6
CONTINUOUS
 62
     7
 10
85.224383
 20
92.221727
 11
85.186205
 21
92.227179
  0
LINE
  8
CSLAYER4
  6
CONTINUOUS
 62
     7
 10
85.186205
 20
92.227179
 11
85.148117
 21
92.233723
  0
LINE
  8
CSLAYER4
  6
CONTINUOUS
 62
     7
 10
85.148117
 20
92.233723
 11
85.110132
 21
92.241352
  0
LINE
  8
CSLAYER4
  6
CONTINUOUS
 62
     7
 10
85.110132
 20
92.241352
 11
85.072400
 21
92.250017
  0
LINE
  8
CSLAYER4
  6
CONTINUOUS
 62
     7
 10
85.072400
 20
92.250017
 11
85.034937
 21
92.259692
  0
LINE
  8
CSLAYER4
  6
CONTINUOUS
 62
     7
 10
85.034937
 20
92.259692
 11
84.997756
 21
92.270356
  0
LINE
  8
CSLAYER4
  6
CONTINUOUS
 62
     7
 10
84.997756
 20
92.270356
 11
84.960855
 21
92.281980
  0
LINE
  8
CSLAYER4
  6
CONTINUOUS
 62
     7
 10
84.960855
 20
92.281980
 11
84.924229
 21
92.294539
  0
LINE
  8
CSLAYER4
  6
CONTINUOUS
 62
     7
 10
84.924229
 20
92.294539
 11
84.887885
 21
92.308018
  0
LINE
  8
CSLAYER4
  6
CONTINUOUS
 62
     7
 10
84.887885
 20
92.308018
 11
84.862486
 21
92.318482
  0
LINE
  8
CSLAYER4
  6
CONTINUOUS
 62
     7
 10
84.862486
 20
92.318482
 11
84.837286
 21
92.329483
  0
LINE
  8
CSLAYER4
  6
CONTINUOUS
 62
     7
 10
84.837286
 20
92.329483
 11
84.812333
 21
92.341039
  0
LINE
  8
CSLAYER4
  6
CONTINUOUS
 62
     7
 10
84.812333
 20
92.341039
 11
84.787642
 21
92.353158
  0
LINE
  8
CSLAYER4
  6
CONTINUOUS
 62
     7
 10
84.787642
 20
92.353158
 11
84.763246
 21
92.365868
  0
LINE
  8
CSLAYER4
  6
CONTINUOUS
 62
     7
 10
84.763246
 20
92.365868
 11
84.739172
 21
92.379168
  0
LINE
  8
CSLAYER4
  6
CONTINUOUS
 62
     7
 10
84.739172
 20
92.379168
 11
84.715455
 21
92.393086
  0
LINE
  8
CSLAYER4
  6
CONTINUOUS
 62
     7
 10
84.715455
 20
92.393086
 11
84.692116
 21
92.407636
  0
LINE
  8
CSLAYER4
  6
CONTINUOUS
 62
     7
 10
84.692116
 20
92.407636
 11
84.669182
 21
92.422825
  0
LINE
  8
CSLAYER4
  6
CONTINUOUS
 62
     7
 10
84.669182
 20
92.422825
 11
84.646701
 21
92.438666
  0
LINE
  8
CSLAYER4
  6
CONTINUOUS
 62
     7
 10
84.646701
 20
92.438666
 11
84.624742
 21
92.455132
  0
LINE
  8
CSLAYER4
  6
CONTINUOUS
 62
     7
 10
84.624742
 20
92.455132
 11
84.603340
 21
92.472229
  0
LINE
  8
CSLAYER4
  6
CONTINUOUS
 62
     7
 10
84.603340
 20
92.472229
 11
84.582514
 21
92.489972
  0
LINE
  8
CSLAYER4
  6
CONTINUOUS
 62
     7
 10
84.582514
 20
92.489972
 11
84.562278
 21
92.508367
  0
LINE
  8
CSLAYER4
  6
CONTINUOUS
 62
     7
 10
84.562278
 20
92.508367
 11
84.542654
 21
92.527429
  0
LINE
  8
CSLAYER4
  6
CONTINUOUS
 62
     7
 10
84.542654
 20
92.527429
 11
84.523661
 21
92.547170
  0
LINE
  8
CSLAYER4
  6
CONTINUOUS
 62
     7
 10
84.523661
 20
92.547170
 11
84.505321
 21
92.567597
  0
LINE
  8
CSLAYER4
  6
CONTINUOUS
 62
     7
 10
84.505321
 20
92.567597
 11
84.487654
 21
92.588725
  0
LINE
  8
CSLAYER4
  6
CONTINUOUS
 62
     7
 10
84.487654
 20
92.588725
 11
84.470741
 21
92.610485
  0
LINE
  8
CSLAYER4
  6
CONTINUOUS
 62
     7
 10
84.470741
 20
92.610485
 11
84.454653
 21
92.632794
  0
LINE
  8
CSLAYER4
  6
CONTINUOUS
 62
     7
 10
84.454653
 20
92.632794
 11
84.439396
 21
92.655639
  0
LINE
  8
CSLAYER4
  6
CONTINUOUS
 62
     7
 10
84.439396
 20
92.655639
 11
84.424963
 21
92.679026
  0
LINE
  8
CSLAYER4
  6
CONTINUOUS
 62
     7
 10
84.424963
 20
92.679026
 11
84.411353
 21
92.702963
  0
LINE
  8
CSLAYER4
  6
CONTINUOUS
 62
     7
 10
84.411353
 20
92.702963
 11
84.398568
 21
92.727434
  0
LINE
  8
CSLAYER4
  6
CONTINUOUS
 62
     7
 10
84.398568
 20
92.727434
 11
84.384842
 21
92.755834
  0
LINE
  8
CSLAYER4
  6
CONTINUOUS
 62
     7
 10
84.384842
 20
92.755834
 11
84.371638
 21
92.785030
  0
LINE
  8
CSLAYER4
  6
CONTINUOUS
 62
     7
 10
84.371638
 20
92.785030
 11
84.358949
 21
92.814975
  0
LINE
  8
CSLAYER4
  6
CONTINUOUS
 62
     7
 10
84.358949
 20
92.814975
 11
84.346754
 21
92.845620
  0
LINE
  8
CSLAYER4
  6
CONTINUOUS
 62
     7
 10
84.346754
 20
92.845620
 11
84.335047
 21
92.876911
  0
LINE
  8
CSLAYER4
  6
CONTINUOUS
 62
     7
 10
84.335047
 20
92.876911
 11
84.323820
 21
92.908792
  0
LINE
  8
CSLAYER4
  6
CONTINUOUS
 62
     7
 10
84.323820
 20
92.908792
 11
84.313053
 21
92.941208
  0
LINE
  8
CSLAYER4
  6
CONTINUOUS
 62
     7
 10
84.313053
 20
92.941208
 11
84.302733
 21
92.974126
  0
LINE
  8
CSLAYER4
  6
CONTINUOUS
 62
     7
 10
84.302733
 20
92.974126
 11
84.292859
 21
93.007469
  0
LINE
  8
CSLAYER4
  6
CONTINUOUS
 62
     7
 10
84.292859
 20
93.007469
 11
84.283418
 21
93.041211
  0
LINE
  8
CSLAYER4
  6
CONTINUOUS
 62
     7
 10
84.283418
 20
93.041211
 11
84.274388
 21
93.075283
  0
LINE
  8
CSLAYER4
  6
CONTINUOUS
 62
     7
 10
84.274388
 20
93.075283
 11
84.265764
 21
93.109635
  0
LINE
  8
CSLAYER4
  6
CONTINUOUS
 62
     7
 10
84.265764
 20
93.109635
 11
84.257531
 21
93.144221
  0
LINE
  8
CSLAYER4
  6
CONTINUOUS
 62
     7
 10
84.257531
 20
93.144221
 11
84.249683
 21
93.178987
  0
LINE
  8
CSLAYER4
  6
CONTINUOUS
 62
     7
 10
84.249683
 20
93.178987
 11
84.242198
 21
93.213875
  0
LINE
  8
CSLAYER4
  6
CONTINUOUS
 62
     7
 10
84.242198
 20
93.213875
 11
84.235078
 21
93.248846
  0
LINE
  8
CSLAYER4
  6
CONTINUOUS
 62
     7
 10
84.235078
 20
93.248846
 11
84.228293
 21
93.283851
  0
LINE
  8
CSLAYER4
  6
CONTINUOUS
 62
     7
 10
84.228293
 20
93.283851
 11
84.221825
 21
93.318994
  0
LINE
  8
CSLAYER4
  6
CONTINUOUS
 62
     7
 10
84.221825
 20
93.318994
 11
84.215645
 21
93.354266
  0
LINE
  8
CSLAYER4
  6
CONTINUOUS
 62
     7
 10
84.215645
 20
93.354266
 11
84.209747
 21
93.389642
  0
LINE
  8
CSLAYER4
  6
CONTINUOUS
 62
     7
 10
84.209747
 20
93.389642
 11
84.204131
 21
93.425074
  0
LINE
  8
CSLAYER4
  6
CONTINUOUS
 62
     7
 10
84.204131
 20
93.425074
 11
84.198782
 21
93.460518
  0
LINE
  8
CSLAYER4
  6
CONTINUOUS
 62
     7
 10
84.198782
 20
93.460518
 11
84.193694
 21
93.495949
  0
LINE
  8
CSLAYER4
  6
CONTINUOUS
 62
     7
 10
84.193694
 20
93.495949
 11
84.188860
 21
93.531318
  0
LINE
  8
CSLAYER4
  6
CONTINUOUS
 62
     7
 10
83.070411
 20
93.531317
 11
84.188858
 21
93.531317
  0
LINE
  8
CSLAYER4
  6
CONTINUOUS
 62
     7
 10
83.070410
 20
93.531318
 11
83.080847
 21
93.407372
  0
LINE
  8
CSLAYER4
  6
CONTINUOUS
 62
     7
 10
83.080847
 20
93.407372
 11
83.094319
 21
93.283219
  0
LINE
  8
CSLAYER4
  6
CONTINUOUS
 62
     7
 10
83.094319
 20
93.283219
 11
83.111053
 21
93.159211
  0
LINE
  8
CSLAYER4
  6
CONTINUOUS
 62
     7
 10
83.111053
 20
93.159211
 11
83.131274
 21
93.035718
  0
LINE
  8
CSLAYER4
  6
CONTINUOUS
 62
     7
 10
83.131274
 20
93.035718
 11
83.155211
 21
92.913104
  0
LINE
  8
CSLAYER4
  6
CONTINUOUS
 62
     7
 10
83.155211
 20
92.913104
 11
83.183089
 21
92.791725
  0
LINE
  8
CSLAYER4
  6
CONTINUOUS
 62
     7
 10
83.183089
 20
92.791725
 11
83.215155
 21
92.671864
  0
LINE
  8
CSLAYER4
  6
CONTINUOUS
 62
     7
 10
83.215155
 20
92.671864
 11
83.251835
 21
92.553329
  0
LINE
  8
CSLAYER4
  6
CONTINUOUS
 62
     7
 10
83.251835
 20
92.553329
 11
83.293453
 21
92.436455
  0
LINE
  8
CSLAYER4
  6
CONTINUOUS
 62
     7
 10
83.293453
 20
92.436455
 11
83.340303
 21
92.321696
  0
LINE
  8
CSLAYER4
  6
CONTINUOUS
 62
     7
 10
83.340303
 20
92.321696
 11
83.392681
 21
92.209525
  0
LINE
  8
CSLAYER4
  6
CONTINUOUS
 62
     7
 10
83.392681
 20
92.209525
 11
83.450881
 21
92.100383
  0
LINE
  8
CSLAYER4
  6
CONTINUOUS
 62
     7
 10
83.450881
 20
92.100383
 11
83.514958
 21
91.995121
  0
LINE
  8
CSLAYER4
  6
CONTINUOUS
 62
     7
 10
83.514958
 20
91.995121
 11
83.584708
 21
91.894699
  0
LINE
  8
CSLAYER4
  6
CONTINUOUS
 62
     7
 10
83.584708
 20
91.894699
 11
83.660308
 21
91.799365
  0
LINE
  8
CSLAYER4
  6
CONTINUOUS
 62
     7
 10
83.660308
 20
91.799365
 11
83.741915
 21
91.709359
  0
LINE
  8
CSLAYER4
  6
CONTINUOUS
 62
     7
 10
83.741915
 20
91.709359
 11
83.829710
 21
91.624901
  0
LINE
  8
CSLAYER4
  6
CONTINUOUS
 62
     7
 10
83.829710
 20
91.624901
 11
83.923828
 21
91.546260
  0
LINE
  8
CSLAYER4
  6
CONTINUOUS
 62
     7
 10
83.923828
 20
91.546260
 11
84.022897
 21
91.474684
  0
LINE
  8
CSLAYER4
  6
CONTINUOUS
 62
     7
 10
84.022897
 20
91.474684
 11
84.125935
 21
91.410627
  0
LINE
  8
CSLAYER4
  6
CONTINUOUS
 62
     7
 10
84.125935
 20
91.410627
 11
84.232715
 21
91.353828
  0
LINE
  8
CSLAYER4
  6
CONTINUOUS
 62
     7
 10
84.232715
 20
91.353828
 11
84.343018
 21
91.304046
  0
LINE
  8
CSLAYER4
  6
CONTINUOUS
 62
     7
 10
84.343018
 20
91.304046
 11
84.456631
 21
91.261028
  0
LINE
  8
CSLAYER4
  6
CONTINUOUS
 62
     7
 10
84.456631
 20
91.261028
 11
84.573326
 21
91.224518
  0
ENDBLK
  8
0
  0
BLOCK
  8
CSLAYER1
  2
BLKF0007
 70
   64
 10
0.0
 20
0.0
 30
0.0
  0
LINE
  8
CSLAYER4
  6
CONTINUOUS
 62
     7
 10
97.834299
 20
94.758037
 11
97.856787
 21
94.403848
  0
LINE
  8
CSLAYER4
  6
CONTINUOUS
 62
     7
 10
97.856787
 20
94.403848
 11
97.915742
 21
94.045831
  0
LINE
  8
CSLAYER4
  6
CONTINUOUS
 62
     7
 10
97.915742
 20
94.045831
 11
98.011310
 21
93.690945
  0
LINE
  8
CSLAYER4
  6
CONTINUOUS
 62
     7
 10
98.011310
 20
93.690945
 11
98.143606
 21
93.346132
  0
LINE
  8
CSLAYER4
  6
CONTINUOUS
 62
     7
 10
98.143606
 20
93.346132
 11
98.311277
 21
93.017659
  0
LINE
  8
CSLAYER4
  6
CONTINUOUS
 62
     7
 10
98.311277
 20
93.017659
 11
98.509574
 21
92.710354
  0
LINE
  8
CSLAYER4
  6
CONTINUOUS
 62
     7
 10
98.509574
 20
92.710354
 11
98.733269
 21
92.428853
  0
LINE
  8
CSLAYER4
  6
CONTINUOUS
 62
     7
 10
98.733269
 20
92.428853
 11
98.977969
 21
92.177015
  0
LINE
  8
CSLAYER4
  6
CONTINUOUS
 62
     7
 10
98.977969
 20
92.177015
 11
99.250684
 21
91.947673
  0
LINE
  8
CSLAYER4
  6
CONTINUOUS
 62
     7
 10
99.250684
 20
91.947673
 11
99.550748
 21
91.741823
  0
LINE
  8
CSLAYER4
  6
CONTINUOUS
 62
     7
 10
99.550748
 20
91.741823
 11
99.873458
 21
91.564511
  0
LINE
  8
CSLAYER4
  6
CONTINUOUS
 62
     7
 10
99.873458
 20
91.564511
 11
100.214082
 21
91.420734
  0
LINE
  8
CSLAYER4
  6
CONTINUOUS
 62
     7
 10
100.214082
 20
91.420734
 11
100.566963
 21
91.313243
  0
LINE
  8
CSLAYER4
  6
CONTINUOUS
 62
     7
 10
100.566963
 20
91.313243
 11
100.925234
 21
91.241900
  0
LINE
  8
CSLAYER4
  6
CONTINUOUS
 62
     7
 10
100.925234
 20
91.241900
 11
101.281974
 21
91.206384
  0
LINE
  8
CSLAYER4
  6
CONTINUOUS
 62
     7
 10
101.281974
 20
91.206384
 11
101.633213
 21
91.206384
  0
LINE
  8
CSLAYER4
  6
CONTINUOUS
 62
     7
 10
101.633213
 20
91.206384
 11
101.989946
 21
91.241900
  0
LINE
  8
CSLAYER4
  6
CONTINUOUS
 62
     7
 10
101.989946
 20
91.241900
 11
102.348224
 21
91.313243
  0
LINE
  8
CSLAYER4
  6
CONTINUOUS
 62
     7
 10
102.348224
 20
91.313243
 11
102.701105
 21
91.420734
  0
LINE
  8
CSLAYER4
  6
CONTINUOUS
 62
     7
 10
102.701105
 20
91.420734
 11
103.041722
 21
91.564511
  0
LINE
  8
CSLAYER4
  6
CONTINUOUS
 62
     7
 10
103.041722
 20
91.564511
 11
103.364432
 21
91.741823
  0
LINE
  8
CSLAYER4
  6
CONTINUOUS
 62
     7
 10
103.364432
 20
91.741823
 11
103.664503
 21
91.947673
  0
LINE
  8
CSLAYER4
  6
CONTINUOUS
 62
     7
 10
103.664503
 20
91.947673
 11
103.937218
 21
92.177015
  0
LINE
  8
CSLAYER4
  6
CONTINUOUS
 62
     7
 10
103.937218
 20
92.177015
 11
104.181911
 21
92.428853
  0
LINE
  8
CSLAYER4
  6
CONTINUOUS
 62
     7
 10
104.181911
 20
92.428853
 11
104.405614
 21
92.710354
  0
LINE
  8
CSLAYER4
  6
CONTINUOUS
 62
     7
 10
104.405614
 20
92.710354
 11
104.603910
 21
93.017659
  0
LINE
  8
CSLAYER4
  6
CONTINUOUS
 62
     7
 10
104.603910
 20
93.017659
 11
104.771575
 21
93.346132
  0
LINE
  8
CSLAYER4
  6
CONTINUOUS
 62
     7
 10
104.771575
 20
93.346132
 11
104.903878
 21
93.690945
  0
LINE
  8
CSLAYER4
  6
CONTINUOUS
 62
     7
 10
104.903878
 20
93.690945
 11
104.999438
 21
94.045831
  0
LINE
  8
CSLAYER4
  6
CONTINUOUS
 62
     7
 10
104.999438
 20
94.045831
 11
105.058400
 21
94.403848
  0
LINE
  8
CSLAYER4
  6
CONTINUOUS
 62
     7
 10
105.058400
 20
94.403848
 11
105.080888
 21
94.758037
  0
LINE
  8
CSLAYER4
  6
CONTINUOUS
 62
     7
 10
105.080888
 20
94.758037
 11
105.080998
 21
94.767990
  0
LINE
  8
CSLAYER4
  6
CONTINUOUS
 62
     7
 10
105.080998
 20
94.767990
 11
105.066846
 21
95.128318
  0
LINE
  8
CSLAYER4
  6
CONTINUOUS
 62
     7
 10
105.066846
 20
95.128318
 11
105.017744
 21
95.484838
  0
LINE
  8
CSLAYER4
  6
CONTINUOUS
 62
     7
 10
105.017744
 20
95.484838
 11
104.934118
 21
95.834965
  0
LINE
  8
CSLAYER4
  6
CONTINUOUS
 62
     7
 10
104.934118
 20
95.834965
 11
104.816674
 21
96.175424
  0
LINE
  8
CSLAYER4
  6
CONTINUOUS
 62
     7
 10
104.816674
 20
96.175424
 11
104.667033
 21
96.501746
  0
LINE
  8
CSLAYER4
  6
CONTINUOUS
 62
     7
 10
104.667033
 20
96.501746
 11
104.486500
 21
96.811519
  0
LINE
  8
CSLAYER4
  6
CONTINUOUS
 62
     7
 10
104.486500
 20
96.811519
 11
104.276332
 21
97.102444
  0
LINE
  8
CSLAYER4
  6
CONTINUOUS
 62
     7
 10
104.276332
 20
97.102444
 11
104.038306
 21
97.371685
  0
LINE
  8
CSLAYER4
  6
CONTINUOUS
 62
     7
 10
104.038306
 20
97.371685
 11
103.775616
 21
97.615585
  0
LINE
  8
CSLAYER4
  6
CONTINUOUS
 62
     7
 10
103.775616
 20
97.615585
 11
103.490329
 21
97.832303
  0
LINE
  8
CSLAYER4
  6
CONTINUOUS
 62
     7
 10
103.490329
 20
97.832303
 11
103.184442
 21
98.020115
  0
LINE
  8
CSLAYER4
  6
CONTINUOUS
 62
     7
 10
103.184442
 20
98.020115
 11
102.860606
 21
98.176993
  0
LINE
  8
CSLAYER4
  6
CONTINUOUS
 62
     7
 10
102.860606
 20
98.176993
 11
102.522941
 21
98.300743
  0
LINE
  8
CSLAYER4
  6
CONTINUOUS
 62
     7
 10
102.522941
 20
98.300743
 11
102.173995
 21
98.390278
  0
LINE
  8
CSLAYER4
  6
CONTINUOUS
 62
     7
 10
102.173995
 20
98.390278
 11
101.817667
 21
98.444424
  0
LINE
  8
CSLAYER4
  6
CONTINUOUS
 62
     7
 10
101.817667
 20
98.444424
 11
101.457446
 21
98.462545
  0
LINE
  8
CSLAYER4
  6
CONTINUOUS
 62
     7
 10
101.457446
 20
98.462545
 11
101.097355
 21
98.444407
  0
LINE
  8
CSLAYER4
  6
CONTINUOUS
 62
     7
 10
101.097355
 20
98.444407
 11
100.740938
 21
98.390227
  0
LINE
  8
CSLAYER4
  6
CONTINUOUS
 62
     7
 10
100.740938
 20
98.390227
 11
100.392095
 21
98.300695
  0
LINE
  8
CSLAYER4
  6
CONTINUOUS
 62
     7
 10
100.392095
 20
98.300695
 11
100.054100
 21
98.176793
  0
LINE
  8
CSLAYER4
  6
CONTINUOUS
 62
     7
 10
100.054100
 20
98.176793
 11
99.731034
 21
98.020273
  0
LINE
  8
CSLAYER4
  6
CONTINUOUS
 62
     7
 10
99.731034
 20
98.020273
 11
99.425222
 21
97.832554
  0
LINE
  8
CSLAYER4
  6
CONTINUOUS
 62
     7
 10
99.425222
 20
97.832554
 11
99.139008
 21
97.615111
  0
LINE
  8
CSLAYER4
  6
CONTINUOUS
 62
     7
 10
99.139008
 20
97.615111
 11
98.876050
 21
97.370833
  0
LINE
  8
CSLAYER4
  6
CONTINUOUS
 62
     7
 10
98.876050
 20
97.370833
 11
98.638588
 21
97.102111
  0
LINE
  8
CSLAYER4
  6
CONTINUOUS
 62
     7
 10
98.638588
 20
97.102111
 11
98.428309
 21
96.810942
  0
LINE
  8
CSLAYER4
  6
CONTINUOUS
 62
     7
 10
98.428309
 20
96.810942
 11
98.247330
 21
96.500170
  0
LINE
  8
CSLAYER4
  6
CONTINUOUS
 62
     7
 10
98.247330
 20
96.500170
 11
98.097841
 21
96.173749
  0
LINE
  8
CSLAYER4
  6
CONTINUOUS
 62
     7
 10
98.097841
 20
96.173749
 11
97.980829
 21
95.834148
  0
LINE
  8
CSLAYER4
  6
CONTINUOUS
 62
     7
 10
97.980829
 20
95.834148
 11
97.897244
 21
95.483783
  0
LINE
  8
CSLAYER4
  6
CONTINUOUS
 62
     7
 10
97.897244
 20
95.483783
 11
97.848232
 21
95.127058
  0
LINE
  8
CSLAYER4
  6
CONTINUOUS
 62
     7
 10
97.848232
 20
95.127058
 11
97.834189
 21
94.767990
  0
LINE
  8
CSLAYER4
  6
CONTINUOUS
 62
     7
 10
97.834189
 20
94.767990
 11
97.834299
 21
94.758037
  0
CIRCLE
  8
CSLAYER4
  6
CONTINUOUS
 62
     7
 10
101.457594
 20
94.801961
 40
3.240000
  0
ENDBLK
  8
0
  0
ENDSEC
  0
SECTION
  2
ENTITIES
  0
LINE
  8
CSLAYER1
  6
CENTER
 62
     7
 10
34.344879
 20
257.111836
 11
179.344879
 21
257.111836
  0
LINE
  8
CSLAYER1
  6
CENTER
 62
     7
 10
106.844879
 20
329.611836
 11
106.844879
 21
184.611836
  0
LINE
  8
CSLAYER1
  6
CENTER
 62
     7
 10
131.947170
 20
282.214127
 11
152.453267
 21
302.720224
  0
CIRCLE
  8
CSLAYER1
  6
CONTINUOUS
 62
     7
 10
142.200218
 20
292.467175
 40
9.500000
  0
LINE
  8
CSLAYER1
  6
CENTER
 62
     7
 10
81.742589
 20
282.214127
 11
61.236492
 21
302.720224
  0
CIRCLE
  8
CSLAYER1
  6
CONTINUOUS
 62
     7
 10
71.489540
 20
292.467175
 40
9.500000
  0
CIRCLE
  8
CSLAYER1
  6
CONTINUOUS
 62
     7
 10
106.844879
 20
257.111836
 40
26.500000
  0
CIRCLE
  8
CSLAYER1
  6
CONTINUOUS
 62
     7
 10
106.844879
 20
257.111836
 40
67.500000
  0
CIRCLE
  8
CSLAYER1
  6
CENTER
 62
     7
 10
106.844879
 20
257.111836
 40
50.000000
  0
LINE
  8
CSLAYER1
  6
CENTER
 62
     7
 10
131.947170
 20
232.009546
 11
152.453267
 21
211.503449
  0
CIRCLE
  8
CSLAYER1
  6
CONTINUOUS
 62
     7
 10
142.200218
 20
221.756497
 40
9.500000
  0
LINE
  8
CSLAYER1
  6
CENTER
 62
     7
 10
81.742589
 20
232.009546
 11
61.236492
 21
211.503449
  0
CIRCLE
  8
CSLAYER1
  6
CONTINUOUS
 62
     7
 10
71.489540
 20
221.756497
 40
9.500000
  0
TEXT
  8
CSLAYER1
 62
     7
 10
182.810669
 20
321.493408
 40
6.000000
 41
0.846774
  1
SMOLENSKY CHECK VALVE
 50
0.000000
 51
0.000000
  7
EASYDRAW_FONT
 72
     5
 11
287.810669
 21
321.493408
  0
TEXT
  8
CSLAYER1
 62
     7
 10
182.893829
 20
301.493378
 40
6.000000
 41
0.865385
  1
株式会社　イシザキ
 50
0.000000
 51
0.000000
  7
EASYDRAW_FONT
 72
     5
 11
227.893829
 21
301.493378
  0
TEXT
  8
CSLAYER1
 62
     7
 10
182.949173
 20
311.493378
 40
6.000000
 41
0.859375
  1
SMF 10K 32A
 50
0.000000
 51
0.000000
  7
EASYDRAW_FONT
 72
     5
 11
237.949173
 21
311.493378
  0
LINE
  8
CSLAYER1
  6
CONTINUOUS
 62
     7
 10
89.644879
 20
25.000000
 11
40.544879
 21
25.000000
  0
LINE
  8
CSLAYER1
  6
CONTINUOUS
 62
     7
 10
39.344879
 20
26.200000
 11
39.344879
 21
43.500000
  0
LINE
  8
CSLAYER1
  6
CONTINUOUS
 62
     7
 10
74.344879
 20
153.000000
 11
74.344879
 21
142.886751
  0
LINE
  8
CSLAYER1
  6
CENTER
 62
     2
 10
106.844879
 20
23.000000
 11
106.844879
 21
88.000000
  0
LINE
  8
CSLAYER1
  6
CENTER
 62
     7
 10
56.844879
 20
20.000000
 11
56.844879
 21
50.000000
  0
LINE
  8
CSLAYER1
  6
CONTINUOUS
 62
     7
 10
40.544879
 20
175.000000
 11
79.144879
 21
175.000000
  0
LINE
  8
CSLAYER1
  6
CONTINUOUS
 62
     7
 10
172.844879
 20
45.000000
 11
40.844879
 21
45.000000
  0
ARC
  8
CSLAYER1
  6
CONTINUOUS
 62
     7
 10
76.844879
 20
47.000000
 40
2.000000
 50
270.000000
 51
360.000000
  0
LINE
  8
CSLAYER1
  6
CONTINUOUS
 62
     7
 10
172.844879
 20
155.000000
 11
40.844879
 21
155.000000
  0
ARC
  8
CSLAYER1
  6
CONTINUOUS
 62
     7
 10
72.344879
 20
153.000000
 40
2.000000
 50
0.000000
 51
90.000000
  0
LINE
  8
CSLAYER1
  6
CONTINUOUS
 62
     7
 10
78.844879
 20
47.000000
 11
78.844879
 21
69.000000
  0
LINE
  8
CSLAYER1
  6
CONTINUOUS
 62
     7
 10
39.344879
 20
173.800000
 11
39.344879
 21
156.500000
  0
LINE
  8
CSLAYER1
  6
CONTINUOUS
 62
     7
 10
40.844879
 20
45.000000
 11
39.344879
 21
43.500000
  0
LINE
  8
CSLAYER1
  6
CONTINUOUS
 62
     7
 10
39.344879
 20
156.500000
 11
40.844879
 21
155.000000
  0
LINE
  8
CSLAYER1
  6
CONTINUOUS
 62
     7
 10
40.544879
 20
25.000000
 11
39.344879
 21
26.200000
  0
LINE
  8
CSLAYER1
  6
CONTINUOUS
 62
     7
 10
39.344879
 20
173.800000
 11
40.544879
 21
175.000000
  0
LINE
  8
CSLAYER1
  6
CONTINUOUS
 62
     7
 10
50.844879
 20
85.000000
 11
50.844879
 21
114.885263
  0
LINE
  8
CSLAYER1
  6
CONTINUOUS
 62
     7
 10
63.844879
 20
72.000000
 11
149.844879
 21
72.000000
  0
ARC
  8
CSLAYER1
  6
CONTINUOUS
 62
     7
 10
75.844879
 20
69.000000
 40
3.000000
 50
0.000000
 51
90.000000
  0
ARC
  8
CSLAYER1
  6
CONTINUOUS
 62
     7
 10
63.844879
 20
85.000000
 40
13.000000
 50
180.000000
 51
270.000000
  0
LINE
  8
CSLAYER1
  6
CONTINUOUS
 62
     7
 10
71.844879
 20
138.556624
 11
60.844879
 21
132.205771
  0
ARC
  8
CSLAYER1
  6
CONTINUOUS
 62
     7
 10
70.844879
 20
114.885263
 40
20.000000
 50
120.000000
 51
180.000000
  0
LINE
  8
CSLAYER1
  6
CENTER
 62
     7
 10
56.844879
 20
150.000000
 11
56.844879
 21
180.000000
  0
LINE
  8
CSLAYER1
  6
CONTINUOUS
 62
     7
 10
40.544879
 20
25.000000
 11
173.144879
 21
25.000000
  0
LINE
  8
CSLAYER1
  6
CONTINUOUS
 62
     7
 10
174.344879
 20
26.200000
 11
174.344879
 21
43.500000
  0
LINE
  8
CSLAYER1
  6
CONTINUOUS
 62
     7
 10
139.344879
 20
153.000000
 11
139.344879
 21
142.886751
  0
LINE
  8
CSLAYER1
  6
CENTER
 62
     7
 10
156.844879
 20
20.000000
 11
156.844879
 21
50.000000
  0
LINE
  8
CSLAYER1
  6
CONTINUOUS
 62
     7
 10
173.144879
 20
175.000000
 11
40.544879
 21
175.000000
  0
ARC
  8
CSLAYER1
  6
CONTINUOUS
 62
     7
 10
136.844879
 20
47.000000
 40
2.000000
 50
180.000000
 51
270.000000
  0
ARC
  8
CSLAYER1
  6
CONTINUOUS
 62
     7
 10
141.344879
 20
153.000000
 40
2.000000
 50
90.000000
 51
180.000000
  0
LINE
  8
CSLAYER1
  6
CONTINUOUS
 62
     7
 10
134.844879
 20
47.000000
 11
134.844879
 21
69.000000
  0
LINE
  8
CSLAYER1
  6
CONTINUOUS
 62
     7
 10
174.344879
 20
173.800000
 11
174.344879
 21
156.500000
  0
LINE
  8
CSLAYER1
  6
CONTINUOUS
 62
     7
 10
172.844879
 20
45.000000
 11
174.344879
 21
43.500000
  0
LINE
  8
CSLAYER1
  6
CONTINUOUS
 62
     7
 10
174.344879
 20
156.500000
 11
172.844879
 21
155.000000
  0
LINE
  8
CSLAYER1
  6
CONTINUOUS
 62
     7
 10
173.144879
 20
25.000000
 11
174.344879
 21
26.200000
  0
LINE
  8
CSLAYER1
  6
CONTINUOUS
 62
     7
 10
174.344879
 20
173.800000
 11
173.144879
 21
175.000000
  0
LINE
  8
CSLAYER1
  6
CONTINUOUS
 62
     7
 10
162.844879
 20
85.000000
 11
162.844879
 21
114.885263
  0
ARC
  8
CSLAYER1
  6
CONTINUOUS
 62
     7
 10
137.844879
 20
69.000000
 40
3.000000
 50
90.000000
 51
180.000000
  0
ARC
  8
CSLAYER1
  6
CONTINUOUS
 62
     7
 10
149.844879
 20
85.000000
 40
13.000000
 50
270.000000
 51
360.000000
  0
LINE
  8
CSLAYER1
  6
CONTINUOUS
 62
     7
 10
141.844879
 20
138.556624
 11
152.844879
 21
132.205771
  0
ARC
  8
CSLAYER1
  6
CONTINUOUS
 62
     7
 10
142.844879
 20
114.885263
 40
20.000000
 50
0.000000
 51
60.000000
  0
LINE
  8
CSLAYER1
  6
CENTER
 62
     7
 10
156.844879
 20
150.000000
 11
156.844879
 21
180.000000
  0
LINE
  8
CSLAYER1
  6
CENTER
 62
     7
 10
106.844879
 20
20.000000
 11
106.844879
 21
88.000000
  0
ARC
  8
CSLAYER1
  6
CONTINUOUS
 62
     7
 10
69.344879
 20
142.886751
 40
5.000000
 50
300.000000
 51
360.000000
  0
ARC
  8
CSLAYER1
  6
CONTINUOUS
 62
     7
 10
144.344879
 20
142.886751
 40
5.000000
 50
180.000000
 51
240.000000
  0
LINE
  8
CSLAYER1
  6
CENTER
 62
     7
 10
106.844879
 20
72.000000
 11
106.844879
 21
180.000000
  0
INSERT
  8
CSLAYER1
  2
BLKF0000
 10
0.0
 20
0.0
 30
0.0
  0
INSERT
  8
CSLAYER4
  2
BLKF0001
 10
0.0
 20
0.0
 30
0.0
  0
LINE
  8
CSLAYER4
  6
CONTINUOUS
 62
     7
 10
99.663278
 20
119.945026
 11
99.661580
 21
119.965615
  0
INSERT
  8
CSLAYER4
  2
BLKF0002
 10
0.0
 20
0.0
 30
0.0
  0
LINE
  8
CSLAYER4
  6
CONTINUOUS
 62
     7
 10
114.577848
 20
119.965615
 11
114.576150
 21
119.945026
  0
LINE
  8
CSLAYER4
  6
CONTINUOUS
 62
     7
 10
80.366905
 20
102.967539
 11
77.949941
 21
102.967539
  0
LINE
  8
CSLAYER4
  6
CONTINUOUS
 62
     7
 10
75.496614
 20
107.778501
 11
80.366905
 21
102.967539
  0
LINE
  8
CSLAYER4
  6
CONTINUOUS
 62
     7
 10
75.496614
 20
107.778501
 11
75.496614
 21
94.327045
  0
LINE
  8
CSLAYER4
  6
CONTINUOUS
 62
     7
 10
77.949941
 20
94.327045
 11
75.496614
 21
94.327045
  0
LINE
  8
CSLAYER4
  6
CONTINUOUS
 62
     7
 10
77.949941
 20
94.327045
 11
77.949941
 21
102.967539
  0
LINE
  8
CSLAYER4
  6
CONTINUOUS
 62
     7
 10
118.418771
 20
97.980623
 11
116.768039
 21
95.170867
  0
LINE
  8
CSLAYER4
  6
CONTINUOUS
 62
     7
 10
116.768039
 20
95.170867
 11
118.594380
 21
90.780623
  0
LINE
  8
CSLAYER4
  6
CONTINUOUS
 62
     7
 10
118.594380
 20
90.780623
 11
117.435356
 21
90.780623
  0
LINE
  8
CSLAYER4
  6
CONTINUOUS
 62
     7
 10
117.435356
 20
90.780623
 11
116.170966
 21
94.082087
  0
LINE
  8
CSLAYER4
  6
CONTINUOUS
 62
     7
 10
116.170966
 20
94.082087
 11
115.714380
 21
93.344526
  0
LINE
  8
CSLAYER4
  6
CONTINUOUS
 62
     7
 10
115.714380
 20
90.780623
 11
115.714380
 21
93.344526
  0
LINE
  8
CSLAYER4
  6
CONTINUOUS
 62
     7
 10
115.714380
 20
90.780623
 11
114.730966
 21
90.780623
  0
LINE
  8
CSLAYER4
  6
CONTINUOUS
 62
     7
 10
114.730966
 20
97.980623
 11
114.730966
 21
90.780623
  0
LINE
  8
CSLAYER4
  6
CONTINUOUS
 62
     7
 10
114.730966
 20
97.980623
 11
115.714380
 21
97.980623
  0
LINE
  8
CSLAYER4
  6
CONTINUOUS
 62
     7
 10
115.714380
 20
95.276233
 11
115.714380
 21
97.980623
  0
LINE
  8
CSLAYER4
  6
CONTINUOUS
 62
     7
 10
115.714380
 20
95.276233
 11
117.224625
 21
97.980623
  0
LINE
  8
CSLAYER4
  6
CONTINUOUS
 62
     7
 10
117.224625
 20
97.980623
 11
118.418771
 21
97.980623
  0
LINE
  8
CSLAYER4
  6
CONTINUOUS
 62
     7
 10
123.089990
 20
93.801111
 11
123.089990
 21
94.784526
  0
LINE
  8
CSLAYER4
  6
CONTINUOUS
 62
     7
 10
123.089990
 20
93.801111
 11
119.121210
 21
93.801111
  0
LINE
  8
CSLAYER4
  6
CONTINUOUS
 62
     7
 10
119.121210
 20
94.784526
 11
119.121210
 21
93.801111
  0
LINE
  8
CSLAYER4
  6
CONTINUOUS
 62
     7
 10
119.121210
 20
94.784526
 11
123.089990
 21
94.784526
  0
LINE
  8
CSLAYER1
  6
CONTINUOUS
 62
     7
 10
89.057426
 20
100.174924
 11
89.057426
 21
107.396099
  0
LINE
  8
CSLAYER1
  6
CONTINUOUS
 62
     7
 10
89.057426
 20
107.396099
 11
90.095644
 21
107.396099
  0
LINE
  8
CSLAYER1
  6
CONTINUOUS
 62
     7
 10
89.057426
 20
100.174924
 11
89.724852
 21
100.174924
  0
LINE
  8
CSLAYER1
  6
CONTINUOUS
 62
     7
 10
91.430495
 20
100.174924
 11
92.125730
 21
100.174924
  0
LINE
  8
CSLAYER1
  6
CONTINUOUS
 62
     7
 10
93.822104
 20
100.174924
 11
94.461720
 21
100.174924
  0
LINE
  8
CSLAYER1
  6
CONTINUOUS
 62
     7
 10
89.724852
 20
100.174924
 11
89.724852
 21
106.116867
  0
LINE
  8
CSLAYER1
  6
CONTINUOUS
 62
     7
 10
94.461720
 20
100.174924
 11
94.461720
 21
107.396099
  0
LINE
  8
CSLAYER1
  6
CONTINUOUS
 62
     7
 10
93.822104
 20
100.174924
 11
93.822104
 21
106.116867
  0
LINE
  8
CSLAYER1
  6
CONTINUOUS
 62
     7
 10
89.724852
 20
106.116867
 11
89.781122
 21
106.116867
  0
LINE
  8
CSLAYER1
  6
CONTINUOUS
 62
     7
 10
89.781122
 20
106.116867
 11
91.430495
 21
100.174924
  0
LINE
  8
CSLAYER1
  6
CONTINUOUS
 62
     7
 10
93.822104
 20
106.116867
 11
93.773229
 21
106.116867
  0
LINE
  8
CSLAYER1
  6
CONTINUOUS
 62
     7
 10
92.125730
 20
100.174924
 11
93.773229
 21
106.116867
  0
LINE
  8
CSLAYER1
  6
CONTINUOUS
 62
     5
 10
91.747843
 20
101.521660
 11
91.811268
 21
101.521660
  0
LINE
  8
CSLAYER1
  6
CONTINUOUS
 62
     7
 10
94.461720
 20
107.396099
 11
93.485507
 21
107.396099
  0
LINE
  8
CSLAYER1
  6
CONTINUOUS
 62
     7
 10
90.095644
 20
107.396099
 11
91.747843
 21
101.521660
  0
LINE
  8
CSLAYER1
  6
CONTINUOUS
 62
     7
 10
91.811268
 20
101.521660
 11
93.485507
 21
107.396099
  0
LINE
  8
CSLAYER1
  6
CONTINUOUS
 62
     7
 10
101.301832
 20
107.396099
 11
101.301832
 21
100.174924
  0
LINE
  8
CSLAYER1
  6
CONTINUOUS
 62
     7
 10
101.301832
 20
100.174924
 11
105.128012
 21
100.174924
  0
LINE
  8
CSLAYER1
  6
CONTINUOUS
 62
     7
 10
105.128012
 20
100.174924
 11
105.128012
 21
101.104503
  0
LINE
  8
CSLAYER1
  6
CONTINUOUS
 62
     7
 10
105.128012
 20
101.104503
 11
101.936090
 21
101.104503
  0
LINE
  8
CSLAYER1
  6
CONTINUOUS
 62
     7
 10
101.936090
 20
101.104503
 11
101.936090
 21
107.396099
  0
LINE
  8
CSLAYER1
  6
CONTINUOUS
 62
     7
 10
101.301832
 20
107.396099
 11
101.936090
 21
107.396099
  0
LINE
  8
CSLAYER1
  6
CONTINUOUS
 62
     7
 10
107.129595
 20
107.396099
 11
107.129595
 21
100.174924
  0
LINE
  8
CSLAYER1
  6
CONTINUOUS
 62
     7
 10
107.129595
 20
107.396099
 11
111.154235
 21
107.396099
  0
LINE
  8
CSLAYER1
  6
CONTINUOUS
 62
     7
 10
111.154235
 20
107.396099
 11
111.154235
 21
106.440020
  0
LINE
  8
CSLAYER1
  6
CONTINUOUS
 62
     7
 10
111.154235
 20
106.440020
 11
107.783831
 21
106.440020
  0
LINE
  8
CSLAYER1
  6
CONTINUOUS
 62
     7
 10
107.783831
 20
106.440020
 11
107.783831
 21
104.431258
  0
LINE
  8
CSLAYER1
  6
CONTINUOUS
 62
     7
 10
107.783831
 20
104.431258
 11
110.820540
 21
104.431258
  0
LINE
  8
CSLAYER1
  6
CONTINUOUS
 62
     7
 10
110.820540
 20
104.431258
 11
110.820540
 21
103.494260
  0
LINE
  8
CSLAYER1
  6
CONTINUOUS
 62
     7
 10
110.820540
 20
103.494260
 11
107.783831
 21
103.494260
  0
LINE
  8
CSLAYER1
  6
CONTINUOUS
 62
     7
 10
107.783831
 20
103.494260
 11
107.783831
 21
101.096147
  0
LINE
  8
CSLAYER1
  6
CONTINUOUS
 62
     7
 10
107.783831
 20
101.096147
 11
111.154235
 21
101.096147
  0
LINE
  8
CSLAYER1
  6
CONTINUOUS
 62
     7
 10
107.129595
 20
100.174924
 11
111.154235
 21
100.174924
  0
LINE
  8
CSLAYER1
  6
CONTINUOUS
 62
     7
 10
113.210201
 20
107.396099
 11
113.210201
 21
100.174924
  0
LINE
  8
CSLAYER1
  6
CONTINUOUS
 62
     7
 10
113.210201
 20
100.174924
 11
113.888229
 21
100.174924
  0
LINE
  8
CSLAYER1
  6
CONTINUOUS
 62
     7
 10
113.888229
 20
100.174924
 11
113.888229
 21
105.918040
  0
LINE
  8
CSLAYER1
  6
CONTINUOUS
 62
     7
 10
113.210201
 20
107.396099
 11
113.931765
 21
107.396099
  0
LINE
  8
CSLAYER1
  6
CONTINUOUS
 62
     7
 10
116.779723
 20
107.396099
 11
117.458154
 21
107.396099
  0
LINE
  8
CSLAYER1
  6
CONTINUOUS
 62
     7
 10
116.779723
 20
101.637032
 11
116.779723
 21
107.396099
  0
LINE
  8
CSLAYER1
  6
CONTINUOUS
 62
     7
 10
117.458154
 20
107.396099
 11
117.458154
 21
100.174924
  0
LINE
  8
CSLAYER1
  6
CONTINUOUS
 62
     7
 10
117.458154
 20
100.174924
 11
116.730065
 21
100.174924
  0
LINE
  8
CSLAYER1
  6
CONTINUOUS
 62
     7
 10
116.779723
 20
101.637032
 11
116.726239
 21
101.637032
  0
LINE
  8
CSLAYER1
  6
CONTINUOUS
 62
     7
 10
113.888229
 20
105.918040
 11
113.952881
 21
105.918040
  0
LINE
  8
CSLAYER1
  6
CONTINUOUS
 62
     7
 10
113.952881
 20
105.918040
 11
116.730065
 21
100.174924
  0
LINE
  8
CSLAYER1
  6
CONTINUOUS
 62
     7
 10
116.726239
 20
101.637032
 11
113.931765
 21
107.396099
  0
LINE
  8
CSLAYER1
  6
CONTINUOUS
 62
     7
 10
124.781304
 20
107.396099
 11
124.781304
 21
100.174924
  0
LINE
  8
CSLAYER1
  6
CONTINUOUS
 62
     7
 10
124.781304
 20
107.396099
 11
125.479448
 21
107.396099
  0
LINE
  8
CSLAYER1
  6
CONTINUOUS
 62
     7
 10
124.781304
 20
100.174924
 11
125.498066
 21
100.174924
  0
LINE
  8
CSLAYER1
  6
CONTINUOUS
 62
     7
 10
125.498066
 20
100.174924
 11
125.498066
 21
102.614728
  0
LINE
  8
CSLAYER1
  6
CONTINUOUS
 62
     7
 10
125.479448
 20
107.396099
 11
125.479448
 21
103.824845
  0
LINE
  8
CSLAYER1
  6
CONTINUOUS
 62
     7
 10
128.234792
 20
107.396099
 11
129.168439
 21
107.396099
  0
LINE
  8
CSLAYER1
  6
CONTINUOUS
 62
     7
 10
128.495434
 20
100.174924
 11
129.519379
 21
100.174924
  0
LINE
  8
CSLAYER1
  6
CONTINUOUS
 62
     7
 10
128.234792
 20
107.396099
 11
125.479448
 21
103.824845
  0
LINE
  8
CSLAYER1
  6
CONTINUOUS
 62
     7
 10
129.168439
 20
107.396099
 11
127.033121
 21
104.628472
  0
LINE
  8
CSLAYER1
  6
CONTINUOUS
 62
     7
 10
129.519379
 20
100.174924
 11
127.033121
 21
104.628472
  0
LINE
  8
CSLAYER1
  6
CONTINUOUS
 62
     7
 10
128.495434
 20
100.174924
 11
126.504104
 21
103.942804
  0
LINE
  8
CSLAYER1
  6
CONTINUOUS
 62
     7
 10
126.504104
 20
103.942804
 11
125.479448
 21
102.614728
  0
LINE
  8
CSLAYER1
  6
CONTINUOUS
 62
     7
 10
130.381204
 20
107.396099
 11
131.208494
 21
107.396099
  0
LINE
  8
CSLAYER1
  6
CONTINUOUS
 62
     7
 10
134.069542
 20
107.396099
 11
134.914068
 21
107.396099
  0
LINE
  8
CSLAYER1
  6
CONTINUOUS
 62
     7
 10
132.294314
 20
100.174924
 11
132.983723
 21
100.174924
  0
LINE
  8
CSLAYER1
  6
CONTINUOUS
 62
     7
 10
132.294314
 20
100.174924
 11
132.294314
 21
103.205048
  0
LINE
  8
CSLAYER1
  6
CONTINUOUS
 62
     7
 10
132.983723
 20
100.174924
 11
132.983723
 21
103.205048
  0
LINE
  8
CSLAYER1
  6
CONTINUOUS
 62
     7
 10
132.294314
 20
103.205048
 11
130.381204
 21
107.396099
  0
LINE
  8
CSLAYER1
  6
CONTINUOUS
 62
     7
 10
132.983723
 20
103.205048
 11
134.914068
 21
107.396099
  0
LINE
  8
CSLAYER1
  6
CONTINUOUS
 62
     7
 10
132.617176
 20
104.027896
 11
132.686195
 21
104.027896
  0
LINE
  8
CSLAYER1
  6
CONTINUOUS
 62
     7
 10
132.485825
 20
104.026170
 11
131.208494
 21
107.396099
  0
LINE
  8
CSLAYER1
  6
CONTINUOUS
 62
     7
 10
132.686195
 20
104.027896
 11
134.069542
 21
107.396099
  0
LINE
  8
CSLAYER1
  6
CONTINUOUS
 62
     7
 10
111.154235
 20
101.096147
 11
111.154235
 21
100.174924
  0
INSERT
  8
CSLAYER1
  2
BLKF0003
 10
0.0
 20
0.0
 30
0.0
  0
INSERT
  8
CSLAYER1
  2
BLKF0004
 10
0.0
 20
0.0
 30
0.0
  0
INSERT
  8
CSLAYER1
  2
BLKF0005
 10
0.0
 20
0.0
 30
0.0
  0
LINE
  8
CSLAYER1
  6
CONTINUOUS
 62
     7
 10
89.057426
 20
91.204971
 11
89.057426
 21
98.426146
  0
LINE
  8
CSLAYER1
  6
CONTINUOUS
 62
     7
 10
89.057426
 20
98.426146
 11
90.095644
 21
98.426146
  0
LINE
  8
CSLAYER1
  6
CONTINUOUS
 62
     7
 10
89.057426
 20
91.204971
 11
89.724852
 21
91.204971
  0
LINE
  8
CSLAYER1
  6
CONTINUOUS
 62
     7
 10
91.430495
 20
91.204971
 11
92.125730
 21
91.204971
  0
LINE
  8
CSLAYER1
  6
CONTINUOUS
 62
     7
 10
93.822104
 20
91.204971
 11
94.461720
 21
91.204971
  0
LINE
  8
CSLAYER1
  6
CONTINUOUS
 62
     7
 10
89.724852
 20
91.204971
 11
89.724852
 21
97.146914
  0
LINE
  8
CSLAYER1
  6
CONTINUOUS
 62
     7
 10
94.461720
 20
91.204971
 11
94.461720
 21
98.426146
  0
LINE
  8
CSLAYER1
  6
CONTINUOUS
 62
     7
 10
93.822104
 20
91.204971
 11
93.822104
 21
97.146914
  0
LINE
  8
CSLAYER1
  6
CONTINUOUS
 62
     7
 10
89.724852
 20
97.146914
 11
89.781122
 21
97.146914
  0
LINE
  8
CSLAYER1
  6
CONTINUOUS
 62
     7
 10
89.781122
 20
97.146914
 11
91.430495
 21
91.204971
  0
LINE
  8
CSLAYER1
  6
CONTINUOUS
 62
     7
 10
93.822104
 20
97.146914
 11
93.773229
 21
97.146914
  0
LINE
  8
CSLAYER1
  6
CONTINUOUS
 62
     7
 10
92.125730
 20
91.204971
 11
93.773229
 21
97.146914
  0
LINE
  8
CSLAYER1
  6
CONTINUOUS
 62
     7
 10
94.461720
 20
98.426146
 11
93.485507
 21
98.426146
  0
LINE
  8
CSLAYER1
  6
CONTINUOUS
 62
     7
 10
90.095644
 20
98.426146
 11
91.747843
 21
92.551707
  0
LINE
  8
CSLAYER1
  6
CONTINUOUS
 62
     7
 10
91.811268
 20
92.551707
 11
93.485507
 21
98.426146
  0
INSERT
  8
CSLAYER1
  2
BLKF0006
 10
0.0
 20
0.0
 30
0.0
  0
INSERT
  8
CSLAYER1
  2
BLKF0007
 10
0.0
 20
0.0
 30
0.0
  0
LINE
  8
CSLAYER1
  6
CONTINUOUS
 62
     7
 10
100.369419
 20
96.628520
 11
101.953622
 21
96.628520
  0
LINE
  8
CSLAYER1
  6
CONTINUOUS
 62
     7
 10
100.369419
 20
96.628520
 11
100.369419
 21
92.760780
  0
LINE
  8
CSLAYER1
  6
CONTINUOUS
 62
     7
 10
100.369419
 20
92.760780
 11
100.719085
 21
92.760780
  0
LINE
  8
CSLAYER1
  6
CONTINUOUS
 62
     7
 10
100.719085
 20
92.760780
 11
100.719085
 21
94.295031
  0
LINE
  8
CSLAYER1
  6
CONTINUOUS
 62
     7
 10
100.719085
 20
94.295031
 11
101.582548
 21
94.295031
  0
LINE
  8
CSLAYER1
  6
CONTINUOUS
 62
     7
 10
102.353242
 20
92.760780
 11
102.867037
 21
92.760780
  0
LINE
  8
CSLAYER1
  6
CONTINUOUS
 62
     7
 10
100.719085
 20
94.794554
 11
100.719085
 21
96.136132
  0
LINE
  8
CSLAYER1
  6
CONTINUOUS
 62
     7
 10
100.719085
 20
96.136132
 11
101.839445
 21
96.136132
  0
LINE
  8
CSLAYER1
  6
CONTINUOUS
 62
     7
 10
100.719085
 20
94.794554
 11
101.896534
 21
94.794554
  0
LINE
  8
CSLAYER1
  6
CONTINUOUS
 62
     7
 10
102.353242
 20
92.760780
 11
101.582548
 21
94.295031
  0
ARC
  8
CSLAYER1
  6
CONTINUOUS
 62
     7
 10
101.814626
 20
95.787196
 40
0.852728
 50
16.813305
 51
80.618849
  0
ARC
  8
CSLAYER1
  6
CONTINUOUS
 62
     7
 10
100.961909
 20
95.487387
 40
1.756178
 50
-24.514508
 51
18.129563
  0
ARC
  8
CSLAYER1
  6
CONTINUOUS
 62
     7
 10
101.859169
 20
95.080630
 40
0.771040
 50
280.212276
 51
336.078889
  0
ARC
  8
CSLAYER1
  6
CONTINUOUS
 62
     7
 10
101.837231
 20
95.666147
 40
0.457636
 50
7.898580
 51
53.559298
  0
ARC
  8
CSLAYER1
  6
CONTINUOUS
 62
     7
 10
101.280404
 20
95.483901
 40
1.039441
 50
-25.395544
 51
13.640759
  0
ARC
  8
CSLAYER1
  6
CONTINUOUS
 62
     7
 10
101.822930
 20
95.227900
 40
0.439552
 50
279.639685
 51
334.420970
  0
LINE
  8
CSLAYER1
  6
CONTINUOUS
 62
     7
 10
101.995871
 20
94.321805
 11
102.867037
 21
92.760780
  0
ARC
  8
CSLAYER1
  6
CONTINUOUS
 62
     7
 10
101.824042
 20
95.687495
 40
0.448901
 50
50.585215
 51
88.033532
  0
LINE
  8
CSLAYER1
  6
CONTINUOUS
 62
     7
 10
107.470964
 20
90.780623
 11
108.370964
 21
90.780623
  0
LINE
  8
CSLAYER1
  6
CONTINUOUS
 62
     7
 10
107.470964
 20
97.980623
 11
108.370964
 21
97.980623
  0
LINE
  8
CSLAYER1
  6
CONTINUOUS
 62
     7
 10
107.470964
 20
96.728450
 11
107.470964
 21
90.780623
  0
LINE
  8
CSLAYER1
  6
CONTINUOUS
 62
     7
 10
111.005509
 20
97.980623
 11
112.096420
 21
97.980623
  0
LINE
  8
CSLAYER1
  6
CONTINUOUS
 62
     7
 10
107.157920
 20
96.728450
 11
107.470964
 21
96.728450
  0
LINE
  8
CSLAYER1
  6
CONTINUOUS
 62
     7
 10
107.470964
 20
97.980623
 11
107.157920
 21
96.728450
  0
LINE
  8
CSLAYER1
  6
CONTINUOUS
 62
     7
 10
109.450964
 20
96.415406
 11
109.450964
 21
92.345840
  0
LINE
  8
CSLAYER1
  6
CONTINUOUS
 62
     7
 10
110.350964
 20
96.426078
 11
110.350964
 21
92.345840
  0
LINE
  8
CSLAYER1
  6
CONTINUOUS
 62
     7
 10
111.005509
 20
97.080623
 11
112.096420
 21
97.080623
  0
ARC
  8
CSLAYER1
  6
CONTINUOUS
 62
     7
 10
111.005509
 20
96.426078
 40
0.654545
 50
90.000000
 51
180.000000
  0
ARC
  8
CSLAYER1
  6
CONTINUOUS
 62
     7
 10
111.005509
 20
96.426078
 40
1.554545
 50
90.000000
 51
180.000000
  0
ARC
  8
CSLAYER1
  6
CONTINUOUS
 62
     7
 10
111.005509
 20
92.335169
 40
0.654545
 50
180.000000
 51
270.000000
  0
ARC
  8
CSLAYER1
  6
CONTINUOUS
 62
     7
 10
111.005509
 20
92.335169
 40
1.554545
 50
180.000000
 51
270.000000
  0
LINE
  8
CSLAYER1
  6
CONTINUOUS
 62
     7
 10
113.650966
 20
96.415406
 11
113.650966
 21
92.345840
  0
LINE
  8
CSLAYER1
  6
CONTINUOUS
 62
     7
 10
112.750966
 20
96.426078
 11
112.750966
 21
92.345840
  0
ARC
  8
CSLAYER1
  6
CONTINUOUS
 62
     7
 10
112.096420
 20
96.426078
 40
0.654545
 50
0.000000
 51
90.000000
  0
ARC
  8
CSLAYER1
  6
CONTINUOUS
 62
     7
 10
112.096420
 20
96.426078
 40
1.554545
 50
0.000000
 51
90.000000
  0
ARC
  8
CSLAYER1
  6
CONTINUOUS
 62
     7
 10
112.096420
 20
92.335169
 40
0.654545
 50
270.000000
 51
360.000000
  0
ARC
  8
CSLAYER1
  6
CONTINUOUS
 62
     7
 10
112.096420
 20
92.335169
 40
1.554545
 50
270.000000
 51
360.000000
  0
LINE
  8
CSLAYER1
  6
CONTINUOUS
 62
     7
 10
111.005509
 20
91.680623
 11
112.096420
 21
91.680623
  0
LINE
  8
CSLAYER1
  6
CONTINUOUS
 62
     7
 10
111.005509
 20
90.780623
 11
112.096420
 21
90.780623
  0
LINE
  8
CSLAYER1
  6
CONTINUOUS
 62
     7
 10
108.370964
 20
97.980623
 11
108.370964
 21
90.780623
  0
LINE
  8
CSLAYER1
  6
CONTINUOUS
 62
     7
 10
129.509072
 20
90.734361
 11
129.509072
 21
92.534361
  0
LINE
  8
CSLAYER1
  6
CONTINUOUS
 62
     7
 10
129.509072
 20
90.734361
 11
133.709075
 21
90.734361
  0
LINE
  8
CSLAYER1
  6
CONTINUOUS
 62
     7
 10
131.387333
 20
97.934361
 11
131.830814
 21
97.934361
  0
LINE
  8
CSLAYER1
  6
CONTINUOUS
 62
     7
 10
129.509072
 20
96.056101
 11
130.409072
 21
96.056101
  0
LINE
  8
CSLAYER1
  6
CONTINUOUS
 62
     7
 10
133.709075
 20
95.390883
 11
133.709075
 21
96.056101
  0
ARC
  8
CSLAYER1
  6
CONTINUOUS
 62
     7
 10
131.387333
 20
96.056101
 40
1.878261
 50
90.000000
 51
180.000000
  0
ARC
  8
CSLAYER1
  6
CONTINUOUS
 62
     7
 10
131.830814
 20
96.056101
 40
1.878261
 50
0.000000
 51
90.000000
  0
LINE
  8
CSLAYER1
  6
CONTINUOUS
 62
     7
 10
130.409072
 20
91.634361
 11
133.709075
 21
91.634361
  0
LINE
  8
CSLAYER1
  6
CONTINUOUS
 62
     7
 10
133.709075
 20
90.734361
 11
133.709075
 21
91.634361
  0
ARC
  8
CSLAYER1
  6
CONTINUOUS
 62
     7
 10
131.387333
 20
96.056101
 40
0.978261
 50
90.000000
 51
180.000000
  0
LINE
  8
CSLAYER1
  6
CONTINUOUS
 62
     7
 10
131.387333
 20
97.034361
 11
131.830814
 21
97.034361
  0
ARC
  8
CSLAYER1
  6
CONTINUOUS
 62
     7
 10
131.830814
 20
96.056101
 40
0.979570
 50
0.000000
 51
90.000000
  0
LINE
  8
CSLAYER1
  6
CONTINUOUS
 62
     7
 10
132.809075
 20
95.390883
 11
132.809075
 21
96.056101
  0
ARC
  8
CSLAYER1
  6
CONTINUOUS
 62
     7
 10
131.830814
 20
95.390883
 40
0.978261
 50
270.000000
 51
360.000000
  0
LINE
  8
CSLAYER1
  6
CONTINUOUS
 62
     7
 10
131.387333
 20
94.412622
 11
131.830814
 21
94.412622
  0
ARC
  8
CSLAYER1
  6
CONTINUOUS
 62
     7
 10
131.387333
 20
92.534361
 40
1.878261
 50
90.000000
 51
180.000000
  0
ARC
  8
CSLAYER1
  6
CONTINUOUS
 62
     7
 10
131.387333
 20
92.534361
 40
0.978261
 50
90.000000
 51
180.000000
  0
LINE
  8
CSLAYER1
  6
CONTINUOUS
 62
     7
 10
131.387333
 20
93.512622
 11
131.830814
 21
93.512622
  0
LINE
  8
CSLAYER1
  6
CONTINUOUS
 62
     7
 10
130.409072
 20
91.634361
 11
130.409072
 21
92.534361
  0
ARC
  8
CSLAYER1
  6
CONTINUOUS
 62
     7
 10
131.830814
 20
95.390883
 40
1.878261
 50
270.000000
 51
360.000000
  0
LINE
  8
CSLAYER1
  6
CONTINUOUS
 62
     7
 10
125.129266
 20
94.784361
 11
125.129266
 21
93.884361
  0
LINE
  8
CSLAYER1
  6
CONTINUOUS
 62
     7
 10
126.107331
 20
90.734361
 11
126.550812
 21
90.734361
  0
LINE
  8
CSLAYER1
  6
CONTINUOUS
 62
     7
 10
124.229070
 20
92.612622
 11
125.129070
 21
92.612622
  0
LINE
  8
CSLAYER1
  6
CONTINUOUS
 62
     7
 10
128.429072
 20
92.906101
 11
128.429072
 21
92.612622
  0
ARC
  8
CSLAYER1
  6
CONTINUOUS
 62
     7
 10
126.107331
 20
92.612622
 40
1.878261
 50
180.000000
 51
270.000000
  0
ARC
  8
CSLAYER1
  6
CONTINUOUS
 62
     7
 10
126.550812
 20
92.612622
 40
1.878261
 50
270.000000
 51
360.000000
  0
ARC
  8
CSLAYER1
  6
CONTINUOUS
 62
     7
 10
126.107331
 20
92.612622
 40
0.978261
 50
180.000000
 51
270.000000
  0
LINE
  8
CSLAYER1
  6
CONTINUOUS
 62
     7
 10
126.107331
 20
91.634361
 11
126.550812
 21
91.634361
  0
ARC
  8
CSLAYER1
  6
CONTINUOUS
 62
     7
 10
126.550812
 20
92.612622
 40
0.979570
 50
270.000000
 51
360.000000
  0
LINE
  8
CSLAYER1
  6
CONTINUOUS
 62
     7
 10
127.529072
 20
92.906101
 11
127.529072
 21
92.612622
  0
ARC
  8
CSLAYER1
  6
CONTINUOUS
 62
     7
 10
126.550812
 20
92.906101
 40
0.978261
 50
0.000000
 51
90.000000
  0
LINE
  8
CSLAYER1
  6
CONTINUOUS
 62
     7
 10
126.107331
 20
97.934361
 11
126.550812
 21
97.934361
  0
LINE
  8
CSLAYER1
  6
CONTINUOUS
 62
     7
 10
124.229070
 20
96.056101
 11
125.129070
 21
96.056101
  0
ARC
  8
CSLAYER1
  6
CONTINUOUS
 62
     7
 10
126.107331
 20
96.056101
 40
1.878261
 50
90.000000
 51
180.000000
  0
ARC
  8
CSLAYER1
  6
CONTINUOUS
 62
     7
 10
126.550812
 20
96.056101
 40
1.878261
 50
0.000000
 51
90.000000
  0
ARC
  8
CSLAYER1
  6
CONTINUOUS
 62
     7
 10
126.107331
 20
96.056101
 40
0.978261
 50
90.000000
 51
180.000000
  0
LINE
  8
CSLAYER1
  6
CONTINUOUS
 62
     7
 10
126.107331
 20
97.034361
 11
126.550812
 21
97.034361
  0
ARC
  8
CSLAYER1
  6
CONTINUOUS
 62
     7
 10
126.550812
 20
96.056101
 40
0.979570
 50
0.000000
 51
90.000000
  0
LINE
  8
CSLAYER1
  6
CONTINUOUS
 62
     7
 10
125.129266
 20
93.884361
 11
126.550812
 21
93.884361
  0
LINE
  8
CSLAYER1
  6
CONTINUOUS
 62
     7
 10
125.129266
 20
94.784361
 11
126.550812
 21
94.784361
  0
ARC
  8
CSLAYER1
  6
CONTINUOUS
 62
     7
 10
126.550812
 20
95.762622
 40
0.978261
 50
270.000000
 51
360.000000
  0
LINE
  8
CSLAYER1
  6
CONTINUOUS
 62
     7
 10
127.529072
 20
95.762622
 11
127.529072
 21
96.056101
  0
ARC
  8
CSLAYER1
  6
CONTINUOUS
 62
     7
 10
126.550812
 20
92.906101
 40
1.878261
 50
0.000000
 51
49.500944
  0
ARC
  8
CSLAYER1
  6
CONTINUOUS
 62
     7
 10
126.550812
 20
95.762622
 40
1.878261
 50
310.499056
 51
360.000000
  0
LINE
  8
CSLAYER1
  6
CONTINUOUS
 62
     7
 10
128.429072
 20
95.762622
 11
128.429072
 21
96.056101
  0
ENDSEC
  0
EOF
