  0
SECTION
  2
HEADER
  9
$ACADVER
  1
AC1006
  9
$INSBASE
 10
0.000000
 20
0.000000
 30
0.0
  9
$EXTMIN
 10
0.000000
 20
0.000000
  9
$EXTMAX
 10
435.567709
 20
398.000000
  9
$LIMMIN
 10
0.000000
 20
0.000000
  9
$LIMMAX
 10
435.567709
 20
398.000000
  9
$VIEWCTR
 10
217.783854
 20
199.000000
  9
$VIEWSIZE
 40
398.000000
  9
$SNAPMODE
 70
     0
  9
$SNAPUNIT
 10
1.0
 20
1.0
  9
$SNAPBASE
 10
0.0
 20
0.0
  9
$SNAPANG
 50
0.0
  9
$SNAPSTYLE
 70
     0
  9
$SNAPISOPAIR
 70
     0
  9
$GRIDMODE
 70
     0
  9
$GRIDUNIT
 10
0.0
 20
0.0
  9
$ORTHOMODE
 70
     0
  9
$REGENMODE
 70
     1
  9
$FILLMODE
 70
     1
  9
$QTEXTMODE
 70
     0
  9
$DRAGMODE
 70
     2
  9
$LTSCALE
 40
15.000000
  9
$OSMODE
 70
     0
  9
$ATTMODE
 70
     1
  9
$TEXTSIZE
 40
0.2
  9
$TRACEWID
 40
0.05
  9
$TEXTSTYLE
  7
STANDARD
  9
$CLAYER
  8
CSLAYER1
  9
$CELTYPE
  6
BYLAYER
  9
$CECOLOR
 62
   256
  9
$DIMSCALE
 40
1.0
  9
$DIMASZ
 40
0.18
  9
$DIMEXO
 40
0.0625
  9
$DIMDLI
 40
0.38
  9
$DIMRND
 40
0.0
  9
$DIMDLE
 40
0.0
  9
$DIMEXE
 40
0.18
  9
$DIMTP
 40
0.0
  9
$DIMTM
 40
0.0
  9
$DIMTXT
 40
0.18
  9
$DIMCEN
 40
0.09
  9
$DIMTSZ
 40
0.0
  9
$DIMTOL
 70
     0
  9
$DIMLIM
 70
     0
  9
$DIMTIH
 70
     1
  9
$DIMTOH
 70
     1
  9
$DIMSE1
 70
     0
  9
$DIMSE2
 70
     0
  9
$DIMTAD
 70
     0
  9
$DIMZIN
 70
     0
  9
$DIMBLK
  1

  9
$LUNITS
 70
     2
  9
$LUPREC
 70
     4
  9
$AXISMODE
 70
     0
  9
$AXISUNIT
 10
0.0
 20
0.0
  9
$SKETCHINC
 40
0.1
  9
$FILLETRAD
 40
0.0
  9
$AUNITS
 70
     0
  9
$AUPREC
 70
     0
  9
$MENU
  1
ACAD
  9
$ELEVATION
 40
0.0
  9
$THICKNESS
 40
0.0
  9
$VIEWDIR
 10
0.0
 20
0.0
 30
1.0
  9
$LIMCHECK
 70
     0
  9
$BLIPMODE
 70
     1
  9
$CHAMFERA
 40
0.0
  9
$CHAMFERB
 40
0.0
  9
$FASTZOOM
 70
     1
  9
$SKPOLY
 70
     0
  9
$TDCREATE
 40
2456637.000000
  9
$TDUPDATE
 40
2456637.000000
  9
$TDINDWG
 40
0.0
  9
$TDUSRTIMER
 40
0.0
  9
$USRTIMER
 70
     1
  9
$ANGBASE
 50
0.0
  9
$ANGDIR
 70
     0
  9
$PDMODE
 70
     0
  9
$PDSIZE
 40
0.0
  9
$PLINEWID
 40
0.0
  9
$COORDS
 70
     0
  9
$USERI1
 70
     0
  9
$USERI2
 70
     0
  9
$USERI3
 70
     0
  9
$USERI4
 70
     0
  9
$USERI5
 70
     0
  9
$USERR1
 40
0.0
  9
$USERR2
 40
0.0
  9
$USERR3
 40
0.0
  9
$USERR4
 40
0.0
  9
$USERR5
 40
0.0
  0
ENDSEC
  0
SECTION
  2
TABLES
  0
TABLE
  2
LTYPE
 70
     9
  0
LTYPE
  2
CONTINUOUS
 70
    64
  3
Solid line
 72
    65
 73
     0
 40
0.0
  0
LTYPE
  2
DASHED
 70
    64
  3
__ __ __ __ __ __ __ __ __ __ __ __ __ __ __
 72
    65
 73
     2
 40
0.75
 49
0.5
 49
-0.25
  0
LTYPE
  2
HIDDEN
 70
    64
  3
_ _ _ _ _ _ _ _ _ _ _ _ _ _ _ _ _ _ _ _ _ _ _
 72
    65
 73
     2
 40
0.375
 49
0.25
 49
-0.125
  0
LTYPE
  2
DOT
 70
    64
  3
...............................................
 72
    65
 73
     2
 40
0.25
 49
0.0
 49
-0.25
  0
LTYPE
  2
DASHDOT
 70
    64
  3
__ . __ . __ . __ . __ . __ . __ . __ . __ . __
 72
    65
 73
     4
 40
1.0
 49
0.5
 49
-0.25
 49
0.0
 49
-0.25
  0
LTYPE
  2
DIVIDE
 70
    64
  3
__ . . __ . . __ . . __ . . __ . . __ . . __
 72
    65
 73
     6
 40
1.25
 49
0.5
 49
-0.25
 49
0.0
 49
-0.25
 49
0.0
 49
-0.25
  0
LTYPE
  2
CENTER
 70
    64
  3
____ _ ____ _ ____ _ ____ _ ____ _ ____ _ ____ 
 72
    65
 73
     4
 40
2.0
 49
1.25
 49
-0.25
 49
0.25
 49
-0.25
  0
LTYPE
  2
PHANTOM
 70
    64
  3
______  __  __  ______  __  __  ______  __  __ 
 72
    65
 73
     6
 40
2.5
 49
1.25
 49
-0.25
 49
0.25
 49
-0.25
 49
0.25
 49
-0.25
  0
LTYPE
  2
BORDER
 70
    64
  3
__ __ . __ __ . __ __ . __ __ . __ __ . __ __ .
 72
    65
 73
     6
 40
1.75
 49
0.5
 49
-0.25
 49
0.5
 49
-0.25
 49
0.0
 49
-0.25
  0
ENDTAB
  0
TABLE
  2
LAYER
 70
    16
  0
LAYER
  2
CSLAYER1
 70
    64
 62
     7
  6
CONTINUOUS
  0
LAYER
  2
CSLAYER2
 70
    64
 62
     7
  6
CONTINUOUS
  0
LAYER
  2
CSLAYER3
 70
    64
 62
     7
  6
CONTINUOUS
  0
LAYER
  2
CSLAYER4
 70
    64
 62
     7
  6
CONTINUOUS
  0
LAYER
  2
CSLAYER5
 70
    64
 62
     7
  6
CONTINUOUS
  0
LAYER
  2
CSLAYER6
 70
    64
 62
     7
  6
CONTINUOUS
  0
LAYER
  2
CSLAYER7
 70
    64
 62
     7
  6
CONTINUOUS
  0
LAYER
  2
CSLAYER8
 70
    64
 62
     7
  6
CONTINUOUS
  0
LAYER
  2
CSLAYER9
 70
    64
 62
     7
  6
CONTINUOUS
  0
LAYER
  2
CSLAYER10
 70
    64
 62
     7
  6
CONTINUOUS
  0
LAYER
  2
CSLAYER11
 70
    64
 62
     7
  6
CONTINUOUS
  0
LAYER
  2
CSLAYER12
 70
    64
 62
     7
  6
CONTINUOUS
  0
LAYER
  2
CSLAYER13
 70
    64
 62
     7
  6
CONTINUOUS
  0
LAYER
  2
CSLAYER14
 70
    64
 62
     7
  6
CONTINUOUS
  0
LAYER
  2
CSLAYER15
 70
    64
 62
     7
  6
CONTINUOUS
  0
LAYER
  2
CSLAYER16
 70
    64
 62
     7
  6
CONTINUOUS
  0
ENDTAB
  0
TABLE
  2
STYLE
 70
     1
  0
STYLE
  2
EASYDRAW_FONT
 70
     0
 40
1.0
 41
1.0
 50
0.0
 71
     0
 42
1.0
  3
monotxt
  4
bigfont
  0
ENDTAB
  0
TABLE
  2
VIEW
 70
     0
  0
ENDTAB
  0
ENDSEC
  0
SECTION
  2
BLOCKS
  0
BLOCK
  8
CSLAYER1
  2
BLKF0000
 70
   64
 10
0.0
 20
0.0
 30
0.0
  0
LINE
  8
CSLAYER1
  6
CONTINUOUS
 62
     7
 10
42.514883
 20
71.136858
 11
49.628024
 21
78.250000
  0
LINE
  8
CSLAYER1
  6
CONTINUOUS
 62
     7
 10
42.309868
 20
71.992504
 11
48.567364
 21
78.250000
  0
LINE
  8
CSLAYER1
  6
CONTINUOUS
 62
     7
 10
42.151071
 20
72.894367
 11
47.506704
 21
78.250000
  0
LINE
  8
CSLAYER1
  6
CONTINUOUS
 62
     7
 10
42.044984
 20
73.848941
 11
46.446044
 21
78.250000
  0
LINE
  8
CSLAYER1
  6
CONTINUOUS
 62
     7
 10
42.000618
 20
74.865235
 11
45.385384
 21
78.250000
  0
LINE
  8
CSLAYER1
  6
CONTINUOUS
 62
     7
 10
42.000002
 20
75.925279
 11
44.324723
 21
78.250000
  0
LINE
  8
CSLAYER1
  6
CONTINUOUS
 62
     7
 10
42.000002
 20
76.985939
 11
43.264063
 21
78.250000
  0
LINE
  8
CSLAYER1
  6
CONTINUOUS
 62
     7
 10
42.000002
 20
78.046599
 11
42.203403
 21
78.250000
  0
LINE
  8
CSLAYER1
  6
CONTINUOUS
 62
     7
 10
42.761279
 20
70.322595
 11
50.500002
 21
78.061318
  0
LINE
  8
CSLAYER1
  6
CONTINUOUS
 62
     7
 10
43.045377
 20
69.546033
 11
50.500002
 21
77.000658
  0
LINE
  8
CSLAYER1
  6
CONTINUOUS
 62
     7
 10
43.364333
 20
68.804328
 11
50.500002
 21
75.939998
  0
LINE
  8
CSLAYER1
  6
CONTINUOUS
 62
     7
 10
43.715928
 20
68.095263
 11
50.501145
 21
74.880480
  0
LINE
  8
CSLAYER1
  6
CONTINUOUS
 62
     7
 10
44.098432
 20
67.417107
 11
50.595114
 21
73.913789
  0
LINE
  8
CSLAYER1
  6
CONTINUOUS
 62
     7
 10
44.510507
 20
66.768521
 11
50.807060
 21
73.065075
  0
LINE
  8
CSLAYER1
  6
CONTINUOUS
 62
     7
 10
44.951135
 20
66.148490
 11
51.109848
 21
72.307203
  0
LINE
  8
CSLAYER1
  6
CONTINUOUS
 62
     7
 10
45.419578
 20
65.556273
 11
51.489092
 21
71.625786
  0
LINE
  8
CSLAYER1
  6
CONTINUOUS
 62
     7
 10
45.915340
 20
64.991374
 11
51.936908
 21
71.012943
  0
LINE
  8
CSLAYER1
  6
CONTINUOUS
 62
     7
 10
46.438149
 20
64.453523
 11
52.449454
 21
70.464828
  0
LINE
  8
CSLAYER1
  6
CONTINUOUS
 62
     7
 10
46.987946
 20
63.942660
 11
53.025939
 21
69.980653
  0
LINE
  8
CSLAYER1
  6
CONTINUOUS
 62
     7
 10
47.564884
 20
63.458938
 11
53.668440
 21
69.562494
  0
LINE
  8
CSLAYER1
  6
CONTINUOUS
 62
     7
 10
48.169332
 20
63.002726
 11
54.382405
 21
69.215799
  0
LINE
  8
CSLAYER1
  6
CONTINUOUS
 62
     7
 10
48.801889
 20
62.574623
 11
55.178152
 21
68.950886
  0
LINE
  8
CSLAYER1
  6
CONTINUOUS
 62
     7
 10
49.463414
 20
62.175487
 11
56.074535
 21
68.786608
  0
LINE
  8
CSLAYER1
  6
CONTINUOUS
 62
     7
 10
50.155058
 20
61.806471
 11
57.098587
 21
68.750000
  0
LINE
  8
CSLAYER1
  6
CONTINUOUS
 62
     7
 10
50.878324
 20
61.469077
 11
58.159247
 21
68.750000
  0
LINE
  8
CSLAYER1
  6
CONTINUOUS
 62
     7
 10
51.635143
 20
61.165236
 11
59.219907
 21
68.750000
  0
LINE
  8
CSLAYER1
  6
CONTINUOUS
 62
     7
 10
52.427990
 20
60.897422
 11
60.280568
 21
68.750000
  0
LINE
  8
CSLAYER1
  6
CONTINUOUS
 62
     7
 10
53.260048
 20
60.668820
 11
61.341228
 21
68.750000
  0
LINE
  8
CSLAYER1
  6
CONTINUOUS
 62
     7
 10
54.135460
 20
60.483573
 11
62.401888
 21
68.750000
  0
LINE
  8
CSLAYER1
  6
CONTINUOUS
 62
     7
 10
55.059718
 20
60.347170
 11
63.462548
 21
68.750000
  0
LINE
  8
CSLAYER1
  6
CONTINUOUS
 62
     7
 10
56.040292
 20
60.267084
 11
64.523208
 21
68.750000
  0
LINE
  8
CSLAYER1
  6
CONTINUOUS
 62
     7
 10
57.083868
 20
60.250000
 11
65.250002
 21
68.416134
  0
LINE
  8
CSLAYER1
  6
CONTINUOUS
 62
     7
 10
58.144529
 20
60.250000
 11
65.080002
 21
67.185474
  0
LINE
  8
CSLAYER1
  6
CONTINUOUS
 62
     7
 10
59.205189
 20
60.250000
 11
65.080002
 21
66.124814
  0
LINE
  8
CSLAYER1
  6
CONTINUOUS
 62
     7
 10
60.265849
 20
60.250000
 11
65.080002
 21
65.064154
  0
LINE
  8
CSLAYER1
  6
CONTINUOUS
 62
     7
 10
61.326509
 20
60.250000
 11
65.080002
 21
64.003493
  0
LINE
  8
CSLAYER1
  6
CONTINUOUS
 62
     7
 10
62.387169
 20
60.250000
 11
65.080002
 21
62.942833
  0
LINE
  8
CSLAYER1
  6
CONTINUOUS
 62
     7
 10
63.447829
 20
60.250000
 11
65.080002
 21
61.882173
  0
LINE
  8
CSLAYER1
  6
CONTINUOUS
 62
     7
 10
64.508490
 20
60.250000
 11
65.250002
 21
60.991513
  0
LINE
  8
CSLAYER1
  6
CONTINUOUS
 62
     7
 10
58.617937
 20
60.250000
 11
42.000002
 21
76.867935
  0
LINE
  8
CSLAYER1
  6
CONTINUOUS
 62
     7
 10
57.557277
 20
60.250000
 11
42.000002
 21
75.807275
  0
LINE
  8
CSLAYER1
  6
CONTINUOUS
 62
     7
 10
56.494402
 20
60.252215
 11
42.002217
 21
74.744400
  0
LINE
  8
CSLAYER1
  6
CONTINUOUS
 62
     7
 10
55.371389
 20
60.314568
 11
42.064570
 21
73.621387
  0
LINE
  8
CSLAYER1
  6
CONTINUOUS
 62
     7
 10
54.143098
 20
60.482199
 11
42.232201
 21
72.393095
  0
LINE
  8
CSLAYER1
  6
CONTINUOUS
 62
     7
 10
52.766563
 20
60.798074
 11
42.548076
 21
71.016560
  0
LINE
  8
CSLAYER1
  6
CONTINUOUS
 62
     7
 10
51.149286
 20
61.354691
 11
43.104693
 21
69.399284
  0
LINE
  8
CSLAYER1
  6
CONTINUOUS
 62
     7
 10
48.982214
 20
62.461102
 11
44.211104
 21
67.232212
  0
LINE
  8
CSLAYER1
  6
CONTINUOUS
 62
     7
 10
59.678597
 20
60.250000
 11
42.000002
 21
77.928595
  0
LINE
  8
CSLAYER1
  6
CONTINUOUS
 62
     7
 10
60.739258
 20
60.250000
 11
42.739258
 21
78.250000
  0
LINE
  8
CSLAYER1
  6
CONTINUOUS
 62
     7
 10
61.799918
 20
60.250000
 11
43.799918
 21
78.250000
  0
LINE
  8
CSLAYER1
  6
CONTINUOUS
 62
     7
 10
62.860578
 20
60.250000
 11
53.363744
 21
69.746834
  0
LINE
  8
CSLAYER1
  6
CONTINUOUS
 62
     7
 10
51.496836
 20
71.613742
 11
44.860578
 21
78.250000
  0
LINE
  8
CSLAYER1
  6
CONTINUOUS
 62
     7
 10
63.921238
 20
60.250000
 11
55.234787
 21
68.936452
  0
LINE
  8
CSLAYER1
  6
CONTINUOUS
 62
     7
 10
50.686454
 20
73.484785
 11
45.921238
 21
78.250000
  0
LINE
  8
CSLAYER1
  6
CONTINUOUS
 62
     7
 10
64.981898
 20
60.250000
 11
56.475884
 21
68.756014
  0
LINE
  8
CSLAYER1
  6
CONTINUOUS
 62
     7
 10
50.506016
 20
74.725882
 11
46.981898
 21
78.250000
  0
LINE
  8
CSLAYER1
  6
CONTINUOUS
 62
     7
 10
65.250002
 20
61.042556
 11
57.542558
 21
68.750000
  0
LINE
  8
CSLAYER1
  6
CONTINUOUS
 62
     7
 10
50.500002
 20
75.792556
 11
48.042558
 21
78.250000
  0
LINE
  8
CSLAYER1
  6
CONTINUOUS
 62
     7
 10
65.080002
 20
62.273216
 11
58.603219
 21
68.750000
  0
LINE
  8
CSLAYER1
  6
CONTINUOUS
 62
     7
 10
50.500002
 20
76.853216
 11
49.103219
 21
78.250000
  0
LINE
  8
CSLAYER1
  6
CONTINUOUS
 62
     7
 10
65.080002
 20
63.333877
 11
59.663879
 21
68.750000
  0
LINE
  8
CSLAYER1
  6
CONTINUOUS
 62
     7
 10
50.500002
 20
77.913877
 11
50.163879
 21
78.250000
  0
LINE
  8
CSLAYER1
  6
CONTINUOUS
 62
     7
 10
65.080002
 20
64.394537
 11
60.724539
 21
68.750000
  0
LINE
  8
CSLAYER1
  6
CONTINUOUS
 62
     7
 10
65.080002
 20
65.455197
 11
61.785199
 21
68.750000
  0
LINE
  8
CSLAYER1
  6
CONTINUOUS
 62
     7
 10
65.080002
 20
66.515857
 11
62.845859
 21
68.750000
  0
LINE
  8
CSLAYER1
  6
CONTINUOUS
 62
     7
 10
65.108010
 20
67.548510
 11
63.906519
 21
68.750000
  0
LINE
  8
CSLAYER1
  6
CONTINUOUS
 62
     7
 10
65.250002
 20
68.467178
 11
64.967180
 21
68.750000
  0
ENDBLK
  8
0
  0
BLOCK
  8
CSLAYER1
  2
BLKF0001
 70
   64
 10
0.0
 20
0.0
 30
0.0
  0
LINE
  8
CSLAYER1
  6
CONTINUOUS
 62
     7
 10
319.817709
 20
69.913463
 11
328.154247
 21
78.250000
  0
LINE
  8
CSLAYER1
  6
CONTINUOUS
 62
     7
 10
319.817709
 20
70.620569
 11
327.447140
 21
78.250000
  0
LINE
  8
CSLAYER1
  6
CONTINUOUS
 62
     7
 10
319.817709
 20
71.327676
 11
326.740034
 21
78.250000
  0
LINE
  8
CSLAYER1
  6
CONTINUOUS
 62
     7
 10
319.817709
 20
72.034783
 11
326.032927
 21
78.250000
  0
LINE
  8
CSLAYER1
  6
CONTINUOUS
 62
     7
 10
319.817709
 20
72.741890
 11
325.325820
 21
78.250000
  0
LINE
  8
CSLAYER1
  6
CONTINUOUS
 62
     7
 10
319.817709
 20
73.448996
 11
324.618713
 21
78.250000
  0
LINE
  8
CSLAYER1
  6
CONTINUOUS
 62
     7
 10
319.817709
 20
74.156103
 11
323.911606
 21
78.250000
  0
LINE
  8
CSLAYER1
  6
CONTINUOUS
 62
     7
 10
319.817709
 20
74.863210
 11
323.204500
 21
78.250000
  0
LINE
  8
CSLAYER1
  6
CONTINUOUS
 62
     7
 10
319.817709
 20
75.570317
 11
322.497393
 21
78.250000
  0
LINE
  8
CSLAYER1
  6
CONTINUOUS
 62
     7
 10
319.817709
 20
76.277424
 11
321.790286
 21
78.250000
  0
LINE
  8
CSLAYER1
  6
CONTINUOUS
 62
     7
 10
319.817709
 20
76.984530
 11
321.083179
 21
78.250000
  0
LINE
  8
CSLAYER1
  6
CONTINUOUS
 62
     7
 10
319.817709
 20
77.691637
 11
320.376073
 21
78.250000
  0
LINE
  8
CSLAYER1
  6
CONTINUOUS
 62
     7
 10
319.817709
 20
69.206356
 11
328.317709
 21
77.706356
  0
LINE
  8
CSLAYER1
  6
CONTINUOUS
 62
     7
 10
319.817709
 20
68.499249
 11
328.317709
 21
76.999249
  0
LINE
  8
CSLAYER1
  6
CONTINUOUS
 62
     7
 10
319.817709
 20
67.792142
 11
328.317709
 21
76.292142
  0
LINE
  8
CSLAYER1
  6
CONTINUOUS
 62
     7
 10
319.817709
 20
67.085035
 11
328.317709
 21
75.585035
  0
LINE
  8
CSLAYER1
  6
CONTINUOUS
 62
     7
 10
319.817709
 20
66.377929
 11
328.317709
 21
74.877929
  0
LINE
  8
CSLAYER1
  6
CONTINUOUS
 62
     7
 10
319.690363
 20
65.543476
 11
328.317709
 21
74.170822
  0
LINE
  8
CSLAYER1
  6
CONTINUOUS
 62
     7
 10
319.573044
 20
64.719050
 11
328.317709
 21
73.463715
  0
LINE
  8
CSLAYER1
  6
CONTINUOUS
 62
     7
 10
319.592205
 20
64.031104
 11
328.317709
 21
72.756608
  0
LINE
  8
CSLAYER1
  6
CONTINUOUS
 62
     7
 10
319.697054
 20
63.428846
 11
328.317709
 21
72.049502
  0
LINE
  8
CSLAYER1
  6
CONTINUOUS
 62
     7
 10
319.865506
 20
62.890191
 11
328.317709
 21
71.342395
  0
LINE
  8
CSLAYER1
  6
CONTINUOUS
 62
     7
 10
320.085917
 20
62.403496
 11
328.317709
 21
70.635288
  0
LINE
  8
CSLAYER1
  6
CONTINUOUS
 62
     7
 10
320.351644
 20
61.962116
 11
328.317709
 21
69.928181
  0
LINE
  8
CSLAYER1
  6
CONTINUOUS
 62
     7
 10
320.658921
 20
61.562286
 11
328.317709
 21
69.221074
  0
LINE
  8
CSLAYER1
  6
CONTINUOUS
 62
     7
 10
321.005935
 20
61.202193
 11
328.317709
 21
68.513968
  0
LINE
  8
CSLAYER1
  6
CONTINUOUS
 62
     7
 10
321.392436
 20
60.881587
 11
328.317709
 21
67.806861
  0
LINE
  8
CSLAYER1
  6
CONTINUOUS
 62
     7
 10
321.819695
 20
60.601740
 11
328.317709
 21
67.099754
  0
LINE
  8
CSLAYER1
  6
CONTINUOUS
 62
     7
 10
322.290760
 20
60.365698
 11
328.317709
 21
66.392647
  0
LINE
  8
CSLAYER1
  6
CONTINUOUS
 62
     7
 10
322.811163
 20
60.178994
 11
328.388715
 21
65.756546
  0
LINE
  8
CSLAYER1
  6
CONTINUOUS
 62
     7
 10
323.390521
 20
60.051246
 11
328.516464
 21
65.177188
  0
LINE
  8
CSLAYER1
  6
CONTINUOUS
 62
     7
 10
324.046433
 20
60.000051
 11
328.567659
 21
64.521277
  0
LINE
  8
CSLAYER1
  6
CONTINUOUS
 62
     7
 10
324.816170
 20
60.062680
 11
328.505029
 21
63.751540
  0
LINE
  8
CSLAYER1
  6
CONTINUOUS
 62
     7
 10
325.812707
 20
60.352111
 11
328.215598
 21
62.755002
  0
LINE
  8
CSLAYER1
  6
CONTINUOUS
 62
     7
 10
328.317709
 20
66.958283
 11
319.817709
 21
75.458283
  0
LINE
  8
CSLAYER1
  6
CONTINUOUS
 62
     7
 10
328.317709
 20
66.251176
 11
319.817709
 21
74.751176
  0
LINE
  8
CSLAYER1
  6
CONTINUOUS
 62
     7
 10
328.480589
 20
65.381190
 11
319.817709
 21
74.044070
  0
LINE
  8
CSLAYER1
  6
CONTINUOUS
 62
     7
 10
328.566852
 20
64.587820
 11
319.817709
 21
73.336963
  0
LINE
  8
CSLAYER1
  6
CONTINUOUS
 62
     7
 10
328.529874
 20
63.917691
 11
319.817709
 21
72.629856
  0
LINE
  8
CSLAYER1
  6
CONTINUOUS
 62
     7
 10
328.412420
 20
63.328039
 11
319.817709
 21
71.922749
  0
LINE
  8
CSLAYER1
  6
CONTINUOUS
 62
     7
 10
328.233985
 20
62.799367
 11
319.817709
 21
71.215642
  0
LINE
  8
CSLAYER1
  6
CONTINUOUS
 62
     7
 10
328.005063
 20
62.321182
 11
319.817709
 21
70.508536
  0
LINE
  8
CSLAYER1
  6
CONTINUOUS
 62
     7
 10
327.731676
 20
61.887463
 11
319.817709
 21
69.801429
  0
LINE
  8
CSLAYER1
  6
CONTINUOUS
 62
     7
 10
327.417190
 20
61.494841
 11
319.817709
 21
69.094322
  0
LINE
  8
CSLAYER1
  6
CONTINUOUS
 62
     7
 10
327.063123
 20
61.141802
 11
319.817709
 21
68.387215
  0
LINE
  8
CSLAYER1
  6
CONTINUOUS
 62
     7
 10
326.669455
 20
60.828363
 11
319.817709
 21
67.680109
  0
LINE
  8
CSLAYER1
  6
CONTINUOUS
 62
     7
 10
326.234627
 20
60.556085
 11
319.817709
 21
66.973002
  0
LINE
  8
CSLAYER1
  6
CONTINUOUS
 62
     7
 10
325.755214
 20
60.328390
 11
319.817709
 21
66.265895
  0
LINE
  8
CSLAYER1
  6
CONTINUOUS
 62
     7
 10
325.225109
 20
60.151388
 11
319.719098
 21
65.657400
  0
LINE
  8
CSLAYER1
  6
CONTINUOUS
 62
     7
 10
324.633660
 20
60.035731
 11
319.603440
 21
65.065951
  0
LINE
  8
CSLAYER1
  6
CONTINUOUS
 62
     7
 10
323.961019
 20
60.001265
 11
319.568974
 21
64.393310
  0
LINE
  8
CSLAYER1
  6
CONTINUOUS
 62
     7
 10
323.163371
 20
60.091807
 11
319.659516
 21
63.595662
  0
LINE
  8
CSLAYER1
  6
CONTINUOUS
 62
     7
 10
322.090356
 20
60.457715
 11
320.025424
 21
62.522647
  0
LINE
  8
CSLAYER1
  6
CONTINUOUS
 62
     7
 10
328.317709
 20
67.665390
 11
319.817709
 21
76.165390
  0
LINE
  8
CSLAYER1
  6
CONTINUOUS
 62
     7
 10
328.317709
 20
68.372497
 11
319.817709
 21
76.872497
  0
LINE
  8
CSLAYER1
  6
CONTINUOUS
 62
     7
 10
328.317709
 20
69.079603
 11
319.817709
 21
77.579603
  0
LINE
  8
CSLAYER1
  6
CONTINUOUS
 62
     7
 10
328.317709
 20
69.786710
 11
319.854419
 21
78.250000
  0
LINE
  8
CSLAYER1
  6
CONTINUOUS
 62
     7
 10
328.317709
 20
70.493817
 11
320.561526
 21
78.250000
  0
LINE
  8
CSLAYER1
  6
CONTINUOUS
 62
     7
 10
328.317709
 20
71.200924
 11
321.268633
 21
78.250000
  0
LINE
  8
CSLAYER1
  6
CONTINUOUS
 62
     7
 10
328.317709
 20
71.908031
 11
321.975740
 21
78.250000
  0
LINE
  8
CSLAYER1
  6
CONTINUOUS
 62
     7
 10
328.317709
 20
72.615137
 11
322.682847
 21
78.250000
  0
LINE
  8
CSLAYER1
  6
CONTINUOUS
 62
     7
 10
328.317709
 20
73.322244
 11
323.389953
 21
78.250000
  0
LINE
  8
CSLAYER1
  6
CONTINUOUS
 62
     7
 10
328.317709
 20
74.029351
 11
324.097060
 21
78.250000
  0
LINE
  8
CSLAYER1
  6
CONTINUOUS
 62
     7
 10
328.317709
 20
74.736458
 11
324.804167
 21
78.250000
  0
LINE
  8
CSLAYER1
  6
CONTINUOUS
 62
     7
 10
328.317709
 20
75.443565
 11
325.511274
 21
78.250000
  0
LINE
  8
CSLAYER1
  6
CONTINUOUS
 62
     7
 10
328.317709
 20
76.150671
 11
326.218381
 21
78.250000
  0
LINE
  8
CSLAYER1
  6
CONTINUOUS
 62
     7
 10
328.317709
 20
76.857778
 11
326.925487
 21
78.250000
  0
LINE
  8
CSLAYER1
  6
CONTINUOUS
 62
     7
 10
328.317709
 20
77.564885
 11
327.632594
 21
78.250000
  0
ENDBLK
  8
0
  0
BLOCK
  8
CSLAYER1
  2
BLKF0002
 70
   64
 10
0.0
 20
0.0
 30
0.0
  0
LINE
  8
CSLAYER1
  6
CONTINUOUS
 62
     5
 10
79.875002
 20
36.000000
 11
24.000002
 21
36.000000
  0
LINE
  8
CSLAYER1
  6
CONTINUOUS
 62
     5
 10
79.875002
 20
191.000000
 11
24.000002
 21
191.000000
  0
LINE
  8
CSLAYER1
  6
CONTINUOUS
 62
     5
 10
25.000002
 20
36.000000
 11
25.000002
 21
191.000000
  0
LINE
  8
CSLAYER1
  6
CONTINUOUS
 62
     5
 10
25.000002
 20
36.000000
 11
24.482364
 21
37.931852
  0
LINE
  8
CSLAYER1
  6
CONTINUOUS
 62
     5
 10
25.000002
 20
36.000000
 11
25.517640
 21
37.931852
  0
LINE
  8
CSLAYER1
  6
CONTINUOUS
 62
     5
 10
25.000002
 20
191.000000
 11
24.482364
 21
189.068149
  0
LINE
  8
CSLAYER1
  6
CONTINUOUS
 62
     5
 10
25.000002
 20
191.000000
 11
25.517640
 21
189.068149
  0
TEXT
  8
CSLAYER1
 62
     7
 10
24.000000
 20
109.000008
 40
4.000000
 41
0.843750
  1
620
 50
90.000000
 51
0.000000
  7
EASYDRAW_FONT
 72
     5
 11
24.000000
 21
118.000008
  0
ENDBLK
  8
0
  0
BLOCK
  8
CSLAYER1
  2
BLKF0003
 70
   64
 10
0.0
 20
0.0
 30
0.0
  0
LINE
  8
CSLAYER1
  6
CONTINUOUS
 62
     5
 10
46.250002
 20
59.688728
 11
46.250002
 21
20.000000
  0
LINE
  8
CSLAYER1
  6
CONTINUOUS
 62
     5
 10
136.250002
 20
32.000000
 11
136.250002
 21
20.000000
  0
LINE
  8
CSLAYER1
  6
CONTINUOUS
 62
     5
 10
46.250002
 20
21.000000
 11
136.250002
 21
21.000000
  0
LINE
  8
CSLAYER1
  6
CONTINUOUS
 62
     5
 10
46.250002
 20
21.000000
 11
48.181854
 21
21.517638
  0
LINE
  8
CSLAYER1
  6
CONTINUOUS
 62
     5
 10
46.250002
 20
21.000000
 11
48.181854
 21
20.482362
  0
LINE
  8
CSLAYER1
  6
CONTINUOUS
 62
     5
 10
136.250002
 20
21.000000
 11
134.318151
 21
21.517638
  0
LINE
  8
CSLAYER1
  6
CONTINUOUS
 62
     5
 10
136.250002
 20
21.000000
 11
134.318151
 21
20.482362
  0
TEXT
  8
CSLAYER1
 62
     7
 10
86.750000
 20
22.000000
 40
4.000000
 41
0.843750
  1
360
 50
0.000000
 51
0.000000
  7
EASYDRAW_FONT
 72
     5
 11
95.750000
 21
22.000000
  0
ENDBLK
  8
0
  0
BLOCK
  8
CSLAYER1
  2
BLKF0004
 70
   64
 10
0.0
 20
0.0
 30
0.0
  0
LINE
  8
CSLAYER1
  6
CONTINUOUS
 62
     5
 10
380.442709
 20
36.000000
 11
415.567709
 21
36.000000
  0
LINE
  8
CSLAYER1
  6
CONTINUOUS
 62
     5
 10
358.391262
 20
108.000000
 11
415.567709
 21
108.000000
  0
LINE
  8
CSLAYER1
  6
CONTINUOUS
 62
     5
 10
414.567709
 20
36.000000
 11
414.567709
 21
108.000000
  0
LINE
  8
CSLAYER1
  6
CONTINUOUS
 62
     5
 10
414.567709
 20
36.000000
 11
414.050071
 21
37.931852
  0
LINE
  8
CSLAYER1
  6
CONTINUOUS
 62
     5
 10
414.567709
 20
36.000000
 11
415.085348
 21
37.931852
  0
LINE
  8
CSLAYER1
  6
CONTINUOUS
 62
     5
 10
414.567709
 20
108.000000
 11
414.050071
 21
106.068149
  0
LINE
  8
CSLAYER1
  6
CONTINUOUS
 62
     5
 10
414.567709
 20
108.000000
 11
415.085348
 21
106.068149
  0
TEXT
  8
CSLAYER1
 62
     7
 10
413.567688
 20
67.500008
 40
4.000000
 41
0.843750
  1
288
 50
90.000000
 51
0.000000
  7
EASYDRAW_FONT
 72
     5
 11
413.567688
 21
76.500008
  0
ENDBLK
  8
0
  0
BLOCK
  8
CSLAYER1
  2
BLKF0005
 70
   64
 10
0.0
 20
0.0
 30
0.0
  0
LINE
  8
CSLAYER1
  6
CONTINUOUS
 62
     5
 10
380.442709
 20
191.000000
 11
415.567709
 21
191.000000
  0
LINE
  8
CSLAYER1
  6
CONTINUOUS
 62
     5
 10
414.567709
 20
108.000000
 11
414.567709
 21
191.000000
  0
LINE
  8
CSLAYER1
  6
CONTINUOUS
 62
     5
 10
414.567709
 20
108.000000
 11
414.050071
 21
109.931852
  0
LINE
  8
CSLAYER1
  6
CONTINUOUS
 62
     5
 10
414.567709
 20
108.000000
 11
415.085348
 21
109.931852
  0
LINE
  8
CSLAYER1
  6
CONTINUOUS
 62
     5
 10
414.567709
 20
191.000000
 11
414.050071
 21
189.068149
  0
LINE
  8
CSLAYER1
  6
CONTINUOUS
 62
     5
 10
414.567709
 20
191.000000
 11
415.085348
 21
189.068149
  0
TEXT
  8
CSLAYER1
 62
     7
 10
413.567688
 20
145.000000
 40
4.000000
 41
0.843750
  1
332
 50
90.000000
 51
0.000000
  7
EASYDRAW_FONT
 72
     5
 11
413.567688
 21
154.000000
  0
ENDBLK
  8
0
  0
ENDSEC
  0
SECTION
  2
ENTITIES
  0
LINE
  8
CSLAYER1
  6
CONTINUOUS
 62
     7
 10
94.500002
 20
46.222030
 11
94.500002
 21
72.250000
  0
LINE
  8
CSLAYER1
  6
CONTINUOUS
 62
     7
 10
79.000002
 20
84.750000
 11
79.000002
 21
94.828261
  0
LINE
  8
CSLAYER1
  6
CONTINUOUS
 62
     7
 10
76.750002
 20
80.250000
 11
72.750002
 21
80.250000
  0
LINE
  8
CSLAYER1
  6
CONTINUOUS
 62
     7
 10
92.000002
 20
58.250000
 11
79.250002
 21
58.250000
  0
LINE
  8
CSLAYER1
  6
CONTINUOUS
 62
     7
 10
93.000002
 20
70.750000
 11
79.250002
 21
70.750000
  0
LINE
  8
CSLAYER1
  6
CONTINUOUS
 62
     7
 10
77.250002
 20
64.500000
 11
77.250002
 21
79.750000
  0
ARC
  8
CSLAYER1
  6
CONTINUOUS
 62
     7
 10
79.250002
 20
56.250000
 40
2.000000
 50
90.000000
 51
180.000000
  0
ARC
  8
CSLAYER1
  6
CONTINUOUS
 62
     7
 10
79.250002
 20
72.750000
 40
2.000000
 50
180.000000
 51
270.000000
  0
ARC
  8
CSLAYER1
  6
CONTINUOUS
 62
     7
 10
92.000002
 20
55.750000
 40
2.500000
 50
0.000000
 51
90.000000
  0
ARC
  8
CSLAYER1
  6
CONTINUOUS
 62
     7
 10
76.750002
 20
79.750000
 40
0.500000
 50
0.000000
 51
90.000000
  0
ARC
  8
CSLAYER1
  6
CONTINUOUS
 62
     7
 10
92.500002
 20
46.222030
 40
2.000000
 50
270.806929
 51
360.000000
  0
ARC
  8
CSLAYER1
  6
CONTINUOUS
 62
     7
 10
89.000002
 20
84.750000
 40
10.000000
 50
180.000000
 51
224.427004
  0
LINE
  8
CSLAYER1
  6
CONTINUOUS
 62
     7
 10
89.000002
 20
74.750000
 11
136.250002
 21
74.750000
  0
LINE
  8
CSLAYER1
  6
CONTINUOUS
 62
     7
 10
94.500002
 20
72.250000
 11
94.500002
 21
73.250000
  0
ARC
  8
CSLAYER1
  6
CONTINUOUS
 62
     7
 10
93.000002
 20
73.250000
 40
1.500000
 50
0.000000
 51
90.000000
  0
ARC
  8
CSLAYER1
  6
CONTINUOUS
 62
     7
 10
93.000002
 20
72.250000
 40
1.500000
 50
270.000000
 51
360.000000
  0
LINE
  8
CSLAYER1
  6
CONTINUOUS
 62
     7
 10
83.000002
 20
70.750000
 11
83.000002
 21
76.750000
  0
LINE
  8
CSLAYER1
  6
CONTINUOUS
 62
     7
 10
65.750002
 20
100.230435
 11
66.302176
 21
99.678261
  0
LINE
  8
CSLAYER1
  6
CENTER
 62
     2
 10
86.250002
 20
33.000000
 11
86.250002
 21
47.061721
  0
LINE
  8
CSLAYER1
  6
CONTINUOUS
 62
     7
 10
65.750002
 20
100.230435
 11
65.750002
 21
107.250000
  0
LINE
  8
CSLAYER1
  6
CONTINUOUS
 62
     7
 10
65.750002
 20
107.250000
 11
66.000002
 21
107.500000
  0
LINE
  8
CSLAYER1
  6
CONTINUOUS
 62
     7
 10
66.000002
 20
107.500000
 11
136.250002
 21
107.500000
  0
LINE
  8
CSLAYER1
  6
CONTINUOUS
 62
     7
 10
80.875002
 20
36.000000
 11
136.250002
 21
36.000000
  0
LINE
  8
CSLAYER1
  6
CONTINUOUS
 62
     7
 10
80.625002
 20
36.250000
 11
80.625002
 21
43.554578
  0
LINE
  8
CSLAYER1
  6
CONTINUOUS
 62
     7
 10
80.625002
 20
36.250000
 11
80.875002
 21
36.000000
  0
LINE
  8
CSLAYER1
  6
CONTINUOUS
 62
     7
 10
80.625002
 20
43.554578
 11
81.132145
 21
44.061721
  0
LINE
  8
CSLAYER1
  6
CONTINUOUS
 62
     7
 10
72.500002
 20
67.625000
 11
72.500002
 21
80.000000
  0
LINE
  8
CSLAYER1
  6
CONTINUOUS
 62
     7
 10
72.750002
 20
80.250000
 11
72.500002
 21
80.000000
  0
LINE
  8
CSLAYER1
  6
CONTINUOUS
 62
     5
 10
72.500002
 20
61.375000
 11
72.500002
 21
67.625000
  0
LINE
  8
CSLAYER1
  6
CENTER
 62
     2
 10
136.250002
 20
194.000000
 11
136.250002
 21
33.000000
  0
LINE
  8
CSLAYER1
  6
CONTINUOUS
 62
     7
 10
79.000002
 20
153.750000
 11
79.000002
 21
125.000000
  0
ARC
  8
CSLAYER1
  6
CONTINUOUS
 62
     7
 10
89.000002
 20
153.750000
 40
10.000000
 50
90.000000
 51
180.000000
  0
LINE
  8
CSLAYER1
  6
CONTINUOUS
 62
     7
 10
72.000002
 20
133.750000
 11
72.000002
 21
119.244397
  0
LINE
  8
CSLAYER1
  6
CONTINUOUS
 62
     7
 10
76.500002
 20
127.500000
 11
74.000002
 21
127.500000
  0
LINE
  8
CSLAYER1
  6
CONTINUOUS
 62
     7
 10
71.500002
 20
149.500000
 11
67.250002
 21
149.500000
  0
LINE
  8
CSLAYER1
  6
CONTINUOUS
 62
     7
 10
72.000002
 20
133.750000
 11
72.000002
 21
149.000000
  0
LINE
  8
CSLAYER1
  6
CONTINUOUS
 62
     7
 10
76.500002
 20
140.000000
 11
74.000002
 21
140.000000
  0
LINE
  8
CSLAYER1
  6
CONTINUOUS
 62
     7
 10
79.000002
 20
125.000000
 11
79.000002
 21
119.298276
  0
ARC
  8
CSLAYER1
  6
CONTINUOUS
 62
     7
 10
76.500002
 20
142.500000
 40
2.500000
 50
270.000000
 51
360.000000
  0
ARC
  8
CSLAYER1
  6
CONTINUOUS
 62
     7
 10
76.500002
 20
125.000000
 40
2.500000
 50
0.000000
 51
90.000000
  0
ARC
  8
CSLAYER1
  6
CONTINUOUS
 62
     7
 10
74.000002
 20
142.000000
 40
2.000000
 50
180.000000
 51
270.000000
  0
ARC
  8
CSLAYER1
  6
CONTINUOUS
 62
     7
 10
74.000002
 20
125.500000
 40
2.000000
 50
90.000000
 51
180.000000
  0
ARC
  8
CSLAYER1
  6
CONTINUOUS
 62
     7
 10
71.500002
 20
149.000000
 40
0.500000
 50
0.000000
 51
90.000000
  0
LINE
  8
CSLAYER1
  6
CONTINUOUS
 62
     7
 10
136.250002
 20
163.750000
 11
89.000002
 21
163.750000
  0
LINE
  8
CSLAYER1
  6
CONTINUOUS
 62
     7
 10
93.000002
 20
180.781006
 11
93.000002
 21
166.250000
  0
LINE
  8
CSLAYER1
  6
CONTINUOUS
 62
     7
 10
81.132939
 20
182.935423
 11
91.031249
 21
182.780762
  0
ARC
  8
CSLAYER1
  6
CONTINUOUS
 62
     7
 10
90.500002
 20
166.250000
 40
2.500000
 50
270.000000
 51
360.000000
  0
ARC
  8
CSLAYER1
  6
CONTINUOUS
 62
     7
 10
91.000002
 20
180.781006
 40
2.000000
 50
0.000000
 51
89.104826
  0
LINE
  8
CSLAYER1
  6
CONTINUOUS
 62
     7
 10
65.750002
 20
115.021552
 11
66.301726
 21
115.573276
  0
LINE
  8
CSLAYER1
  6
CONTINUOUS
 62
     7
 10
65.750002
 20
115.021552
 11
65.750002
 21
108.250000
  0
LINE
  8
CSLAYER1
  6
CONTINUOUS
 62
     7
 10
65.750002
 20
108.250000
 11
66.000002
 21
108.000000
  0
LINE
  8
CSLAYER1
  6
CONTINUOUS
 62
     7
 10
66.000002
 20
108.000000
 11
136.250002
 21
108.000000
  0
LINE
  8
CSLAYER1
  6
CONTINUOUS
 62
     7
 10
80.875002
 20
191.000000
 11
136.250002
 21
191.000000
  0
LINE
  8
CSLAYER1
  6
CONTINUOUS
 62
     7
 10
80.625002
 20
190.750000
 11
80.625002
 21
183.443360
  0
LINE
  8
CSLAYER1
  6
CONTINUOUS
 62
     7
 10
80.625002
 20
183.443360
 11
81.132939
 21
182.935423
  0
LINE
  8
CSLAYER1
  6
CONTINUOUS
 62
     7
 10
80.625002
 20
190.750000
 11
80.875002
 21
191.000000
  0
LINE
  8
CSLAYER1
  6
CONTINUOUS
 62
     7
 10
67.000002
 20
149.250000
 11
67.000002
 21
145.000000
  0
LINE
  8
CSLAYER1
  6
CONTINUOUS
 62
     7
 10
67.000002
 20
130.375000
 11
67.000002
 21
118.886600
  0
LINE
  8
CSLAYER1
  6
CONTINUOUS
 62
     7
 10
67.250002
 20
149.500000
 11
67.000002
 21
149.250000
  0
LINE
  8
CSLAYER1
  6
CENTER
 62
     2
 10
86.250002
 20
194.000000
 11
86.250002
 21
179.780762
  0
LINE
  8
CSLAYER1
  6
CONTINUOUS
 62
     7
 10
67.000002
 20
137.125000
 11
67.000002
 21
130.375000
  0
LINE
  8
CSLAYER1
  6
CONTINUOUS
 62
     7
 10
178.000002
 20
46.222030
 11
178.000002
 21
73.250000
  0
LINE
  8
CSLAYER1
  6
CONTINUOUS
 62
     7
 10
193.500002
 20
84.750000
 11
193.500002
 21
94.828261
  0
LINE
  8
CSLAYER1
  6
CONTINUOUS
 62
     7
 10
206.241153
 20
99.721585
 11
203.750002
 21
99.678261
  0
ARC
  8
CSLAYER1
  6
CONTINUOUS
 62
     7
 10
180.000002
 20
46.222030
 40
2.000000
 50
180.000000
 51
269.193071
  0
ARC
  8
CSLAYER1
  6
CONTINUOUS
 62
     7
 10
183.500002
 20
84.750000
 40
10.000000
 50
270.000000
 51
360.000000
  0
LINE
  8
CSLAYER1
  6
CONTINUOUS
 62
     7
 10
136.250002
 20
74.750000
 11
183.500002
 21
74.750000
  0
ARC
  8
CSLAYER1
  6
CONTINUOUS
 62
     7
 10
179.500002
 20
73.250000
 40
1.500000
 50
90.000000
 51
180.000000
  0
LINE
  8
CSLAYER1
  6
CONTINUOUS
 62
     7
 10
206.750002
 20
100.230435
 11
206.241153
 21
99.721585
  0
LINE
  8
CSLAYER1
  6
CENTER
 62
     2
 10
186.250002
 20
33.000000
 11
186.250002
 21
47.061721
  0
LINE
  8
CSLAYER1
  6
CONTINUOUS
 62
     7
 10
206.750002
 20
100.230435
 11
206.750002
 21
107.250000
  0
LINE
  8
CSLAYER1
  6
CONTINUOUS
 62
     7
 10
206.750002
 20
107.250000
 11
206.500002
 21
107.500000
  0
LINE
  8
CSLAYER1
  6
CONTINUOUS
 62
     7
 10
206.500002
 20
107.500000
 11
200.625002
 21
107.500000
  0
LINE
  8
CSLAYER1
  6
CONTINUOUS
 62
     7
 10
191.625002
 20
36.000000
 11
136.250002
 21
36.000000
  0
LINE
  8
CSLAYER1
  6
CONTINUOUS
 62
     7
 10
191.875002
 20
36.250000
 11
191.875002
 21
43.554578
  0
LINE
  8
CSLAYER1
  6
CONTINUOUS
 62
     7
 10
191.875002
 20
36.250000
 11
191.625002
 21
36.000000
  0
LINE
  8
CSLAYER1
  6
CONTINUOUS
 62
     7
 10
191.875002
 20
43.554578
 11
191.367859
 21
44.061721
  0
ARC
  8
CSLAYER1
  6
CONTINUOUS
 62
     7
 10
183.500002
 20
153.750000
 40
10.000000
 50
0.000000
 51
90.000000
  0
LINE
  8
CSLAYER1
  6
CONTINUOUS
 62
     7
 10
193.500002
 20
153.750000
 11
193.500002
 21
119.298276
  0
LINE
  8
CSLAYER1
  6
CONTINUOUS
 62
     3
 10
183.500002
 20
163.750000
 11
182.000002
 21
163.750000
  0
LINE
  8
CSLAYER1
  6
CONTINUOUS
 62
     7
 10
179.500002
 20
180.781006
 11
179.500002
 21
166.250000
  0
LINE
  8
CSLAYER1
  6
CONTINUOUS
 62
     7
 10
191.367066
 20
182.935423
 11
181.468756
 21
182.780762
  0
ARC
  8
CSLAYER1
  6
CONTINUOUS
 62
     7
 10
182.000002
 20
166.250000
 40
2.500000
 50
180.000000
 51
270.000000
  0
ARC
  8
CSLAYER1
  6
CONTINUOUS
 62
     7
 10
181.500002
 20
180.781006
 40
2.000000
 50
90.895174
 51
180.000000
  0
LINE
  8
CSLAYER1
  6
CONTINUOUS
 62
     7
 10
206.750002
 20
115.021552
 11
206.198278
 21
115.573276
  0
LINE
  8
CSLAYER1
  6
CONTINUOUS
 62
     7
 10
206.750002
 20
115.021552
 11
206.750002
 21
108.250000
  0
LINE
  8
CSLAYER1
  6
CONTINUOUS
 62
     7
 10
206.750002
 20
108.250000
 11
206.500002
 21
108.000000
  0
LINE
  8
CSLAYER1
  6
CONTINUOUS
 62
     7
 10
206.500002
 20
108.000000
 11
200.625002
 21
108.000000
  0
LINE
  8
CSLAYER1
  6
CONTINUOUS
 62
     7
 10
191.625002
 20
191.000000
 11
136.250002
 21
191.000000
  0
LINE
  8
CSLAYER1
  6
CONTINUOUS
 62
     7
 10
191.875002
 20
190.750000
 11
191.875002
 21
183.443360
  0
LINE
  8
CSLAYER1
  6
CONTINUOUS
 62
     7
 10
191.875002
 20
183.443360
 11
191.367066
 21
182.935423
  0
LINE
  8
CSLAYER1
  6
CONTINUOUS
 62
     7
 10
191.875002
 20
190.750000
 11
191.625002
 21
191.000000
  0
LINE
  8
CSLAYER1
  6
CENTER
 62
     2
 10
186.250002
 20
194.000000
 11
186.250002
 21
179.780762
  0
LINE
  8
CSLAYER1
  6
CONTINUOUS
 62
     7
 10
200.625002
 20
107.500000
 11
136.250002
 21
107.500000
  0
LINE
  8
CSLAYER1
  6
CONTINUOUS
 62
     7
 10
136.250002
 20
108.000000
 11
200.625002
 21
108.000000
  0
LINE
  8
CSLAYER1
  6
CONTINUOUS
 62
     7
 10
205.532480
 20
99.678261
 11
200.625002
 21
99.678261
  0
LINE
  8
CSLAYER1
  6
CONTINUOUS
 62
     7
 10
204.875002
 20
94.828261
 11
200.625002
 21
94.828261
  0
LINE
  8
CSLAYER1
  6
CONTINUOUS
 62
     7
 10
205.532480
 20
95.207856
 11
205.532480
 21
99.678261
  0
LINE
  8
CSLAYER1
  6
CONTINUOUS
 62
     7
 10
203.078741
 20
99.678261
 11
203.078741
 21
95.207856
  0
LINE
  8
CSLAYER1
  6
CONTINUOUS
 62
     7
 10
204.875002
 20
94.828261
 11
205.532480
 21
95.207856
  0
ARC
  8
CSLAYER1
  6
CONTINUOUS
 62
     7
 10
204.305610
 20
97.000710
 40
2.172449
 50
235.615753
 51
304.384247
  0
ARC
  8
CSLAYER1
  6
CONTINUOUS
 62
     7
 10
200.625002
 20
102.948666
 40
8.120405
 50
270.000000
 51
287.587954
  0
LINE
  8
CSLAYER1
  6
CONTINUOUS
 62
     7
 10
136.250002
 20
99.678261
 11
200.625002
 21
99.678261
  0
LINE
  8
CSLAYER1
  6
CONTINUOUS
 62
     7
 10
196.375002
 20
94.828261
 11
200.625002
 21
94.828261
  0
LINE
  8
CSLAYER1
  6
CONTINUOUS
 62
     7
 10
195.717525
 20
95.207856
 11
195.717525
 21
99.678261
  0
LINE
  8
CSLAYER1
  6
CONTINUOUS
 62
     7
 10
198.171264
 20
99.678261
 11
198.171264
 21
95.207856
  0
LINE
  8
CSLAYER1
  6
CONTINUOUS
 62
     7
 10
196.375002
 20
94.828261
 11
195.717525
 21
95.207856
  0
ARC
  8
CSLAYER1
  6
CONTINUOUS
 62
     7
 10
196.944394
 20
97.000710
 40
2.172449
 50
235.615753
 51
304.384247
  0
ARC
  8
CSLAYER1
  6
CONTINUOUS
 62
     7
 10
200.625002
 20
102.948666
 40
8.120405
 50
252.412046
 51
270.000000
  0
LINE
  8
CSLAYER1
  6
CONTINUOUS
 62
     7
 10
206.198278
 20
115.573276
 11
200.625002
 21
115.573276
  0
LINE
  8
CSLAYER1
  6
CONTINUOUS
 62
     7
 10
204.875002
 20
119.298276
 11
200.625002
 21
119.298276
  0
LINE
  8
CSLAYER1
  6
CONTINUOUS
 62
     7
 10
205.532480
 20
118.918681
 11
205.532480
 21
115.573276
  0
LINE
  8
CSLAYER1
  6
CONTINUOUS
 62
     7
 10
203.078741
 20
115.573276
 11
203.078741
 21
118.918681
  0
LINE
  8
CSLAYER1
  6
CONTINUOUS
 62
     7
 10
204.875002
 20
119.298276
 11
205.532480
 21
118.918681
  0
ARC
  8
CSLAYER1
  6
CONTINUOUS
 62
     7
 10
204.305610
 20
117.125827
 40
2.172449
 50
55.615753
 51
124.384247
  0
ARC
  8
CSLAYER1
  6
CONTINUOUS
 62
     7
 10
200.625002
 20
111.177871
 40
8.120405
 50
72.412046
 51
90.000000
  0
LINE
  8
CSLAYER1
  6
CONTINUOUS
 62
     7
 10
203.078741
 20
115.573276
 11
136.250002
 21
115.573276
  0
LINE
  8
CSLAYER1
  6
CONTINUOUS
 62
     7
 10
196.375002
 20
119.298276
 11
200.625002
 21
119.298276
  0
LINE
  8
CSLAYER1
  6
CONTINUOUS
 62
     7
 10
195.717525
 20
118.918681
 11
195.717525
 21
115.573276
  0
LINE
  8
CSLAYER1
  6
CONTINUOUS
 62
     7
 10
198.171264
 20
115.573276
 11
198.171264
 21
118.918681
  0
LINE
  8
CSLAYER1
  6
CONTINUOUS
 62
     7
 10
196.375002
 20
119.298276
 11
195.717525
 21
118.918681
  0
ARC
  8
CSLAYER1
  6
CONTINUOUS
 62
     7
 10
196.944394
 20
117.125827
 40
2.172449
 50
55.615753
 51
124.384247
  0
ARC
  8
CSLAYER1
  6
CONTINUOUS
 62
     7
 10
200.625002
 20
111.177871
 40
8.120405
 50
90.000000
 51
107.587954
  0
LINE
  8
CSLAYER1
  6
CONTINUOUS
 62
     7
 10
203.375002
 20
93.448276
 11
203.375002
 21
94.828261
  0
LINE
  8
CSLAYER1
  6
CONTINUOUS
 62
     7
 10
197.875002
 20
93.448276
 11
197.875002
 21
94.828261
  0
LINE
  8
CSLAYER1
  6
CONTINUOUS
 62
     7
 10
203.000002
 20
93.073276
 11
198.250002
 21
93.073276
  0
LINE
  8
CSLAYER1
  6
CONTINUOUS
 62
     7
 10
203.375002
 20
93.448276
 11
203.000002
 21
93.073276
  0
LINE
  8
CSLAYER1
  6
CONTINUOUS
 62
     7
 10
197.875002
 20
93.448276
 11
198.250002
 21
93.073276
  0
LINE
  8
CSLAYER1
  6
CONTINUOUS
 62
     7
 10
203.375002
 20
93.448276
 11
197.875002
 21
93.448276
  0
LINE
  8
CSLAYER1
  6
CONTINUOUS
 62
     7
 10
203.062502
 20
94.828261
 11
203.062502
 21
93.135776
  0
LINE
  8
CSLAYER1
  6
CONTINUOUS
 62
     7
 10
198.187502
 20
94.828261
 11
198.187502
 21
93.135776
  0
LINE
  8
CSLAYER1
  6
CONTINUOUS
 62
     7
 10
53.788030
 20
87.250000
 11
46.250002
 21
87.250000
  0
LINE
  8
CSLAYER1
  6
CONTINUOUS
 62
     7
 10
53.138511
 20
82.250000
 11
46.250002
 21
82.250000
  0
LINE
  8
CSLAYER1
  6
CONTINUOUS
 62
     7
 10
54.004536
 20
87.125000
 11
54.004536
 21
82.750000
  0
LINE
  8
CSLAYER1
  6
CONTINUOUS
 62
     7
 10
52.523552
 20
87.125000
 11
52.523552
 21
82.750000
  0
LINE
  8
CSLAYER1
  6
CONTINUOUS
 62
     7
 10
48.646285
 20
87.125000
 11
48.646285
 21
82.750000
  0
ARC
  8
CSLAYER1
  6
CONTINUOUS
 62
     7
 10
53.264044
 20
83.721657
 40
1.221657
 50
232.689265
 51
307.310735
  0
ARC
  8
CSLAYER1
  6
CONTINUOUS
 62
     7
 10
50.584919
 20
90.141600
 40
7.641600
 50
255.303745
 51
284.696255
  0
ARC
  8
CSLAYER1
  6
CONTINUOUS
 62
     7
 10
46.250002
 20
94.109342
 40
11.609342
 50
270.000000
 51
281.912044
  0
LINE
  8
CSLAYER1
  6
CONTINUOUS
 62
     7
 10
54.004536
 20
82.750000
 11
53.138511
 21
82.250000
  0
ARC
  8
CSLAYER1
  6
CONTINUOUS
 62
     7
 10
53.264044
 20
84.994186
 40
2.255814
 50
70.836841
 51
109.163159
  0
ARC
  8
CSLAYER1
  6
CONTINUOUS
 62
     7
 10
50.584919
 20
72.154301
 40
15.095699
 50
82.621533
 51
97.378467
  0
ARC
  8
CSLAYER1
  6
CONTINUOUS
 62
     7
 10
46.250002
 20
64.218816
 40
23.031184
 50
84.027844
 51
90.000000
  0
LINE
  8
CSLAYER1
  6
CONTINUOUS
 62
     7
 10
54.004536
 20
87.125000
 11
53.788030
 21
87.250000
  0
LINE
  8
CSLAYER1
  6
CONTINUOUS
 62
     7
 10
38.711975
 20
87.250000
 11
46.250002
 21
87.250000
  0
LINE
  8
CSLAYER1
  6
CONTINUOUS
 62
     7
 10
39.361494
 20
82.250000
 11
46.250002
 21
82.250000
  0
LINE
  8
CSLAYER1
  6
CONTINUOUS
 62
     7
 10
38.495468
 20
87.125000
 11
38.495468
 21
82.750000
  0
LINE
  8
CSLAYER1
  6
CONTINUOUS
 62
     7
 10
39.976453
 20
87.125000
 11
39.976453
 21
82.750000
  0
LINE
  8
CSLAYER1
  6
CONTINUOUS
 62
     7
 10
43.853720
 20
87.125000
 11
43.853720
 21
82.750000
  0
ARC
  8
CSLAYER1
  6
CONTINUOUS
 62
     7
 10
39.235961
 20
83.721657
 40
1.221657
 50
232.689265
 51
307.310735
  0
ARC
  8
CSLAYER1
  6
CONTINUOUS
 62
     7
 10
41.915086
 20
90.141600
 40
7.641600
 50
255.303745
 51
284.696255
  0
ARC
  8
CSLAYER1
  6
CONTINUOUS
 62
     7
 10
46.250002
 20
94.109342
 40
11.609342
 50
258.087956
 51
270.000000
  0
LINE
  8
CSLAYER1
  6
CONTINUOUS
 62
     7
 10
38.495468
 20
82.750000
 11
39.361494
 21
82.250000
  0
ARC
  8
CSLAYER1
  6
CONTINUOUS
 62
     7
 10
39.235961
 20
84.994186
 40
2.255814
 50
70.836841
 51
109.163159
  0
ARC
  8
CSLAYER1
  6
CONTINUOUS
 62
     7
 10
41.915086
 20
72.154301
 40
15.095699
 50
82.621533
 51
97.378467
  0
ARC
  8
CSLAYER1
  6
CONTINUOUS
 62
     7
 10
46.250002
 20
64.218816
 40
23.031184
 50
90.000000
 51
95.972156
  0
LINE
  8
CSLAYER1
  6
CONTINUOUS
 62
     7
 10
38.495468
 20
87.125000
 11
38.711975
 21
87.250000
  0
LINE
  8
CSLAYER1
  6
CONTINUOUS
 62
     7
 10
51.375002
 20
91.750000
 11
46.250002
 21
91.750000
  0
LINE
  8
CSLAYER1
  6
CONTINUOUS
 62
     7
 10
51.638746
 20
91.597728
 11
51.638746
 21
88.318363
  0
LINE
  8
CSLAYER1
  6
CONTINUOUS
 62
     7
 10
50.609588
 20
91.597728
 11
50.609588
 21
87.750000
  0
LINE
  8
CSLAYER1
  6
CONTINUOUS
 62
     7
 10
47.915216
 20
91.597728
 11
47.915216
 21
87.750000
  0
LINE
  8
CSLAYER1
  6
CONTINUOUS
 62
     7
 10
51.375002
 20
91.750000
 11
51.638746
 21
91.597728
  0
ARC
  8
CSLAYER1
  6
CONTINUOUS
 62
     7
 10
51.124167
 20
90.354325
 40
1.345676
 50
67.517902
 51
112.482098
  0
ARC
  8
CSLAYER1
  6
CONTINUOUS
 62
     7
 10
49.262402
 20
82.775960
 40
8.924040
 50
81.317352
 51
98.682648
  0
ARC
  8
CSLAYER1
  6
CONTINUOUS
 62
     7
 10
46.250002
 20
78.092273
 40
13.607727
 50
82.970946
 51
90.000000
  0
LINE
  8
CSLAYER1
  6
CONTINUOUS
 62
     7
 10
52.500002
 20
87.250000
 11
51.785193
 21
87.964810
  0
ARC
  8
CSLAYER1
  6
CONTINUOUS
 62
     7
 10
52.138746
 20
88.318363
 40
0.500000
 50
180.000000
 51
225.000000
  0
ARC
  8
CSLAYER1
  6
CONTINUOUS
 62
     7
 10
51.304795
 20
89.490247
 40
1.873972
 50
248.223896
 51
291.776104
  0
ARC
  8
CSLAYER1
  6
CONTINUOUS
 62
     7
 10
49.262402
 20
94.947140
 40
7.322140
 50
259.397863
 51
280.602137
  0
ARC
  8
CSLAYER1
  6
CONTINUOUS
 62
     7
 10
46.250002
 20
98.779243
 40
11.154243
 50
270.000000
 51
278.585765
  0
LINE
  8
CSLAYER1
  6
CONTINUOUS
 62
     7
 10
41.125002
 20
91.750000
 11
46.250002
 21
91.750000
  0
LINE
  8
CSLAYER1
  6
CONTINUOUS
 62
     7
 10
40.861258
 20
91.597728
 11
40.861258
 21
88.318363
  0
LINE
  8
CSLAYER1
  6
CONTINUOUS
 62
     7
 10
41.890417
 20
91.597728
 11
41.890417
 21
87.750000
  0
LINE
  8
CSLAYER1
  6
CONTINUOUS
 62
     7
 10
44.584789
 20
91.597728
 11
44.584789
 21
87.750000
  0
LINE
  8
CSLAYER1
  6
CONTINUOUS
 62
     7
 10
41.125002
 20
91.750000
 11
40.861258
 21
91.597728
  0
ARC
  8
CSLAYER1
  6
CONTINUOUS
 62
     7
 10
41.375838
 20
90.354325
 40
1.345676
 50
67.517902
 51
112.482098
  0
ARC
  8
CSLAYER1
  6
CONTINUOUS
 62
     7
 10
43.237603
 20
82.775960
 40
8.924040
 50
81.317352
 51
98.682648
  0
ARC
  8
CSLAYER1
  6
CONTINUOUS
 62
     7
 10
46.250002
 20
78.092273
 40
13.607727
 50
90.000000
 51
97.029054
  0
LINE
  8
CSLAYER1
  6
CONTINUOUS
 62
     7
 10
40.000002
 20
87.250000
 11
46.250002
 21
87.250000
  0
LINE
  8
CSLAYER1
  6
CONTINUOUS
 62
     7
 10
40.000002
 20
87.250000
 11
40.714812
 21
87.964810
  0
ARC
  8
CSLAYER1
  6
CONTINUOUS
 62
     7
 10
40.361258
 20
88.318363
 40
0.500000
 50
315.000000
 51
360.000000
  0
ARC
  8
CSLAYER1
  6
CONTINUOUS
 62
     7
 10
41.195210
 20
89.490247
 40
1.873972
 50
248.223896
 51
291.776104
  0
ARC
  8
CSLAYER1
  6
CONTINUOUS
 62
     7
 10
43.237603
 20
94.947140
 40
7.322140
 50
259.397863
 51
280.602137
  0
ARC
  8
CSLAYER1
  6
CONTINUOUS
 62
     7
 10
46.250002
 20
98.779243
 40
11.154243
 50
261.414235
 51
270.000000
  0
LINE
  8
CSLAYER1
  6
CONTINUOUS
 62
     7
 10
51.375002
 20
78.250000
 11
46.250002
 21
78.250000
  0
LINE
  8
CSLAYER1
  6
CONTINUOUS
 62
     7
 10
51.638746
 20
78.402273
 11
51.638746
 21
81.181637
  0
LINE
  8
CSLAYER1
  6
CONTINUOUS
 62
     7
 10
50.609588
 20
78.402273
 11
50.609588
 21
81.750000
  0
LINE
  8
CSLAYER1
  6
CONTINUOUS
 62
     7
 10
47.915216
 20
78.402273
 11
47.915216
 21
81.750000
  0
LINE
  8
CSLAYER1
  6
CONTINUOUS
 62
     7
 10
51.375002
 20
78.250000
 11
51.638746
 21
78.402273
  0
ARC
  8
CSLAYER1
  6
CONTINUOUS
 62
     7
 10
51.124167
 20
79.645676
 40
1.345676
 50
247.517902
 51
292.482098
  0
ARC
  8
CSLAYER1
  6
CONTINUOUS
 62
     7
 10
49.262402
 20
87.224040
 40
8.924040
 50
261.317352
 51
278.682648
  0
ARC
  8
CSLAYER1
  6
CONTINUOUS
 62
     7
 10
46.250002
 20
91.907727
 40
13.607727
 50
270.000000
 51
277.029054
  0
ARC
  8
CSLAYER1
  6
CONTINUOUS
 62
     7
 10
52.138746
 20
81.181637
 40
0.500000
 50
135.000000
 51
180.000000
  0
ARC
  8
CSLAYER1
  6
CONTINUOUS
 62
     7
 10
51.304795
 20
80.009753
 40
1.873972
 50
68.223896
 51
111.776104
  0
ARC
  8
CSLAYER1
  6
CONTINUOUS
 62
     7
 10
49.262402
 20
74.552860
 40
7.322140
 50
79.397863
 51
100.602137
  0
ARC
  8
CSLAYER1
  6
CONTINUOUS
 62
     7
 10
46.250002
 20
70.720757
 40
11.154243
 50
81.414235
 51
90.000000
  0
LINE
  8
CSLAYER1
  6
CONTINUOUS
 62
     7
 10
41.125002
 20
78.250000
 11
46.250002
 21
78.250000
  0
LINE
  8
CSLAYER1
  6
CONTINUOUS
 62
     7
 10
40.861258
 20
78.402273
 11
40.861258
 21
81.181637
  0
LINE
  8
CSLAYER1
  6
CONTINUOUS
 62
     7
 10
41.890417
 20
78.402273
 11
41.890417
 21
81.750000
  0
LINE
  8
CSLAYER1
  6
CONTINUOUS
 62
     7
 10
44.584789
 20
78.402273
 11
44.584789
 21
81.750000
  0
LINE
  8
CSLAYER1
  6
CONTINUOUS
 62
     7
 10
41.125002
 20
78.250000
 11
40.861258
 21
78.402273
  0
ARC
  8
CSLAYER1
  6
CONTINUOUS
 62
     7
 10
41.375838
 20
79.645676
 40
1.345676
 50
247.517902
 51
292.482098
  0
ARC
  8
CSLAYER1
  6
CONTINUOUS
 62
     7
 10
43.237603
 20
87.224040
 40
8.924040
 50
261.317352
 51
278.682648
  0
ARC
  8
CSLAYER1
  6
CONTINUOUS
 62
     7
 10
46.250002
 20
91.907727
 40
13.607727
 50
262.970946
 51
270.000000
  0
ARC
  8
CSLAYER1
  6
CONTINUOUS
 62
     7
 10
40.361258
 20
81.181637
 40
0.500000
 50
0.000000
 51
45.000000
  0
ARC
  8
CSLAYER1
  6
CONTINUOUS
 62
     7
 10
41.195210
 20
80.009753
 40
1.873972
 50
68.223896
 51
111.776104
  0
ARC
  8
CSLAYER1
  6
CONTINUOUS
 62
     7
 10
43.237603
 20
74.552860
 40
7.322140
 50
79.397863
 51
100.602137
  0
ARC
  8
CSLAYER1
  6
CONTINUOUS
 62
     7
 10
46.250002
 20
70.720757
 40
11.154243
 50
90.000000
 51
98.585765
  0
LINE
  8
CSLAYER1
  6
CONTINUOUS
 62
     7
 10
52.000002
 20
81.750000
 11
51.785193
 21
81.535191
  0
LINE
  8
CSLAYER1
  6
CONTINUOUS
 62
     7
 10
52.000002
 20
81.750000
 11
52.000002
 21
82.250000
  0
LINE
  8
CSLAYER1
  6
CONTINUOUS
 62
     7
 10
40.500002
 20
81.750000
 11
40.714812
 21
81.535191
  0
LINE
  8
CSLAYER1
  6
CONTINUOUS
 62
     7
 10
40.500002
 20
81.750000
 11
40.500002
 21
82.250000
  0
LINE
  8
CSLAYER1
  6
CONTINUOUS
 62
     7
 10
50.500002
 20
78.250000
 11
50.500002
 21
75.000000
  0
LINE
  8
CSLAYER1
  6
CONTINUOUS
 62
     7
 10
42.000002
 20
78.250000
 11
42.000002
 21
75.000000
  0
LINE
  8
CSLAYER1
  6
CONTINUOUS
 62
     7
 10
72.000002
 20
73.062500
 11
72.000002
 21
64.500000
  0
LINE
  8
CSLAYER1
  6
CONTINUOUS
 62
     7
 10
71.250002
 20
73.062500
 11
71.250002
 21
64.500000
  0
LINE
  8
CSLAYER1
  6
CONTINUOUS
 62
     7
 10
65.250002
 20
69.700000
 11
65.250002
 21
67.794449
  0
LINE
  8
CSLAYER1
  6
CONTINUOUS
 62
     7
 10
71.375002
 20
73.187500
 11
71.875002
 21
73.187500
  0
LINE
  8
CSLAYER1
  6
CONTINUOUS
 62
     7
 10
65.300002
 20
69.750000
 11
67.625002
 21
69.750000
  0
LINE
  8
CSLAYER1
  6
CONTINUOUS
 62
     7
 10
71.250002
 20
73.062500
 11
71.375002
 21
73.187500
  0
LINE
  8
CSLAYER1
  6
CONTINUOUS
 62
     7
 10
71.875002
 20
73.187500
 11
72.000002
 21
73.062500
  0
LINE
  8
CSLAYER1
  6
CONTINUOUS
 62
     7
 10
65.250002
 20
69.700000
 11
65.300002
 21
69.750000
  0
LINE
  8
CSLAYER1
  6
CONTINUOUS
 62
     7
 10
72.000002
 20
55.937500
 11
72.000002
 21
64.500000
  0
LINE
  8
CSLAYER1
  6
CONTINUOUS
 62
     7
 10
71.250002
 20
55.937500
 11
71.250002
 21
64.500000
  0
LINE
  8
CSLAYER1
  6
CONTINUOUS
 62
     7
 10
65.250002
 20
59.300000
 11
65.250002
 21
61.205552
  0
LINE
  8
CSLAYER1
  6
CONTINUOUS
 62
     7
 10
65.300002
 20
59.250000
 11
67.625002
 21
59.250000
  0
LINE
  8
CSLAYER1
  6
CONTINUOUS
 62
     7
 10
65.250002
 20
59.300000
 11
65.300002
 21
59.250000
  0
LINE
  8
CSLAYER1
  6
CONTINUOUS
 62
     7
 10
71.250002
 20
64.500000
 11
71.250002
 21
80.000000
  0
LINE
  8
CSLAYER1
  6
CONTINUOUS
 62
     7
 10
67.625002
 20
64.500000
 11
67.625002
 21
80.000000
  0
LINE
  8
CSLAYER1
  6
CONTINUOUS
 62
     7
 10
67.875002
 20
80.250000
 11
71.000002
 21
80.250000
  0
LINE
  8
CSLAYER1
  6
CONTINUOUS
 62
     7
 10
67.625002
 20
80.000000
 11
67.875002
 21
80.250000
  0
LINE
  8
CSLAYER1
  6
CONTINUOUS
 62
     7
 10
71.000002
 20
80.250000
 11
71.250002
 21
80.000000
  0
LINE
  8
CSLAYER1
  6
CONTINUOUS
 62
     7
 10
67.625002
 20
64.500000
 11
67.625002
 21
49.000000
  0
LINE
  8
CSLAYER1
  6
CONTINUOUS
 62
     7
 10
71.250002
 20
64.500000
 11
71.250002
 21
55.625000
  0
LINE
  8
CSLAYER1
  6
CONTINUOUS
 62
     7
 10
66.500002
 20
125.375000
 11
66.500002
 21
133.750000
  0
LINE
  8
CSLAYER1
  6
CONTINUOUS
 62
     7
 10
60.750002
 20
127.356763
 11
60.750002
 21
130.285899
  0
LINE
  8
CSLAYER1
  6
CONTINUOUS
 62
     7
 10
66.000002
 20
118.125000
 11
66.000002
 21
133.750000
  0
LINE
  8
CSLAYER1
  6
CONTINUOUS
 62
     7
 10
66.138199
 20
125.194099
 11
66.500002
 21
125.375000
  0
LINE
  8
CSLAYER1
  6
CONTINUOUS
 62
     7
 10
62.250002
 20
118.375000
 11
62.250002
 21
133.750000
  0
LINE
  8
CSLAYER1
  6
CONTINUOUS
 62
     7
 10
62.750002
 20
117.875000
 11
65.750002
 21
117.875000
  0
ARC
  8
CSLAYER1
  6
CONTINUOUS
 62
     7
 10
62.750002
 20
118.375000
 40
0.500000
 50
180.000000
 51
270.000000
  0
ARC
  8
CSLAYER1
  6
CONTINUOUS
 62
     7
 10
65.750002
 20
118.125000
 40
0.250000
 50
270.000000
 51
360.000000
  0
ARC
  8
CSLAYER1
  6
CONTINUOUS
 62
     7
 10
66.250002
 20
124.970492
 40
0.250000
 50
116.565051
 51
180.000000
  0
LINE
  8
CSLAYER1
  6
CONTINUOUS
 62
     7
 10
66.500002
 20
145.000000
 11
66.500002
 21
133.750000
  0
LINE
  8
CSLAYER1
  6
CONTINUOUS
 62
     7
 10
60.750002
 20
140.143237
 11
60.750002
 21
137.214102
  0
LINE
  8
CSLAYER1
  6
CONTINUOUS
 62
     7
 10
66.000002
 20
149.375000
 11
66.000002
 21
145.000000
  0
LINE
  8
CSLAYER1
  6
CONTINUOUS
 62
     7
 10
62.250002
 20
149.125000
 11
62.250002
 21
133.750000
  0
LINE
  8
CSLAYER1
  6
CONTINUOUS
 62
     7
 10
60.957297
 20
140.478648
 11
62.042707
 21
141.021353
  0
LINE
  8
CSLAYER1
  6
CONTINUOUS
 62
     7
 10
62.750002
 20
149.625000
 11
65.750002
 21
149.625000
  0
ARC
  8
CSLAYER1
  6
CONTINUOUS
 62
     7
 10
62.750002
 20
149.125000
 40
0.500000
 50
90.000000
 51
180.000000
  0
ARC
  8
CSLAYER1
  6
CONTINUOUS
 62
     7
 10
65.750002
 20
149.375000
 40
0.250000
 50
0.000000
 51
90.000000
  0
ARC
  8
CSLAYER1
  6
CONTINUOUS
 62
     7
 10
61.125002
 20
140.143237
 40
0.375000
 50
116.565051
 51
180.000000
  0
LINE
  8
CSLAYER1
  6
CONTINUOUS
 62
     7
 10
50.481205
 20
94.875000
 11
50.422612
 21
96.750000
  0
LINE
  8
CSLAYER1
  6
CONTINUOUS
 62
     7
 10
50.052862
 20
96.750000
 11
50.090297
 21
95.552074
  0
LINE
  8
CSLAYER1
  6
CONTINUOUS
 62
     7
 10
50.481205
 20
94.875000
 11
50.090297
 21
95.552074
  0
LINE
  8
CSLAYER1
  6
CONTINUOUS
 62
     7
 10
46.250002
 20
95.552074
 11
50.460047
 21
95.552074
  0
LINE
  8
CSLAYER1
  6
CONTINUOUS
 62
     7
 10
50.500002
 20
94.875000
 11
50.500002
 21
94.250000
  0
LINE
  8
CSLAYER1
  6
CONTINUOUS
 62
     7
 10
50.481205
 20
93.625000
 11
50.422612
 21
91.750000
  0
LINE
  8
CSLAYER1
  6
CONTINUOUS
 62
     7
 10
50.052862
 20
91.750000
 11
50.090297
 21
92.947927
  0
LINE
  8
CSLAYER1
  6
CONTINUOUS
 62
     7
 10
50.481205
 20
93.625000
 11
50.090297
 21
92.947927
  0
LINE
  8
CSLAYER1
  6
CONTINUOUS
 62
     7
 10
50.500002
 20
93.625000
 11
50.500002
 21
94.250000
  0
LINE
  8
CSLAYER1
  6
CONTINUOUS
 62
     7
 10
46.250002
 20
92.947927
 11
50.460047
 21
92.947927
  0
LINE
  8
CSLAYER1
  6
CONTINUOUS
 62
     7
 10
58.875002
 20
137.981203
 11
60.750002
 21
137.922610
  0
LINE
  8
CSLAYER1
  6
CONTINUOUS
 62
     7
 10
60.750002
 20
137.552860
 11
59.552076
 21
137.590295
  0
LINE
  8
CSLAYER1
  6
CONTINUOUS
 62
     7
 10
58.875002
 20
137.981203
 11
59.552076
 21
137.590295
  0
LINE
  8
CSLAYER1
  6
CONTINUOUS
 62
     7
 10
59.552076
 20
133.750000
 11
59.552076
 21
137.960045
  0
LINE
  8
CSLAYER1
  6
CONTINUOUS
 62
     7
 10
58.875002
 20
138.000000
 11
58.250002
 21
138.000000
  0
LINE
  8
CSLAYER1
  6
CONTINUOUS
 62
     7
 10
57.625002
 20
137.981203
 11
55.750002
 21
137.922610
  0
LINE
  8
CSLAYER1
  6
CONTINUOUS
 62
     7
 10
55.750002
 20
137.552860
 11
56.947929
 21
137.590295
  0
LINE
  8
CSLAYER1
  6
CONTINUOUS
 62
     7
 10
57.625002
 20
137.981203
 11
56.947929
 21
137.590295
  0
LINE
  8
CSLAYER1
  6
CONTINUOUS
 62
     7
 10
57.625002
 20
138.000000
 11
58.250002
 21
138.000000
  0
LINE
  8
CSLAYER1
  6
CONTINUOUS
 62
     7
 10
56.947929
 20
133.750000
 11
56.947929
 21
137.960045
  0
LINE
  8
CSLAYER1
  6
CONTINUOUS
 62
     7
 10
58.875002
 20
137.981203
 11
58.875002
 21
138.000000
  0
LINE
  8
CSLAYER1
  6
CONTINUOUS
 62
     7
 10
57.625002
 20
137.981203
 11
57.625002
 21
138.000000
  0
LINE
  8
CSLAYER1
  6
CONTINUOUS
 62
     7
 10
58.875002
 20
129.518797
 11
60.750002
 21
129.577391
  0
LINE
  8
CSLAYER1
  6
CONTINUOUS
 62
     7
 10
60.750002
 20
129.947141
 11
59.552076
 21
129.909706
  0
LINE
  8
CSLAYER1
  6
CONTINUOUS
 62
     7
 10
58.875002
 20
129.518797
 11
59.552076
 21
129.909706
  0
LINE
  8
CSLAYER1
  6
CONTINUOUS
 62
     7
 10
59.552076
 20
133.750000
 11
59.552076
 21
129.539956
  0
LINE
  8
CSLAYER1
  6
CONTINUOUS
 62
     7
 10
58.875002
 20
129.500000
 11
58.250002
 21
129.500000
  0
LINE
  8
CSLAYER1
  6
CONTINUOUS
 62
     7
 10
57.625002
 20
129.518797
 11
55.750002
 21
129.577391
  0
LINE
  8
CSLAYER1
  6
CONTINUOUS
 62
     7
 10
55.750002
 20
129.947141
 11
56.947929
 21
129.909706
  0
LINE
  8
CSLAYER1
  6
CONTINUOUS
 62
     7
 10
57.625002
 20
129.518797
 11
56.947929
 21
129.909706
  0
LINE
  8
CSLAYER1
  6
CONTINUOUS
 62
     7
 10
57.625002
 20
129.500000
 11
58.250002
 21
129.500000
  0
LINE
  8
CSLAYER1
  6
CONTINUOUS
 62
     7
 10
56.947929
 20
133.750000
 11
56.947929
 21
129.539956
  0
LINE
  8
CSLAYER1
  6
CONTINUOUS
 62
     7
 10
58.875002
 20
129.518797
 11
58.875002
 21
129.500000
  0
LINE
  8
CSLAYER1
  6
CONTINUOUS
 62
     7
 10
57.625002
 20
129.518797
 11
57.625002
 21
129.500000
  0
LINE
  8
CSLAYER1
  6
CONTINUOUS
 62
     3
 10
50.481205
 20
94.875000
 11
50.500002
 21
94.875000
  0
LINE
  8
CSLAYER1
  6
CONTINUOUS
 62
     3
 10
50.481205
 20
93.625000
 11
50.500002
 21
93.625000
  0
LINE
  8
CSLAYER1
  6
CONTINUOUS
 62
     7
 10
42.018799
 20
94.875000
 11
42.077393
 21
96.750000
  0
LINE
  8
CSLAYER1
  6
CONTINUOUS
 62
     7
 10
42.447143
 20
96.750000
 11
42.409708
 21
95.552074
  0
LINE
  8
CSLAYER1
  6
CONTINUOUS
 62
     7
 10
42.018799
 20
94.875000
 11
42.409708
 21
95.552074
  0
LINE
  8
CSLAYER1
  6
CONTINUOUS
 62
     7
 10
46.250002
 20
95.552074
 11
42.039958
 21
95.552074
  0
LINE
  8
CSLAYER1
  6
CONTINUOUS
 62
     7
 10
42.000002
 20
94.875000
 11
42.000002
 21
94.250000
  0
LINE
  8
CSLAYER1
  6
CONTINUOUS
 62
     7
 10
42.018799
 20
93.625000
 11
42.077393
 21
91.750000
  0
LINE
  8
CSLAYER1
  6
CONTINUOUS
 62
     7
 10
42.447143
 20
91.750000
 11
42.409708
 21
92.947927
  0
LINE
  8
CSLAYER1
  6
CONTINUOUS
 62
     7
 10
42.018799
 20
93.625000
 11
42.409708
 21
92.947927
  0
LINE
  8
CSLAYER1
  6
CONTINUOUS
 62
     7
 10
42.000002
 20
93.625000
 11
42.000002
 21
94.250000
  0
LINE
  8
CSLAYER1
  6
CONTINUOUS
 62
     7
 10
46.250002
 20
92.947927
 11
42.039958
 21
92.947927
  0
LINE
  8
CSLAYER1
  6
CONTINUOUS
 62
     7
 10
42.018799
 20
94.875000
 11
42.000002
 21
94.875000
  0
LINE
  8
CSLAYER1
  6
CONTINUOUS
 62
     7
 10
42.018799
 20
93.625000
 11
42.000002
 21
93.625000
  0
LINE
  8
CSLAYER1
  6
CONTINUOUS
 62
     7
 10
55.250002
 20
138.875000
 11
51.125002
 21
138.875000
  0
LINE
  8
CSLAYER1
  6
CONTINUOUS
 62
     7
 10
55.250002
 20
128.625000
 11
53.375002
 21
128.625000
  0
LINE
  8
CSLAYER1
  6
CONTINUOUS
 62
     7
 10
55.750002
 20
138.375000
 11
55.750002
 21
129.125000
  0
LINE
  8
CSLAYER1
  6
CONTINUOUS
 62
     7
 10
41.625002
 20
124.250000
 11
50.875002
 21
124.250000
  0
LINE
  8
CSLAYER1
  6
CONTINUOUS
 62
     7
 10
51.375002
 20
124.750000
 11
51.375002
 21
126.625000
  0
LINE
  8
CSLAYER1
  6
CONTINUOUS
 62
     7
 10
41.125002
 20
124.750000
 11
41.125002
 21
128.875000
  0
ARC
  8
CSLAYER1
  6
CONTINUOUS
 62
     7
 10
51.125002
 20
128.875000
 40
10.000000
 50
90.000000
 51
180.000000
  0
ARC
  8
CSLAYER1
  6
CONTINUOUS
 62
     7
 10
53.375002
 20
126.625000
 40
2.000000
 50
90.000000
 51
180.000000
  0
ARC
  8
CSLAYER1
  6
CONTINUOUS
 62
     7
 10
55.250002
 20
129.125000
 40
0.500000
 50
270.000000
 51
360.000000
  0
ARC
  8
CSLAYER1
  6
CONTINUOUS
 62
     7
 10
55.250002
 20
138.375000
 40
0.500000
 50
0.000000
 51
90.000000
  0
ARC
  8
CSLAYER1
  6
CONTINUOUS
 62
     7
 10
50.875002
 20
124.750000
 40
0.500000
 50
270.000000
 51
360.000000
  0
ARC
  8
CSLAYER1
  6
CONTINUOUS
 62
     7
 10
41.625002
 20
124.750000
 40
0.500000
 50
180.000000
 51
270.000000
  0
LINE
  8
CSLAYER1
  6
CONTINUOUS
 62
     7
 10
60.750002
 20
137.922610
 11
60.750002
 21
137.214102
  0
LINE
  8
CSLAYER1
  6
CONTINUOUS
 62
     7
 10
55.750002
 20
137.922610
 11
55.750002
 21
129.577391
  0
LINE
  8
CSLAYER1
  6
CONTINUOUS
 62
     7
 10
42.077393
 20
96.750000
 11
50.422612
 21
96.750000
  0
LINE
  8
CSLAYER1
  6
CONTINUOUS
 62
     7
 10
42.077393
 20
91.750000
 11
50.422612
 21
91.750000
  0
LINE
  8
CSLAYER1
  6
CONTINUOUS
 62
     7
 10
50.481205
 20
122.375000
 11
50.422612
 21
124.250000
  0
LINE
  8
CSLAYER1
  6
CONTINUOUS
 62
     7
 10
50.052862
 20
124.250000
 11
50.090297
 21
123.052074
  0
LINE
  8
CSLAYER1
  6
CONTINUOUS
 62
     7
 10
50.481205
 20
122.375000
 11
50.090297
 21
123.052074
  0
LINE
  8
CSLAYER1
  6
CONTINUOUS
 62
     7
 10
46.250002
 20
123.052074
 11
50.460047
 21
123.052074
  0
LINE
  8
CSLAYER1
  6
CONTINUOUS
 62
     7
 10
50.500002
 20
122.375000
 11
50.500002
 21
121.750000
  0
LINE
  8
CSLAYER1
  6
CONTINUOUS
 62
     7
 10
50.481205
 20
121.125000
 11
50.422612
 21
119.250000
  0
LINE
  8
CSLAYER1
  6
CONTINUOUS
 62
     7
 10
50.052862
 20
119.250000
 11
50.090297
 21
120.447927
  0
LINE
  8
CSLAYER1
  6
CONTINUOUS
 62
     7
 10
50.481205
 20
121.125000
 11
50.090297
 21
120.447927
  0
LINE
  8
CSLAYER1
  6
CONTINUOUS
 62
     7
 10
50.500002
 20
121.125000
 11
50.500002
 21
121.750000
  0
LINE
  8
CSLAYER1
  6
CONTINUOUS
 62
     7
 10
46.250002
 20
120.447927
 11
50.460047
 21
120.447927
  0
LINE
  8
CSLAYER1
  6
CONTINUOUS
 62
     7
 10
50.481205
 20
122.375000
 11
50.500002
 21
122.375000
  0
LINE
  8
CSLAYER1
  6
CONTINUOUS
 62
     7
 10
50.481205
 20
121.125000
 11
50.500002
 21
121.125000
  0
LINE
  8
CSLAYER1
  6
CONTINUOUS
 62
     7
 10
42.018799
 20
122.375000
 11
42.077393
 21
124.250000
  0
LINE
  8
CSLAYER1
  6
CONTINUOUS
 62
     7
 10
42.447143
 20
124.250000
 11
42.409708
 21
123.052074
  0
LINE
  8
CSLAYER1
  6
CONTINUOUS
 62
     7
 10
42.018799
 20
122.375000
 11
42.409708
 21
123.052074
  0
LINE
  8
CSLAYER1
  6
CONTINUOUS
 62
     7
 10
46.250002
 20
123.052074
 11
42.039958
 21
123.052074
  0
LINE
  8
CSLAYER1
  6
CONTINUOUS
 62
     7
 10
42.000002
 20
122.375000
 11
42.000002
 21
121.750000
  0
LINE
  8
CSLAYER1
  6
CONTINUOUS
 62
     7
 10
42.018799
 20
121.125000
 11
42.077393
 21
119.250000
  0
LINE
  8
CSLAYER1
  6
CONTINUOUS
 62
     7
 10
42.447143
 20
119.250000
 11
42.409708
 21
120.447927
  0
LINE
  8
CSLAYER1
  6
CONTINUOUS
 62
     7
 10
42.018799
 20
121.125000
 11
42.409708
 21
120.447927
  0
LINE
  8
CSLAYER1
  6
CONTINUOUS
 62
     7
 10
42.000002
 20
121.125000
 11
42.000002
 21
121.750000
  0
LINE
  8
CSLAYER1
  6
CONTINUOUS
 62
     7
 10
46.250002
 20
120.447927
 11
42.039958
 21
120.447927
  0
LINE
  8
CSLAYER1
  6
CONTINUOUS
 62
     7
 10
42.018799
 20
122.375000
 11
42.000002
 21
122.375000
  0
LINE
  8
CSLAYER1
  6
CONTINUOUS
 62
     7
 10
42.018799
 20
121.125000
 11
42.000002
 21
121.125000
  0
LINE
  8
CSLAYER1
  6
CONTINUOUS
 62
     7
 10
42.077393
 20
124.250000
 11
50.422612
 21
124.250000
  0
LINE
  8
CSLAYER1
  6
CONTINUOUS
 62
     7
 10
66.500002
 20
133.750000
 11
66.500002
 21
142.625000
  0
LINE
  8
CSLAYER1
  6
CONTINUOUS
 62
     7
 10
67.000002
 20
133.750000
 11
67.000002
 21
145.000000
  0
LINE
  8
CSLAYER1
  6
CONTINUOUS
 62
     7
 10
67.000002
 20
149.375000
 11
66.500002
 21
149.375000
  0
LINE
  8
CSLAYER1
  6
CONTINUOUS
 62
     7
 10
67.000002
 20
133.750000
 11
67.000002
 21
118.883553
  0
LINE
  8
CSLAYER1
  6
CONTINUOUS
 62
     7
 10
66.500002
 20
133.750000
 11
66.500002
 21
118.125000
  0
LINE
  8
CSLAYER1
  6
CONTINUOUS
 62
     7
 10
72.000002
 20
64.500000
 11
72.000002
 21
80.125000
  0
LINE
  8
CSLAYER1
  6
CONTINUOUS
 62
     7
 10
72.500002
 20
64.500000
 11
72.500002
 21
80.125000
  0
LINE
  8
CSLAYER1
  6
CONTINUOUS
 62
     7
 10
72.000002
 20
80.125000
 11
72.500002
 21
80.125000
  0
LINE
  8
CSLAYER1
  6
CONTINUOUS
 62
     7
 10
72.500002
 20
64.500000
 11
72.500002
 21
55.625000
  0
LINE
  8
CSLAYER1
  6
CONTINUOUS
 62
     7
 10
72.000002
 20
64.500000
 11
72.000002
 21
55.625000
  0
LINE
  8
CSLAYER1
  6
CONTINUOUS
 62
     7
 10
60.957297
 20
127.021353
 11
62.042707
 21
126.478648
  0
ARC
  8
CSLAYER1
  6
CONTINUOUS
 62
     7
 10
61.125002
 20
127.356763
 40
0.375000
 50
180.000000
 51
243.434949
  0
ARC
  8
CSLAYER1
  6
CONTINUOUS
 62
     7
 10
61.875002
 20
126.143237
 40
0.375000
 50
0.000000
 51
63.434949
  0
LINE
  8
CSLAYER1
  6
CONTINUOUS
 62
     7
 10
65.250002
 20
68.750000
 11
56.750002
 21
68.750000
  0
LINE
  8
CSLAYER1
  6
CONTINUOUS
 62
     7
 10
65.250002
 20
60.250000
 11
56.750002
 21
60.250000
  0
LINE
  8
CSLAYER1
  6
CONTINUOUS
 62
     7
 10
59.705002
 20
148.000000
 11
59.705002
 21
145.000000
  0
LINE
  8
CSLAYER1
  6
CONTINUOUS
 62
     7
 10
59.705002
 20
148.000000
 11
59.972952
 21
148.464102
  0
ARC
  8
CSLAYER1
  6
CONTINUOUS
 62
     7
 10
61.695496
 20
147.598076
 40
1.927993
 50
153.308604
 51
206.691396
  0
ARC
  8
CSLAYER1
  6
CONTINUOUS
 62
     7
 10
67.171302
 20
145.000000
 40
7.403800
 50
166.470805
 51
180.000000
  0
LINE
  8
CSLAYER1
  6
CONTINUOUS
 62
     7
 10
59.705002
 20
142.000000
 11
59.705002
 21
145.000000
  0
LINE
  8
CSLAYER1
  6
CONTINUOUS
 62
     7
 10
59.705002
 20
142.000000
 11
59.972952
 21
141.535899
  0
ARC
  8
CSLAYER1
  6
CONTINUOUS
 62
     7
 10
61.695496
 20
142.401924
 40
1.927993
 50
153.308604
 51
206.691396
  0
ARC
  8
CSLAYER1
  6
CONTINUOUS
 62
     7
 10
67.171302
 20
145.000000
 40
7.403800
 50
180.000000
 51
193.529195
  0
LINE
  8
CSLAYER1
  6
CONTINUOUS
 62
     7
 10
59.972952
 20
141.535899
 11
62.250002
 21
141.535899
  0
LINE
  8
CSLAYER1
  6
CONTINUOUS
 62
     7
 10
59.972952
 20
143.267949
 11
62.250002
 21
143.267949
  0
LINE
  8
CSLAYER1
  6
CONTINUOUS
 62
     7
 10
59.972952
 20
146.732051
 11
62.250002
 21
146.732051
  0
LINE
  8
CSLAYER1
  6
CONTINUOUS
 62
     7
 10
59.972952
 20
148.464102
 11
62.250002
 21
148.464102
  0
LINE
  8
CSLAYER1
  6
CONTINUOUS
 62
     7
 10
75.250002
 20
147.000000
 11
76.875002
 21
147.000000
  0
LINE
  8
CSLAYER1
  6
CONTINUOUS
 62
     7
 10
76.875002
 20
147.000000
 11
77.250002
 21
146.625000
  0
LINE
  8
CSLAYER1
  6
CONTINUOUS
 62
     7
 10
77.250002
 20
146.625000
 11
77.250002
 21
145.000000
  0
LINE
  8
CSLAYER1
  6
CONTINUOUS
 62
     7
 10
77.250002
 20
143.375000
 11
77.250002
 21
145.000000
  0
LINE
  8
CSLAYER1
  6
CONTINUOUS
 62
     7
 10
76.875002
 20
143.000000
 11
77.250002
 21
143.375000
  0
LINE
  8
CSLAYER1
  6
CONTINUOUS
 62
     7
 10
75.250002
 20
143.000000
 11
76.875002
 21
143.000000
  0
LINE
  8
CSLAYER1
  6
CONTINUOUS
 62
     7
 10
75.250002
 20
143.250000
 11
77.125002
 21
143.250000
  0
LINE
  8
CSLAYER1
  6
CONTINUOUS
 62
     7
 10
76.875002
 20
143.000000
 11
76.875002
 21
145.000000
  0
LINE
  8
CSLAYER1
  6
CONTINUOUS
 62
     7
 10
76.875002
 20
147.000000
 11
76.875002
 21
145.000000
  0
LINE
  8
CSLAYER1
  6
CONTINUOUS
 62
     7
 10
75.250002
 20
146.750000
 11
77.125002
 21
146.750000
  0
LINE
  8
CSLAYER1
  6
CONTINUOUS
 62
     7
 10
75.250002
 20
148.000000
 11
75.250002
 21
145.000000
  0
LINE
  8
CSLAYER1
  6
CONTINUOUS
 62
     7
 10
75.250002
 20
148.000000
 11
74.982053
 21
148.464102
  0
ARC
  8
CSLAYER1
  6
CONTINUOUS
 62
     7
 10
73.259509
 20
147.598076
 40
1.927993
 50
-26.691396
 51
26.691396
  0
ARC
  8
CSLAYER1
  6
CONTINUOUS
 62
     7
 10
67.783703
 20
145.000000
 40
7.403800
 50
0.000000
 51
13.529195
  0
LINE
  8
CSLAYER1
  6
CONTINUOUS
 62
     7
 10
75.250002
 20
142.000000
 11
75.250002
 21
145.000000
  0
LINE
  8
CSLAYER1
  6
CONTINUOUS
 62
     7
 10
75.250002
 20
142.000000
 11
74.982053
 21
141.535899
  0
ARC
  8
CSLAYER1
  6
CONTINUOUS
 62
     7
 10
73.259509
 20
142.401924
 40
1.927993
 50
-26.691396
 51
26.691396
  0
ARC
  8
CSLAYER1
  6
CONTINUOUS
 62
     7
 10
67.783703
 20
145.000000
 40
7.403800
 50
346.470805
 51
360.000000
  0
LINE
  8
CSLAYER1
  6
CONTINUOUS
 62
     7
 10
72.000002
 20
141.535899
 11
74.982053
 21
141.535899
  0
LINE
  8
CSLAYER1
  6
CONTINUOUS
 62
     7
 10
72.000002
 20
143.267949
 11
74.982053
 21
143.267949
  0
LINE
  8
CSLAYER1
  6
CONTINUOUS
 62
     7
 10
72.000002
 20
146.732051
 11
74.982053
 21
146.732051
  0
LINE
  8
CSLAYER1
  6
CONTINUOUS
 62
     7
 10
72.000002
 20
148.464102
 11
74.982053
 21
148.464102
  0
LINE
  8
CSLAYER1
  6
CONTINUOUS
 62
     7
 10
67.000002
 20
142.625000
 11
67.000002
 21
137.125000
  0
LINE
  8
CSLAYER1
  6
CONTINUOUS
 62
     7
 10
67.000002
 20
147.375000
 11
67.000002
 21
149.375000
  0
LINE
  8
CSLAYER1
  6
CONTINUOUS
 62
     7
 10
66.500002
 20
145.000000
 11
66.500002
 21
149.375000
  0
LINE
  8
CSLAYER1
  6
CONTINUOUS
 62
     7
 10
66.000002
 20
145.000000
 11
66.000002
 21
133.750000
  0
LINE
  8
CSLAYER1
  6
CONTINUOUS
 62
     7
 10
72.500002
 20
55.625000
 11
72.500002
 21
61.375000
  0
ARC
  8
CSLAYER1
  6
CONTINUOUS
 62
     7
 10
56.750002
 20
75.000000
 40
6.250000
 50
180.000000
 51
270.000000
  0
ARC
  8
CSLAYER1
  6
CONTINUOUS
 62
     7
 10
56.750002
 20
75.000000
 40
14.750000
 50
180.000000
 51
270.000000
  0
LINE
  8
CSLAYER1
  6
CONTINUOUS
 62
     7
 10
47.912500
 20
98.926045
 11
47.912500
 21
99.944771
  0
LINE
  8
CSLAYER1
  6
CONTINUOUS
 62
     7
 10
51.490685
 20
100.408181
 11
50.770337
 21
101.128529
  0
LINE
  8
CSLAYER1
  6
CONTINUOUS
 62
     7
 10
53.841812
 20
102.759308
 11
53.121465
 21
103.479657
  0
LINE
  8
CSLAYER1
  6
CONTINUOUS
 62
     7
 10
55.323942
 20
106.337502
 11
54.305205
 21
106.337502
  0
LINE
  8
CSLAYER1
  6
CONTINUOUS
 62
     7
 10
55.323942
 20
109.662499
 11
54.305205
 21
109.662499
  0
LINE
  8
CSLAYER1
  6
CONTINUOUS
 62
     7
 10
53.841812
 20
113.240692
 11
53.121465
 21
112.520343
  0
LINE
  8
CSLAYER1
  6
CONTINUOUS
 62
     7
 10
51.490685
 20
115.591819
 11
50.770337
 21
114.871471
  0
LINE
  8
CSLAYER1
  6
CONTINUOUS
 62
     7
 10
47.912500
 20
117.073956
 11
47.912500
 21
116.055229
  0
LINE
  8
CSLAYER1
  6
CONTINUOUS
 62
     7
 10
44.587502
 20
117.073956
 11
44.587502
 21
116.055229
  0
LINE
  8
CSLAYER1
  6
CONTINUOUS
 62
     7
 10
41.009302
 20
115.591819
 11
41.729650
 21
114.871471
  0
LINE
  8
CSLAYER1
  6
CONTINUOUS
 62
     7
 10
38.658175
 20
113.240692
 11
39.378522
 21
112.520343
  0
LINE
  8
CSLAYER1
  6
CONTINUOUS
 62
     7
 10
37.176045
 20
109.662499
 11
38.194772
 21
109.662499
  0
LINE
  8
CSLAYER1
  6
CONTINUOUS
 62
     7
 10
37.176045
 20
106.337502
 11
38.194772
 21
106.337502
  0
LINE
  8
CSLAYER1
  6
CONTINUOUS
 62
     7
 10
38.658175
 20
102.759308
 11
39.378522
 21
103.479657
  0
LINE
  8
CSLAYER1
  6
CONTINUOUS
 62
     7
 10
41.009302
 20
100.408181
 11
41.729650
 21
101.128529
  0
LINE
  8
CSLAYER1
  6
CONTINUOUS
 62
     7
 10
44.587502
 20
98.926045
 11
44.587502
 21
99.944771
  0
LINE
  8
CSLAYER1
  6
CONTINUOUS
 62
     7
 10
49.689417
 20
109.494286
 11
53.102762
 21
109.300009
  0
LINE
  8
CSLAYER1
  6
CONTINUOUS
 62
     7
 10
53.102762
 20
106.699991
 11
49.689417
 21
106.505714
  0
LINE
  8
CSLAYER1
  6
CONTINUOUS
 62
     7
 10
44.755715
 20
111.439433
 11
44.949995
 21
114.852793
  0
LINE
  8
CSLAYER1
  6
CONTINUOUS
 62
     7
 10
47.549990
 20
114.852783
 11
47.744267
 21
111.439424
  0
LINE
  8
CSLAYER1
  6
CONTINUOUS
 62
     7
 10
42.810562
 20
106.505725
 11
39.397210
 21
106.700003
  0
LINE
  8
CSLAYER1
  6
CONTINUOUS
 62
     7
 10
39.397210
 20
109.299998
 11
42.810562
 21
109.494275
  0
LINE
  8
CSLAYER1
  6
CONTINUOUS
 62
     7
 10
47.744267
 20
104.560576
 11
47.549990
 21
101.147217
  0
LINE
  8
CSLAYER1
  6
CONTINUOUS
 62
     7
 10
44.949995
 20
101.147207
 11
44.755715
 21
104.560567
  0
LINE
  8
CSLAYER1
  6
CONTINUOUS
 62
     7
 10
46.250005
 20
106.123621
 11
47.875002
 21
107.061814
  0
LINE
  8
CSLAYER1
  6
CONTINUOUS
 62
     7
 10
47.875002
 20
107.061807
 11
47.875002
 21
108.938194
  0
LINE
  8
CSLAYER1
  6
CONTINUOUS
 62
     7
 10
47.875005
 20
108.938194
 11
46.250010
 21
109.876387
  0
LINE
  8
CSLAYER1
  6
CONTINUOUS
 62
     7
 10
46.250010
 20
109.876387
 11
44.625012
 21
108.938194
  0
LINE
  8
CSLAYER1
  6
CONTINUOUS
 62
     7
 10
44.625005
 20
108.938194
 11
44.625005
 21
107.061810
  0
LINE
  8
CSLAYER1
  6
CONTINUOUS
 62
     7
 10
44.625012
 20
107.061808
 11
46.250010
 21
106.123616
  0
LINE
  8
CSLAYER1
  6
CONTINUOUS
 62
     7
 10
40.750002
 20
119.250000
 11
51.750027
 21
119.250000
  0
LINE
  8
CSLAYER1
  6
CONTINUOUS
 62
     7
 10
40.750002
 20
96.750000
 11
51.750027
 21
96.750000
  0
LINE
  8
CSLAYER1
  6
CONTINUOUS
 62
     7
 10
40.750002
 20
96.750000
 11
40.750002
 21
99.306145
  0
LINE
  8
CSLAYER1
  6
CONTINUOUS
 62
     7
 10
51.750027
 20
96.750000
 11
51.750027
 21
99.306145
  0
LINE
  8
CSLAYER1
  6
CONTINUOUS
 62
     7
 10
40.750002
 20
116.693855
 11
40.750002
 21
119.250000
  0
LINE
  8
CSLAYER1
  6
CONTINUOUS
 62
     7
 10
51.750027
 20
116.693855
 11
51.750027
 21
119.250000
  0
LINE
  8
CSLAYER1
  6
CONTINUOUS
 62
     7
 10
49.712502
 20
106.000922
 11
49.712502
 21
106.507028
  0
LINE
  8
CSLAYER1
  6
CONTINUOUS
 62
     7
 10
49.228322
 20
105.721380
 11
49.712502
 21
106.000923
  0
LINE
  8
CSLAYER1
  6
CONTINUOUS
 62
     7
 10
42.787500
 20
106.000922
 11
42.787500
 21
106.507028
  0
LINE
  8
CSLAYER1
  6
CONTINUOUS
 62
     7
 10
43.271680
 20
105.721380
 11
42.787495
 21
106.000923
  0
LINE
  8
CSLAYER1
  6
CONTINUOUS
 62
     7
 10
49.712502
 20
109.999079
 11
49.712502
 21
109.492972
  0
LINE
  8
CSLAYER1
  6
CONTINUOUS
 62
     7
 10
49.228322
 20
110.278621
 11
49.712502
 21
109.999078
  0
LINE
  8
CSLAYER1
  6
CONTINUOUS
 62
     7
 10
42.787500
 20
109.999079
 11
42.787500
 21
109.492972
  0
LINE
  8
CSLAYER1
  6
CONTINUOUS
 62
     7
 10
43.271680
 20
110.278620
 11
42.787495
 21
109.999078
  0
LINE
  8
CSLAYER1
  6
CONTINUOUS
 62
     7
 10
44.379812
 20
99.990444
 11
41.673147
 21
99.990444
  0
LINE
  8
CSLAYER1
  6
CONTINUOUS
 62
     7
 10
48.120190
 20
99.990444
 11
50.826855
 21
99.990444
  0
LINE
  8
CSLAYER1
  6
CONTINUOUS
 62
     7
 10
44.379812
 20
116.009556
 11
41.673147
 21
116.009556
  0
LINE
  8
CSLAYER1
  6
CONTINUOUS
 62
     7
 10
48.120190
 20
116.009556
 11
50.826855
 21
116.009556
  0
LINE
  8
CSLAYER1
  6
CONTINUOUS
 62
     7
 10
49.386712
 20
109.406250
 11
48.813282
 21
109.406250
  0
LINE
  8
CSLAYER1
  6
CONTINUOUS
 62
     7
 10
49.386712
 20
109.229679
 11
48.813282
 21
109.229679
  0
LINE
  8
CSLAYER1
  6
CONTINUOUS
 62
     7
 10
49.096917
 20
109.225871
 11
48.753415
 21
108.803249
  0
LINE
  8
CSLAYER1
  6
CONTINUOUS
 62
     7
 10
49.103070
 20
109.225874
 11
49.456625
 21
108.790884
  0
LINE
  8
CSLAYER1
  6
CONTINUOUS
 62
     7
 10
49.162797
 20
108.997808
 11
48.904715
 21
108.680277
  0
LINE
  8
CSLAYER1
  6
CONTINUOUS
 62
     7
 10
49.162805
 20
108.997797
 11
49.310595
 21
108.815966
  0
LINE
  8
CSLAYER1
  6
CONTINUOUS
 62
     7
 10
49.475000
 20
107.231873
 11
49.475000
 21
106.700197
  0
LINE
  8
CSLAYER1
  6
CONTINUOUS
 62
     7
 10
49.384237
 20
106.811594
 11
48.909270
 21
107.329851
  0
LINE
  8
CSLAYER1
  6
CONTINUOUS
 62
     7
 10
49.290070
 20
106.628275
 11
48.937760
 21
107.012695
  0
LINE
  8
CSLAYER1
  6
CONTINUOUS
 62
     7
 10
48.931250
 20
106.696873
 11
48.931250
 21
107.010162
  0
LINE
  8
CSLAYER1
  6
CONTINUOUS
 62
     7
 10
48.725000
 20
107.257175
 11
48.725000
 21
106.696873
  0
LINE
  8
CSLAYER1
  6
CONTINUOUS
 62
     7
 10
49.390747
 20
107.155301
 11
49.390747
 21
106.814125
  0
LINE
  8
CSLAYER1
  6
CONTINUOUS
 62
     7
 10
49.474965
 20
108.123607
 11
49.474965
 21
107.560133
  0
LINE
  8
CSLAYER1
  6
CONTINUOUS
 62
     7
 10
49.390717
 20
107.914153
 11
48.813290
 21
107.914153
  0
LINE
  8
CSLAYER1
  6
CONTINUOUS
 62
     7
 10
49.268725
 20
107.737571
 11
48.813290
 21
107.737571
  0
LINE
  8
CSLAYER1
  6
CONTINUOUS
 62
     7
 10
49.268725
 20
107.737571
 11
49.268725
 21
107.560133
  0
LINE
  8
CSLAYER1
  6
CONTINUOUS
 62
     7
 10
49.390717
 20
108.047035
 11
49.390717
 21
107.914153
  0
LINE
  8
CSLAYER1
  6
CONTINUOUS
 62
     7
 10
42.859720
 20
108.869467
 11
43.041342
 21
108.822888
  0
LINE
  8
CSLAYER1
  6
CONTINUOUS
 62
     7
 10
43.305135
 20
109.219803
 11
42.859720
 21
108.869475
  0
LINE
  8
CSLAYER1
  6
CONTINUOUS
 62
     7
 10
43.465127
 20
108.714208
 11
43.305135
 21
109.219802
  0
LINE
  8
CSLAYER1
  6
CONTINUOUS
 62
     7
 10
43.283502
 20
108.760783
 11
43.465127
 21
108.714204
  0
LINE
  8
CSLAYER1
  6
CONTINUOUS
 62
     7
 10
42.859720
 20
107.130526
 11
43.041342
 21
107.177105
  0
LINE
  8
CSLAYER1
  6
CONTINUOUS
 62
     7
 10
43.305135
 20
106.780198
 11
42.859720
 21
107.130526
  0
LINE
  8
CSLAYER1
  6
CONTINUOUS
 62
     7
 10
43.465127
 20
107.285789
 11
43.305135
 21
106.780195
  0
LINE
  8
CSLAYER1
  6
CONTINUOUS
 62
     7
 10
43.283510
 20
107.239211
 11
43.465127
 21
107.285789
  0
LINE
  8
CSLAYER1
  6
CONTINUOUS
 62
     7
 10
45.048025
 20
110.884428
 11
44.680637
 21
110.781678
  0
LINE
  8
CSLAYER1
  6
CONTINUOUS
 62
     7
 10
45.027825
 20
110.956653
 11
44.660435
 21
110.853904
  0
LINE
  8
CSLAYER1
  6
CONTINUOUS
 62
     7
 10
44.377342
 20
110.915779
 11
44.712197
 21
110.477408
  0
LINE
  8
CSLAYER1
  6
CONTINUOUS
 62
     7
 10
43.929460
 20
110.573658
 11
44.264317
 21
110.135288
  0
LINE
  8
CSLAYER1
  6
CONTINUOUS
 62
     7
 10
44.502197
 20
110.628774
 11
44.173520
 21
110.377708
  0
LINE
  8
CSLAYER1
  6
CONTINUOUS
 62
     7
 10
44.456670
 20
110.688372
 11
44.127995
 21
110.437307
  0
LINE
  8
CSLAYER1
  6
CONTINUOUS
 62
     7
 10
44.317740
 20
110.870251
 11
44.456670
 21
110.688372
  0
LINE
  8
CSLAYER1
  6
CONTINUOUS
 62
     7
 10
43.989065
 20
110.619186
 11
44.127995
 21
110.437307
  0
LINE
  8
CSLAYER1
  6
CONTINUOUS
 62
     7
 10
44.173520
 20
110.377708
 11
44.323920
 21
110.180815
  0
LINE
  8
CSLAYER1
  6
CONTINUOUS
 62
     7
 10
44.502197
 20
110.628774
 11
44.652597
 21
110.431880
  0
LINE
  8
CSLAYER1
  6
CONTINUOUS
 62
     7
 10
43.859795
 20
109.616977
 11
43.617242
 21
109.181637
  0
LINE
  8
CSLAYER1
  6
CONTINUOUS
 62
     7
 10
43.794277
 20
109.653482
 11
43.691250
 21
109.468569
  0
LINE
  8
CSLAYER1
  6
CONTINUOUS
 62
     7
 10
43.207055
 20
109.652496
 11
43.654752
 21
109.403055
  0
LINE
  8
CSLAYER1
  6
CONTINUOUS
 62
     7
 10
43.243557
 20
109.718010
 11
43.691255
 21
109.468569
  0
LINE
  8
CSLAYER1
  6
CONTINUOUS
 62
     7
 10
43.654747
 20
109.403054
 11
43.551720
 21
109.218141
  0
LINE
  8
CSLAYER1
  6
CONTINUOUS
 62
     7
 10
44.001007
 20
110.319103
 11
44.239915
 21
110.112335
  0
LINE
  8
CSLAYER1
  6
CONTINUOUS
 62
     7
 10
43.632180
 20
109.892944
 11
43.871092
 21
109.686177
  0
LINE
  8
CSLAYER1
  6
CONTINUOUS
 62
     7
 10
43.681265
 20
109.949655
 11
43.920175
 21
109.742888
  0
LINE
  8
CSLAYER1
  6
CONTINUOUS
 62
     7
 10
43.951925
 20
110.262392
 11
44.190835
 21
110.055624
  0
LINE
  8
CSLAYER1
  6
CONTINUOUS
 62
     7
 10
43.453985
 20
105.952827
 11
43.891690
 21
106.331645
  0
LINE
  8
CSLAYER1
  6
CONTINUOUS
 62
     7
 10
43.704472
 20
106.070428
 11
43.910192
 21
105.832733
  0
LINE
  8
CSLAYER1
  6
CONTINUOUS
 62
     7
 10
43.891690
 20
106.331645
 11
44.146485
 21
106.037239
  0
LINE
  8
CSLAYER1
  6
CONTINUOUS
 62
     7
 10
43.503065
 20
105.896116
 11
43.647762
 21
106.021347
  0
LINE
  8
CSLAYER1
  6
CONTINUOUS
 62
     7
 10
43.884057
 20
106.225850
 11
44.089772
 21
105.988155
  0
LINE
  8
CSLAYER1
  6
CONTINUOUS
 62
     7
 10
43.647762
 20
106.021347
 11
43.853480
 21
105.783652
  0
LINE
  8
CSLAYER1
  6
CONTINUOUS
 62
     7
 10
43.704472
 20
106.070428
 11
43.884057
 21
106.225850
  0
LINE
  8
CSLAYER1
  6
CONTINUOUS
 62
     7
 10
44.280855
 20
105.886352
 11
44.698930
 21
105.566997
  0
LINE
  8
CSLAYER1
  6
CONTINUOUS
 62
     7
 10
43.911690
 20
105.403071
 11
44.329767
 21
105.083715
  0
LINE
  8
CSLAYER1
  6
CONTINUOUS
 62
     7
 10
43.911690
 20
105.403071
 11
44.280855
 21
105.886352
  0
LINE
  8
CSLAYER1
  6
CONTINUOUS
 62
     7
 10
44.294930
 20
105.781226
 11
44.653405
 21
105.507398
  0
LINE
  8
CSLAYER1
  6
CONTINUOUS
 62
     7
 10
44.016820
 20
105.417148
 11
44.133112
 21
105.569388
  0
LINE
  8
CSLAYER1
  6
CONTINUOUS
 62
     7
 10
44.016820
 20
105.417148
 11
44.375300
 21
105.143319
  0
LINE
  8
CSLAYER1
  6
CONTINUOUS
 62
     7
 10
44.178640
 20
105.628986
 11
44.477517
 21
105.400683
  0
LINE
  8
CSLAYER1
  6
CONTINUOUS
 62
     7
 10
44.133112
 20
105.569388
 11
44.431990
 21
105.341085
  0
LINE
  8
CSLAYER1
  6
CONTINUOUS
 62
     7
 10
44.178640
 20
105.628986
 11
44.294930
 21
105.781226
  0
LINE
  8
CSLAYER1
  6
CONTINUOUS
 62
     7
 10
45.010362
 20
104.763965
 11
45.248930
 21
105.261341
  0
LINE
  8
CSLAYER1
  6
CONTINUOUS
 62
     7
 10
44.502195
 20
105.007710
 11
44.740765
 21
105.505085
  0
LINE
  8
CSLAYER1
  6
CONTINUOUS
 62
     7
 10
44.569815
 20
104.975275
 11
44.765615
 21
105.383485
  0
LINE
  8
CSLAYER1
  6
CONTINUOUS
 62
     7
 10
44.985505
 20
104.885570
 11
45.181307
 21
105.293777
  0
LINE
  8
CSLAYER1
  6
CONTINUOUS
 62
     7
 10
44.810640
 20
105.499151
 11
44.985505
 21
104.885568
  0
LINE
  8
CSLAYER1
  6
CONTINUOUS
 62
     7
 10
44.765615
 20
105.383483
 11
44.940480
 21
104.769906
  0
LINE
  8
CSLAYER1
  6
CONTINUOUS
 62
     7
 10
49.375002
 20
108.652313
 11
49.368797
 21
108.652313
  0
LINE
  8
CSLAYER1
  6
CONTINUOUS
 62
     7
 10
49.386720
 20
108.526565
 11
48.813287
 21
108.526565
  0
LINE
  8
CSLAYER1
  6
CONTINUOUS
 62
     7
 10
49.386720
 20
108.349993
 11
48.813287
 21
108.349993
  0
LINE
  8
CSLAYER1
  6
CONTINUOUS
 62
     7
 10
49.374962
 20
108.223607
 11
49.361222
 21
108.223607
  0
LINE
  8
CSLAYER1
  6
CONTINUOUS
 62
     7
 10
49.390717
 20
108.047035
 11
49.368722
 21
108.047035
  0
LINE
  8
CSLAYER1
  6
CONTINUOUS
 62
     7
 10
49.390747
 20
107.155301
 11
49.368745
 21
107.155301
  0
LINE
  8
CSLAYER1
  6
CONTINUOUS
 62
     7
 10
49.374985
 20
107.331872
 11
49.361245
 21
107.331872
  0
ARC
  8
CSLAYER1
  6
CONTINUOUS
 62
     7
 10
46.250002
 20
98.775002
 40
2.025000
 50
228.630160
 51
311.369817
  0
ARC
  8
CSLAYER1
  6
CONTINUOUS
 62
     7
 10
53.473845
 20
90.560101
 40
8.914311
 50
93.658830
 51
131.317330
  0
ARC
  8
CSLAYER1
  6
CONTINUOUS
 62
     7
 10
52.773037
 20
101.476940
 40
2.025000
 50
273.673057
 51
356.369818
  0
ARC
  8
CSLAYER1
  6
CONTINUOUS
 62
     7
 10
55.475002
 20
108.000000
 40
2.025000
 50
-41.389178
 51
41.327050
  0
ARC
  8
CSLAYER1
  6
CONTINUOUS
 62
     7
 10
63.689907
 20
100.776158
 40
8.914310
 50
138.658850
 51
176.317340
  0
ARC
  8
CSLAYER1
  6
CONTINUOUS
 62
     7
 10
52.773037
 20
114.523060
 40
2.025000
 50
3.610802
 51
86.326960
  0
ARC
  8
CSLAYER1
  6
CONTINUOUS
 62
     7
 10
63.689907
 20
115.223843
 40
8.914310
 50
183.658870
 51
221.317320
  0
ARC
  8
CSLAYER1
  6
CONTINUOUS
 62
     7
 10
53.473845
 20
125.439900
 40
8.914311
 50
228.658850
 51
266.317340
  0
ARC
  8
CSLAYER1
  6
CONTINUOUS
 62
     7
 10
46.250002
 20
117.224999
 40
2.025000
 50
48.630160
 51
131.369820
  0
ARC
  8
CSLAYER1
  6
CONTINUOUS
 62
     7
 10
39.026160
 20
125.439900
 40
8.914310
 50
273.658888
 51
311.317327
  0
ARC
  8
CSLAYER1
  6
CONTINUOUS
 62
     7
 10
39.726942
 20
114.523060
 40
2.025000
 50
93.610800
 51
176.369850
  0
ARC
  8
CSLAYER1
  6
CONTINUOUS
 62
     7
 10
28.810102
 20
115.223843
 40
8.914310
 50
318.658852
 51
356.317363
  0
ARC
  8
CSLAYER1
  6
CONTINUOUS
 62
     7
 10
37.025002
 20
108.000000
 40
2.025000
 50
138.630160
 51
221.369840
  0
ARC
  8
CSLAYER1
  6
CONTINUOUS
 62
     7
 10
28.810102
 20
100.776158
 40
8.914310
 50
3.658887
 51
41.317380
  0
ARC
  8
CSLAYER1
  6
CONTINUOUS
 62
     7
 10
39.726942
 20
101.476940
 40
2.025000
 50
183.610780
 51
266.369850
  0
ARC
  8
CSLAYER1
  6
CONTINUOUS
 62
     7
 10
39.026160
 20
90.560101
 40
8.914310
 50
48.658910
 51
86.317400
  0
ARC
  8
CSLAYER1
  6
CONTINUOUS
 62
     7
 10
46.250002
 20
108.000000
 40
9.224998
 50
280.382362
 51
304.617622
  0
ARC
  8
CSLAYER1
  6
CONTINUOUS
 62
     7
 10
46.250002
 20
108.000000
 40
8.224998
 50
281.661411
 51
303.338628
  0
ARC
  8
CSLAYER1
  6
CONTINUOUS
 62
     7
 10
46.250002
 20
108.000000
 40
9.224998
 50
325.382381
 51
349.617603
  0
ARC
  8
CSLAYER1
  6
CONTINUOUS
 62
     7
 10
46.250002
 20
108.000000
 40
8.224998
 50
326.661374
 51
348.338609
  0
ARC
  8
CSLAYER1
  6
CONTINUOUS
 62
     7
 10
46.250002
 20
108.000000
 40
9.224998
 50
10.382360
 51
34.617620
  0
ARC
  8
CSLAYER1
  6
CONTINUOUS
 62
     7
 10
46.250002
 20
108.000000
 40
8.224998
 50
11.661410
 51
33.338630
  0
ARC
  8
CSLAYER1
  6
CONTINUOUS
 62
     7
 10
46.250002
 20
108.000000
 40
9.224998
 50
55.382380
 51
79.617640
  0
ARC
  8
CSLAYER1
  6
CONTINUOUS
 62
     7
 10
46.250002
 20
108.000000
 40
8.224998
 50
56.661430
 51
78.338650
  0
ARC
  8
CSLAYER1
  6
CONTINUOUS
 62
     7
 10
46.250002
 20
108.000000
 40
9.224998
 50
100.382360
 51
124.617620
  0
ARC
  8
CSLAYER1
  6
CONTINUOUS
 62
     7
 10
46.250002
 20
108.000000
 40
8.224998
 50
101.661410
 51
123.338630
  0
ARC
  8
CSLAYER1
  6
CONTINUOUS
 62
     7
 10
46.250002
 20
108.000000
 40
9.224998
 50
145.382380
 51
169.617640
  0
ARC
  8
CSLAYER1
  6
CONTINUOUS
 62
     7
 10
46.250002
 20
108.000000
 40
8.224998
 50
146.661430
 51
168.338640
  0
ARC
  8
CSLAYER1
  6
CONTINUOUS
 62
     7
 10
46.250002
 20
108.000000
 40
9.224998
 50
190.382400
 51
214.617620
  0
ARC
  8
CSLAYER1
  6
CONTINUOUS
 62
     7
 10
46.250002
 20
108.000000
 40
8.224998
 50
191.661450
 51
213.338630
  0
ARC
  8
CSLAYER1
  6
CONTINUOUS
 62
     7
 10
46.250002
 20
108.000000
 40
9.224998
 50
235.382380
 51
259.617640
  0
ARC
  8
CSLAYER1
  6
CONTINUOUS
 62
     7
 10
46.250002
 20
108.000000
 40
8.224998
 50
236.661430
 51
258.338640
  0
ARC
  8
CSLAYER1
  6
CONTINUOUS
 62
     7
 10
46.250002
 20
108.000000
 40
6.974998
 50
280.741576
 51
349.258389
  0
ARC
  8
CSLAYER1
  6
CONTINUOUS
 62
     7
 10
46.250002
 20
108.000000
 40
6.974998
 50
100.741570
 51
169.258430
  0
ARC
  8
CSLAYER1
  6
CONTINUOUS
 62
     7
 10
46.250002
 20
108.000000
 40
6.974998
 50
10.741570
 51
79.258430
  0
ARC
  8
CSLAYER1
  6
CONTINUOUS
 62
     7
 10
46.250002
 20
108.000000
 40
6.974998
 50
190.741560
 51
259.258420
  0
CIRCLE
  8
CSLAYER1
  6
CONTINUOUS
 62
     7
 10
46.250002
 20
108.000000
 40
1.000000
  0
CIRCLE
  8
CSLAYER1
  6
CONTINUOUS
 62
     7
 10
46.250002
 20
108.000000
 40
0.830875
  0
ARC
  8
CSLAYER1
  6
CONTINUOUS
 62
     7
 10
46.250002
 20
108.000000
 40
5.250000
 50
285.489401
 51
344.510370
  0
ARC
  8
CSLAYER1
  6
CONTINUOUS
 62
     7
 10
46.250002
 20
108.000000
 40
5.250000
 50
195.489630
 51
254.510600
  0
ARC
  8
CSLAYER1
  6
CONTINUOUS
 62
     7
 10
46.250002
 20
108.000000
 40
5.250000
 50
15.489650
 51
74.510620
  0
ARC
  8
CSLAYER1
  6
CONTINUOUS
 62
     7
 10
46.250002
 20
108.000000
 40
5.250000
 50
105.489380
 51
164.510350
  0
ARC
  8
CSLAYER1
  6
CONTINUOUS
 62
     7
 10
60.375027
 20
108.000000
 40
20.500000
 50
183.718860
 51
189.540640
  0
ARC
  8
CSLAYER1
  6
CONTINUOUS
 62
     7
 10
32.124975
 20
108.000000
 40
20.500000
 50
350.459355
 51
356.281135
  0
ARC
  8
CSLAYER1
  6
CONTINUOUS
 62
     7
 10
60.375027
 20
108.000000
 40
20.500000
 50
170.459340
 51
176.281120
  0
ARC
  8
CSLAYER1
  6
CONTINUOUS
 62
     7
 10
32.124975
 20
108.000000
 40
20.500000
 50
3.718883
 51
9.540663
  0
CIRCLE
  8
CSLAYER1
  6
CONTINUOUS
 62
     7
 10
46.250002
 20
108.000000
 40
3.750000
  0
CIRCLE
  8
CSLAYER1
  6
CONTINUOUS
 62
     7
 10
46.250002
 20
108.000000
 40
2.250000
  0
ARC
  8
CSLAYER1
  6
CONTINUOUS
 62
     7
 10
46.250002
 20
108.000000
 40
3.062499
 50
165.615910
 51
194.384070
  0
ARC
  8
CSLAYER1
  6
CONTINUOUS
 62
     7
 10
46.250002
 20
108.000000
 40
3.312498
 50
165.615910
 51
194.384070
  0
ARC
  8
CSLAYER1
  6
CONTINUOUS
 62
     7
 10
44.736325
 20
111.155751
 40
0.625000
 50
269.910900
 51
314.093478
  0
ARC
  8
CSLAYER1
  6
CONTINUOUS
 62
     7
 10
45.006622
 20
110.592223
 40
0.625000
 50
85.428440
 51
138.357320
  0
ARC
  8
CSLAYER1
  6
CONTINUOUS
 62
     7
 10
45.006622
 20
110.592223
 40
0.550000
 50
85.428440
 51
138.357320
  0
ARC
  8
CSLAYER1
  6
CONTINUOUS
 62
     7
 10
44.736325
 20
111.155751
 40
0.550000
 50
269.910900
 51
314.093478
  0
ARC
  8
CSLAYER1
  6
CONTINUOUS
 62
     7
 10
45.067837
 20
110.813573
 40
0.148569
 50
-45.906556
 51
105.624980
  0
ARC
  8
CSLAYER1
  6
CONTINUOUS
 62
     7
 10
44.643262
 20
110.915317
 40
0.138768
 50
138.357340
 51
285.624976
  0
ARC
  8
CSLAYER1
  6
CONTINUOUS
 62
     7
 10
44.643262
 20
110.915317
 40
0.063768
 50
138.357340
 51
285.624976
  0
ARC
  8
CSLAYER1
  6
CONTINUOUS
 62
     7
 10
45.067837
 20
110.813573
 40
0.073569
 50
-45.906556
 51
105.624980
  0
ARC
  8
CSLAYER1
  6
CONTINUOUS
 62
     7
 10
44.735410
 20
110.568251
 40
0.037500
 50
90.000000
 51
270.000000
  0
ARC
  8
CSLAYER1
  6
CONTINUOUS
 62
     7
 10
45.053450
 20
111.177856
 40
0.037500
 50
-94.571570
 51
85.428440
  0
ARC
  8
CSLAYER1
  6
CONTINUOUS
 62
     7
 10
44.347542
 20
110.893017
 40
0.037500
 50
37.375050
 51
217.375010
  0
ARC
  8
CSLAYER1
  6
CONTINUOUS
 62
     7
 10
44.294117
 20
110.158051
 40
0.037500
 50
-142.625010
 51
37.375050
  0
ARC
  8
CSLAYER1
  6
CONTINUOUS
 62
     7
 10
43.959260
 20
110.596424
 40
0.037500
 50
37.375050
 51
217.375010
  0
ARC
  8
CSLAYER1
  6
CONTINUOUS
 62
     7
 10
44.682397
 20
110.454643
 40
0.037500
 50
-142.625010
 51
37.375050
  0
ARC
  8
CSLAYER1
  6
CONTINUOUS
 62
     7
 10
43.827035
 20
109.635230
 40
0.037500
 50
-29.124928
 51
150.875040
  0
ARC
  8
CSLAYER1
  6
CONTINUOUS
 62
     7
 10
43.584482
 20
109.199892
 40
0.037500
 50
150.875050
 51
330.875072
  0
ARC
  8
CSLAYER1
  6
CONTINUOUS
 62
     7
 10
43.225300
 20
109.685257
 40
0.037500
 50
60.875050
 51
240.875070
  0
ARC
  8
CSLAYER1
  6
CONTINUOUS
 62
     7
 10
43.816595
 20
110.106024
 40
0.281799
 50
49.125050
 51
229.125070
  0
ARC
  8
CSLAYER1
  6
CONTINUOUS
 62
     7
 10
43.816595
 20
110.106024
 40
0.206799
 50
49.125050
 51
229.125070
  0
ARC
  8
CSLAYER1
  6
CONTINUOUS
 62
     7
 10
44.215380
 20
110.083975
 40
0.037500
 50
-130.875000
 51
49.125050
  0
ARC
  8
CSLAYER1
  6
CONTINUOUS
 62
     7
 10
43.895635
 20
109.714527
 40
0.037500
 50
-130.875000
 51
49.125050
  0
ARC
  8
CSLAYER1
  6
CONTINUOUS
 62
     7
 10
43.999985
 20
105.910445
 40
0.193750
 50
-139.125000
 51
40.874950
  0
ARC
  8
CSLAYER1
  6
CONTINUOUS
 62
     7
 10
43.999985
 20
105.910445
 40
0.118750
 50
-139.125000
 51
40.874950
  0
ARC
  8
CSLAYER1
  6
CONTINUOUS
 62
     7
 10
43.478520
 20
105.924472
 40
0.037500
 50
130.874950
 51
310.874984
  0
ARC
  8
CSLAYER1
  6
CONTINUOUS
 62
     7
 10
44.676167
 20
105.537199
 40
0.037500
 50
-127.375000
 51
52.624950
  0
ARC
  8
CSLAYER1
  6
CONTINUOUS
 62
     7
 10
44.454752
 20
105.370884
 40
0.037500
 50
-127.375000
 51
52.624950
  0
ARC
  8
CSLAYER1
  6
CONTINUOUS
 62
     7
 10
44.352532
 20
105.113517
 40
0.037500
 50
-127.375000
 51
52.624950
  0
ARC
  8
CSLAYER1
  6
CONTINUOUS
 62
     7
 10
44.774575
 20
105.488866
 40
0.037500
 50
15.907270
 51
154.374990
  0
ARC
  8
CSLAYER1
  6
CONTINUOUS
 62
     7
 10
44.976545
 20
104.780182
 40
0.037500
 50
195.907260
 51
334.375025
  0
ARC
  8
CSLAYER1
  6
CONTINUOUS
 62
     7
 10
45.215120
 20
105.277559
 40
0.037500
 50
-25.624975
 51
154.374990
  0
ARC
  8
CSLAYER1
  6
CONTINUOUS
 62
     7
 10
44.536005
 20
104.991491
 40
0.037500
 50
154.375010
 51
334.375025
  0
ARC
  8
CSLAYER1
  6
CONTINUOUS
 62
     7
 10
48.813282
 20
109.317962
 40
0.088286
 50
90.000000
 51
270.000000
  0
ARC
  8
CSLAYER1
  6
CONTINUOUS
 62
     7
 10
49.386712
 20
109.317962
 40
0.088286
 50
-90.000000
 51
90.000000
  0
ARC
  8
CSLAYER1
  6
CONTINUOUS
 62
     7
 10
48.829065
 20
108.741763
 40
0.097486
 50
140.896200
 51
320.896220
  0
ARC
  8
CSLAYER1
  6
CONTINUOUS
 62
     7
 10
49.375002
 20
108.752313
 40
0.100000
 50
270.000000
 51
339.540724
  0
ARC
  8
CSLAYER1
  6
CONTINUOUS
 62
     7
 10
49.368797
 20
108.752313
 40
0.100000
 50
183.248890
 51
270.000000
  0
ARC
  8
CSLAYER1
  6
CONTINUOUS
 62
     7
 10
49.356302
 20
108.741349
 40
0.087500
 50
121.487860
 51
176.528700
  0
ARC
  8
CSLAYER1
  6
CONTINUOUS
 62
     7
 10
49.398422
 20
108.743577
 40
0.075000
 50
-20.459331
 51
39.103800
  0
ARC
  8
CSLAYER1
  6
CONTINUOUS
 62
     7
 10
48.813287
 20
108.438276
 40
0.088286
 50
90.000000
 51
270.000000
  0
ARC
  8
CSLAYER1
  6
CONTINUOUS
 62
     7
 10
49.386720
 20
108.438276
 40
0.088286
 50
-90.000000
 51
90.000000
  0
ARC
  8
CSLAYER1
  6
CONTINUOUS
 62
     7
 10
49.371842
 20
107.560133
 40
0.103119
 50
180.000020
 51
359.999982
  0
ARC
  8
CSLAYER1
  6
CONTINUOUS
 62
     7
 10
48.813290
 20
107.825859
 40
0.088292
 50
90.000000
 51
270.000000
  0
ARC
  8
CSLAYER1
  6
CONTINUOUS
 62
     7
 10
49.361222
 20
108.131106
 40
0.092500
 50
90.000000
 51
175.157140
  0
ARC
  8
CSLAYER1
  6
CONTINUOUS
 62
     7
 10
49.368722
 20
108.147035
 40
0.100000
 50
184.658040
 51
270.000000
  0
ARC
  8
CSLAYER1
  6
CONTINUOUS
 62
     7
 10
49.374962
 20
108.123607
 40
0.100000
 50
-0.000018
 51
90.000000
  0
ARC
  8
CSLAYER1
  6
CONTINUOUS
 62
     7
 10
48.828127
 20
106.696873
 40
0.103125
 50
180.000020
 51
359.999982
  0
ARC
  8
CSLAYER1
  6
CONTINUOUS
 62
     7
 10
48.831460
 20
107.257175
 40
0.106463
 50
42.504470
 51
180.000000
  0
ARC
  8
CSLAYER1
  6
CONTINUOUS
 62
     7
 10
48.935000
 20
107.010162
 40
0.003750
 50
42.505510
 51
179.998630
  0
ARC
  8
CSLAYER1
  6
CONTINUOUS
 62
     7
 10
49.368555
 20
106.700197
 40
0.106447
 50
222.504460
 51
359.999982
  0
ARC
  8
CSLAYER1
  6
CONTINUOUS
 62
     7
 10
49.387002
 20
106.814125
 40
0.003750
 50
222.505720
 51
359.998288
  0
ARC
  8
CSLAYER1
  6
CONTINUOUS
 62
     7
 10
49.361245
 20
107.239372
 40
0.092500
 50
90.000000
 51
175.157140
  0
ARC
  8
CSLAYER1
  6
CONTINUOUS
 62
     7
 10
49.368745
 20
107.255301
 40
0.100000
 50
184.658040
 51
270.000000
  0
ARC
  8
CSLAYER1
  6
CONTINUOUS
 62
     7
 10
49.374985
 20
107.231873
 40
0.100000
 50
-0.000018
 51
90.000000
  0
CIRCLE
  8
CSLAYER1
  6
CONTINUOUS
 62
     7
 10
43.465527
 20
106.448590
 40
0.237500
  0
CIRCLE
  8
CSLAYER1
  6
CONTINUOUS
 62
     7
 10
43.465527
 20
106.448590
 40
0.312500
  0
LINE
  8
CSLAYER1
  6
CONTINUOUS
 62
     7
 10
136.250002
 20
99.678261
 11
71.875002
 21
99.678261
  0
LINE
  8
CSLAYER1
  6
CONTINUOUS
 62
     7
 10
81.132145
 20
44.061721
 11
191.367859
 21
44.061721
  0
LINE
  8
CSLAYER1
  6
CONTINUOUS
 62
     7
 10
69.421264
 20
115.573276
 11
136.250002
 21
115.573276
  0
LINE
  8
CSLAYER1
  6
CONTINUOUS
 62
     7
 10
136.250002
 20
163.750000
 11
183.500002
 21
163.750000
  0
LINE
  8
CSLAYER1
  6
CONTINUOUS
 62
     7
 10
91.031249
 20
182.780762
 11
182.131376
 21
182.780762
  0
LINE
  8
CSLAYER1
  6
CONTINUOUS
 62
     7
 10
112.103000
 20
122.971257
 11
112.103000
 21
149.451257
  0
LINE
  8
CSLAYER1
  6
CONTINUOUS
 62
     7
 10
110.303000
 20
122.971257
 11
110.303000
 21
139.371257
  0
LINE
  8
CSLAYER1
  6
CONTINUOUS
 62
     7
 10
112.103000
 20
149.451257
 11
108.953000
 21
139.371257
  0
LINE
  8
CSLAYER1
  6
CONTINUOUS
 62
     7
 10
110.303000
 20
139.371257
 11
108.953000
 21
139.371257
  0
LINE
  8
CSLAYER1
  6
CONTINUOUS
 62
     7
 10
118.380495
 20
121.171257
 11
119.392995
 21
121.171257
  0
LINE
  8
CSLAYER1
  6
CONTINUOUS
 62
     7
 10
118.380495
 20
129.271259
 11
119.392995
 21
129.271259
  0
LINE
  8
CSLAYER1
  6
CONTINUOUS
 62
     7
 10
118.380495
 20
129.271259
 11
118.380495
 21
121.171257
  0
LINE
  8
CSLAYER1
  6
CONTINUOUS
 62
     7
 10
119.392995
 20
129.271259
 11
119.392995
 21
121.171257
  0
LINE
  8
CSLAYER1
  6
CONTINUOUS
 62
     7
 10
120.607996
 20
127.921259
 11
120.607996
 21
126.366071
  0
LINE
  8
CSLAYER1
  6
CONTINUOUS
 62
     7
 10
125.332997
 20
127.921259
 11
125.332997
 21
127.415009
  0
LINE
  8
CSLAYER1
  6
CONTINUOUS
 62
     7
 10
121.620496
 20
127.583759
 11
121.620496
 21
126.625044
  0
LINE
  8
CSLAYER1
  6
CONTINUOUS
 62
     7
 10
126.547997
 20
129.271259
 11
126.547997
 21
121.171257
  0
LINE
  8
CSLAYER1
  6
CONTINUOUS
 62
     7
 10
127.560497
 20
129.271259
 11
127.560497
 21
125.727508
  0
LINE
  8
CSLAYER1
  6
CONTINUOUS
 62
     7
 10
130.260498
 20
129.271259
 11
130.260498
 21
125.727508
  0
LINE
  8
CSLAYER1
  6
CONTINUOUS
 62
     7
 10
131.272998
 20
129.271259
 11
131.272998
 21
121.171257
  0
LINE
  8
CSLAYER1
  6
CONTINUOUS
 62
     7
 10
127.560497
 20
125.727508
 11
130.260498
 21
125.727508
  0
LINE
  8
CSLAYER1
  6
CONTINUOUS
 62
     7
 10
127.560497
 20
124.715008
 11
130.260498
 21
124.715008
  0
LINE
  8
CSLAYER1
  6
CONTINUOUS
 62
     7
 10
132.487999
 20
129.271259
 11
132.487999
 21
121.171257
  0
LINE
  8
CSLAYER1
  6
CONTINUOUS
 62
     7
 10
133.500499
 20
129.271259
 11
133.500499
 21
121.171257
  0
LINE
  8
CSLAYER1
  6
CONTINUOUS
 62
     7
 10
134.715499
 20
129.271259
 11
134.715499
 21
128.258759
  0
LINE
  8
CSLAYER1
  6
CONTINUOUS
 62
     7
 10
139.440500
 20
129.271259
 11
139.440500
 21
128.090009
  0
LINE
  8
CSLAYER1
  6
CONTINUOUS
 62
     7
 10
134.715499
 20
128.258759
 11
138.189765
 21
128.258759
  0
LINE
  8
CSLAYER1
  6
CONTINUOUS
 62
     7
 10
135.966235
 20
122.183757
 11
139.440500
 21
122.183757
  0
LINE
  8
CSLAYER1
  6
CONTINUOUS
 62
     7
 10
138.189765
 20
128.258759
 11
134.715499
 21
122.352507
  0
LINE
  8
CSLAYER1
  6
CONTINUOUS
 62
     7
 10
135.966235
 20
122.183757
 11
139.440500
 21
128.090009
  0
LINE
  8
CSLAYER1
  6
CONTINUOUS
 62
     7
 10
139.440500
 20
122.183757
 11
139.440500
 21
121.171257
  0
LINE
  8
CSLAYER1
  6
CONTINUOUS
 62
     7
 10
134.715499
 20
122.352507
 11
134.715499
 21
121.171257
  0
LINE
  8
CSLAYER1
  6
CONTINUOUS
 62
     7
 10
142.522023
 20
129.271259
 11
140.408979
 21
121.171257
  0
LINE
  8
CSLAYER1
  6
CONTINUOUS
 62
     7
 10
143.783980
 20
129.271259
 11
145.897024
 21
121.171257
  0
LINE
  8
CSLAYER1
  6
CONTINUOUS
 62
     7
 10
143.153001
 20
127.678867
 11
144.190312
 21
123.702508
  0
LINE
  8
CSLAYER1
  6
CONTINUOUS
 62
     7
 10
143.153001
 20
127.678867
 11
142.115690
 21
123.702508
  0
LINE
  8
CSLAYER1
  6
CONTINUOUS
 62
     7
 10
141.851560
 20
122.690008
 11
144.454443
 21
122.690008
  0
LINE
  8
CSLAYER1
  6
CONTINUOUS
 62
     7
 10
142.115690
 20
123.702508
 11
144.190312
 21
123.702508
  0
LINE
  8
CSLAYER1
  6
CONTINUOUS
 62
     7
 10
141.851560
 20
122.690008
 11
141.455364
 21
121.171257
  0
LINE
  8
CSLAYER1
  6
CONTINUOUS
 62
     7
 10
144.454443
 20
122.690008
 11
144.850639
 21
121.171257
  0
LINE
  8
CSLAYER1
  6
CONTINUOUS
 62
     7
 10
146.865502
 20
129.271259
 11
146.865502
 21
121.171257
  0
LINE
  8
CSLAYER1
  6
CONTINUOUS
 62
     7
 10
147.878003
 20
129.271259
 11
147.878003
 21
126.402508
  0
LINE
  8
CSLAYER1
  6
CONTINUOUS
 62
     7
 10
150.388159
 20
129.271259
 11
147.878003
 21
126.402508
  0
LINE
  8
CSLAYER1
  6
CONTINUOUS
 62
     7
 10
151.733538
 20
129.271259
 11
149.725698
 21
126.976586
  0
LINE
  8
CSLAYER1
  6
CONTINUOUS
 62
     7
 10
149.725698
 20
126.976586
 11
151.646333
 21
121.171257
  0
LINE
  8
CSLAYER1
  6
CONTINUOUS
 62
     7
 10
148.951827
 20
126.092162
 11
150.579859
 21
121.171257
  0
LINE
  8
CSLAYER1
  6
CONTINUOUS
 62
     7
 10
147.878003
 20
124.864933
 11
147.878003
 21
121.171257
  0
LINE
  8
CSLAYER1
  6
CONTINUOUS
 62
     7
 10
148.951827
 20
126.092162
 11
147.878003
 21
124.864933
  0
LINE
  8
CSLAYER1
  6
CONTINUOUS
 62
     7
 10
152.805504
 20
129.271259
 11
152.805504
 21
121.171257
  0
LINE
  8
CSLAYER1
  6
CONTINUOUS
 62
     7
 10
153.818004
 20
129.271259
 11
153.818004
 21
121.171257
  0
LINE
  8
CSLAYER1
  6
CONTINUOUS
 62
     7
 10
122.295496
 20
128.258759
 11
123.645496
 21
128.258759
  0
LINE
  8
CSLAYER1
  6
CONTINUOUS
 62
     7
 10
122.295496
 20
122.183757
 11
123.645496
 21
122.183757
  0
LINE
  8
CSLAYER1
  6
CONTINUOUS
 62
     7
 10
124.320497
 20
127.415009
 11
125.332997
 21
127.415009
  0
LINE
  8
CSLAYER1
  6
CONTINUOUS
 62
     7
 10
120.607996
 20
123.027508
 11
121.620496
 21
123.027508
  0
LINE
  8
CSLAYER1
  6
CONTINUOUS
 62
     7
 10
120.607996
 20
123.027508
 11
120.607996
 21
122.521258
  0
LINE
  8
CSLAYER1
  6
CONTINUOUS
 62
     7
 10
124.320497
 20
123.817472
 11
124.320497
 21
122.858758
  0
LINE
  8
CSLAYER1
  6
CONTINUOUS
 62
     7
 10
122.120793
 20
125.973044
 11
124.332402
 21
125.380445
  0
LINE
  8
CSLAYER1
  6
CONTINUOUS
 62
     7
 10
121.608590
 20
125.062071
 11
123.820199
 21
124.469472
  0
ARC
  8
CSLAYER1
  6
CONTINUOUS
 62
     7
 10
122.295496
 20
127.583759
 40
0.675000
 50
90.000000
 51
180.000000
  0
ARC
  8
CSLAYER1
  6
CONTINUOUS
 62
     7
 10
123.645496
 20
127.583759
 40
0.675000
 50
0.000000
 51
90.000000
  0
ARC
  8
CSLAYER1
  6
CONTINUOUS
 62
     7
 10
122.295496
 20
126.625044
 40
0.675000
 50
180.000000
 51
255.000000
  0
ARC
  8
CSLAYER1
  6
CONTINUOUS
 62
     7
 10
123.645496
 20
123.817472
 40
0.675000
 50
0.000000
 51
75.000000
  0
ARC
  8
CSLAYER1
  6
CONTINUOUS
 62
     7
 10
123.645496
 20
122.858758
 40
0.675000
 50
270.000000
 51
360.000000
  0
ARC
  8
CSLAYER1
  6
CONTINUOUS
 62
     7
 10
122.295496
 20
122.858758
 40
0.675000
 50
180.000000
 51
270.000000
  0
LINE
  8
CSLAYER1
  6
CONTINUOUS
 62
     7
 10
121.957996
 20
129.271259
 11
123.982997
 21
129.271259
  0
LINE
  8
CSLAYER1
  6
CONTINUOUS
 62
     7
 10
121.957996
 20
121.171257
 11
123.982997
 21
121.171257
  0
LINE
  8
CSLAYER1
  6
CONTINUOUS
 62
     7
 10
126.547997
 20
129.271259
 11
127.560497
 21
129.271259
  0
LINE
  8
CSLAYER1
  6
CONTINUOUS
 62
     7
 10
126.547997
 20
121.171257
 11
127.560497
 21
121.171257
  0
LINE
  8
CSLAYER1
  6
CONTINUOUS
 62
     7
 10
132.487999
 20
121.171257
 11
133.500499
 21
121.171257
  0
LINE
  8
CSLAYER1
  6
CONTINUOUS
 62
     7
 10
132.487999
 20
129.271259
 11
133.500499
 21
129.271259
  0
LINE
  8
CSLAYER1
  6
CONTINUOUS
 62
     7
 10
130.260498
 20
129.271259
 11
131.272998
 21
129.271259
  0
LINE
  8
CSLAYER1
  6
CONTINUOUS
 62
     7
 10
130.260498
 20
121.171257
 11
131.272998
 21
121.171257
  0
LINE
  8
CSLAYER1
  6
CONTINUOUS
 62
     7
 10
134.715499
 20
129.271259
 11
139.440500
 21
129.271259
  0
LINE
  8
CSLAYER1
  6
CONTINUOUS
 62
     7
 10
134.715499
 20
121.171257
 11
139.440500
 21
121.171257
  0
LINE
  8
CSLAYER1
  6
CONTINUOUS
 62
     7
 10
142.478001
 20
129.271259
 11
143.828001
 21
129.271259
  0
LINE
  8
CSLAYER1
  6
CONTINUOUS
 62
     7
 10
140.408979
 20
121.171257
 11
141.455364
 21
121.171257
  0
LINE
  8
CSLAYER1
  6
CONTINUOUS
 62
     7
 10
144.850639
 20
121.171257
 11
145.897024
 21
121.171257
  0
LINE
  8
CSLAYER1
  6
CONTINUOUS
 62
     7
 10
146.865502
 20
121.171257
 11
147.878003
 21
121.171257
  0
LINE
  8
CSLAYER1
  6
CONTINUOUS
 62
     7
 10
150.579859
 20
121.171257
 11
151.646333
 21
121.171257
  0
LINE
  8
CSLAYER1
  6
CONTINUOUS
 62
     7
 10
152.805504
 20
121.171257
 11
153.818004
 21
121.171257
  0
LINE
  8
CSLAYER1
  6
CONTINUOUS
 62
     7
 10
152.805504
 20
129.271259
 11
153.818004
 21
129.271259
  0
LINE
  8
CSLAYER1
  6
CONTINUOUS
 62
     7
 10
150.388159
 20
129.271259
 11
151.733538
 21
129.271259
  0
LINE
  8
CSLAYER1
  6
CONTINUOUS
 62
     7
 10
146.865502
 20
129.271259
 11
147.878003
 21
129.271259
  0
ARC
  8
CSLAYER1
  6
CONTINUOUS
 62
     7
 10
121.957996
 20
127.921259
 40
1.350000
 50
90.000000
 51
180.000000
  0
ARC
  8
CSLAYER1
  6
CONTINUOUS
 62
     7
 10
123.982997
 20
127.921259
 40
1.350000
 50
0.000000
 51
90.000000
  0
ARC
  8
CSLAYER1
  6
CONTINUOUS
 62
     7
 10
121.957996
 20
126.366071
 40
1.350000
 50
180.000000
 51
255.000000
  0
ARC
  8
CSLAYER1
  6
CONTINUOUS
 62
     7
 10
123.982997
 20
124.076445
 40
1.350000
 50
0.000000
 51
75.000000
  0
ARC
  8
CSLAYER1
  6
CONTINUOUS
 62
     7
 10
123.982997
 20
122.521258
 40
1.350000
 50
270.000000
 51
360.000000
  0
ARC
  8
CSLAYER1
  6
CONTINUOUS
 62
     7
 10
121.957996
 20
122.521258
 40
1.350000
 50
180.000000
 51
270.000000
  0
LINE
  8
CSLAYER1
  6
CONTINUOUS
 62
     7
 10
127.560497
 20
124.715008
 11
127.560497
 21
121.171257
  0
LINE
  8
CSLAYER1
  6
CONTINUOUS
 62
     7
 10
130.260498
 20
124.715008
 11
130.260498
 21
121.171257
  0
LINE
  8
CSLAYER1
  6
CONTINUOUS
 62
     7
 10
125.332997
 20
124.076445
 11
125.332997
 21
122.521258
  0
LINE
  8
CSLAYER1
  6
CONTINUOUS
 62
     7
 10
124.320497
 20
127.415009
 11
124.320497
 21
127.583759
  0
LINE
  8
CSLAYER1
  6
CONTINUOUS
 62
     7
 10
121.620496
 20
122.858758
 11
121.620496
 21
123.027508
  0
LINE
  8
CSLAYER1
  6
CONTINUOUS
 62
     7
 10
121.652333
 20
131.971257
 11
122.664833
 21
131.971257
  0
LINE
  8
CSLAYER1
  6
CONTINUOUS
 62
     7
 10
121.652333
 20
140.071257
 11
122.664833
 21
140.071257
  0
LINE
  8
CSLAYER1
  6
CONTINUOUS
 62
     7
 10
121.652333
 20
138.662561
 11
121.652333
 21
131.971257
  0
LINE
  8
CSLAYER1
  6
CONTINUOUS
 62
     7
 10
129.819835
 20
140.071257
 11
129.819835
 21
134.788648
  0
LINE
  8
CSLAYER1
  6
CONTINUOUS
 62
     7
 10
130.524183
 20
140.071257
 11
130.524183
 21
138.310387
  0
LINE
  8
CSLAYER1
  6
CONTINUOUS
 62
     7
 10
134.045922
 20
140.071257
 11
134.045922
 21
139.960339
  0
LINE
  8
CSLAYER1
  6
CONTINUOUS
 62
     7
 10
129.819835
 20
134.788648
 11
130.524183
 21
134.788648
  0
LINE
  8
CSLAYER1
  6
CONTINUOUS
 62
     7
 10
125.628697
 20
140.071257
 11
126.855972
 21
140.071257
  0
LINE
  8
CSLAYER1
  6
CONTINUOUS
 62
     7
 10
129.819835
 20
140.071257
 11
130.524183
 21
140.071257
  0
LINE
  8
CSLAYER1
  6
CONTINUOUS
 62
     7
 10
129.819835
 20
132.675605
 11
134.045922
 21
132.675605
  0
LINE
  8
CSLAYER1
  6
CONTINUOUS
 62
     7
 10
129.819835
 20
133.379953
 11
134.045922
 21
133.379953
  0
LINE
  8
CSLAYER1
  6
CONTINUOUS
 62
     7
 10
129.819835
 20
133.379953
 11
129.819835
 21
132.675605
  0
LINE
  8
CSLAYER1
  6
CONTINUOUS
 62
     7
 10
134.045922
 20
133.379953
 11
134.045922
 21
132.675605
  0
LINE
  8
CSLAYER1
  6
CONTINUOUS
 62
     7
 10
132.989400
 20
140.071257
 11
130.524183
 21
138.310387
  0
LINE
  8
CSLAYER1
  6
CONTINUOUS
 62
     7
 10
134.045922
 20
139.960339
 11
131.735989
 21
138.310387
  0
LINE
  8
CSLAYER1
  6
CONTINUOUS
 62
     7
 10
131.735989
 20
138.310387
 11
134.045922
 21
134.788648
  0
LINE
  8
CSLAYER1
  6
CONTINUOUS
 62
     7
 10
131.162385
 20
137.900670
 11
133.203581
 21
134.788648
  0
LINE
  8
CSLAYER1
  6
CONTINUOUS
 62
     7
 10
132.989400
 20
140.071257
 11
134.045922
 21
140.071257
  0
LINE
  8
CSLAYER1
  6
CONTINUOUS
 62
     7
 10
133.203581
 20
134.788648
 11
134.045922
 21
134.788648
  0
LINE
  8
CSLAYER1
  6
CONTINUOUS
 62
     7
 10
130.524183
 20
137.444812
 11
130.524183
 21
134.788648
  0
LINE
  8
CSLAYER1
  6
CONTINUOUS
 62
     7
 10
131.162385
 20
137.900670
 11
130.524183
 21
137.444812
  0
LINE
  8
CSLAYER1
  6
CONTINUOUS
 62
     7
 10
121.300159
 20
138.662561
 11
121.652333
 21
138.662561
  0
LINE
  8
CSLAYER1
  6
CONTINUOUS
 62
     7
 10
121.652333
 20
140.071257
 11
121.300159
 21
138.662561
  0
LINE
  8
CSLAYER1
  6
CONTINUOUS
 62
     7
 10
123.879833
 20
138.310387
 11
123.879833
 21
133.732127
  0
LINE
  8
CSLAYER1
  6
CONTINUOUS
 62
     7
 10
124.892333
 20
138.322393
 11
124.892333
 21
133.732127
  0
LINE
  8
CSLAYER1
  6
CONTINUOUS
 62
     7
 10
125.628697
 20
139.058757
 11
126.855972
 21
139.058757
  0
ARC
  8
CSLAYER1
  6
CONTINUOUS
 62
     7
 10
125.628697
 20
138.322393
 40
0.736364
 50
90.000000
 51
180.000000
  0
ARC
  8
CSLAYER1
  6
CONTINUOUS
 62
     7
 10
125.628697
 20
138.322393
 40
1.748863
 50
90.000000
 51
180.000000
  0
ARC
  8
CSLAYER1
  6
CONTINUOUS
 62
     7
 10
125.628697
 20
133.720121
 40
0.736364
 50
180.000000
 51
270.000000
  0
ARC
  8
CSLAYER1
  6
CONTINUOUS
 62
     7
 10
125.628697
 20
133.720121
 40
1.748863
 50
180.000000
 51
270.000000
  0
LINE
  8
CSLAYER1
  6
CONTINUOUS
 62
     7
 10
128.604835
 20
138.310387
 11
128.604835
 21
133.732127
  0
LINE
  8
CSLAYER1
  6
CONTINUOUS
 62
     7
 10
127.592335
 20
138.322393
 11
127.592335
 21
133.732127
  0
ARC
  8
CSLAYER1
  6
CONTINUOUS
 62
     7
 10
126.855972
 20
138.322393
 40
0.736364
 50
0.000000
 51
90.000000
  0
ARC
  8
CSLAYER1
  6
CONTINUOUS
 62
     7
 10
126.855972
 20
138.322393
 40
1.748863
 50
0.000000
 51
90.000000
  0
ARC
  8
CSLAYER1
  6
CONTINUOUS
 62
     7
 10
126.855972
 20
133.720121
 40
0.736364
 50
270.000000
 51
360.000000
  0
ARC
  8
CSLAYER1
  6
CONTINUOUS
 62
     7
 10
126.855972
 20
133.720121
 40
1.748863
 50
270.000000
 51
360.000000
  0
LINE
  8
CSLAYER1
  6
CONTINUOUS
 62
     7
 10
125.628697
 20
132.983757
 11
126.855972
 21
132.983757
  0
LINE
  8
CSLAYER1
  6
CONTINUOUS
 62
     7
 10
125.628697
 20
131.971257
 11
126.855972
 21
131.971257
  0
LINE
  8
CSLAYER1
  6
CONTINUOUS
 62
     7
 10
122.664833
 20
140.071257
 11
122.664833
 21
131.971257
  0
LINE
  8
CSLAYER1
  6
CONTINUOUS
 62
     7
 10
142.589459
 20
140.071257
 11
143.816734
 21
140.071257
  0
LINE
  8
CSLAYER1
  6
CONTINUOUS
 62
     7
 10
140.840595
 20
138.310387
 11
140.840595
 21
133.732127
  0
LINE
  8
CSLAYER1
  6
CONTINUOUS
 62
     7
 10
141.853095
 20
138.322393
 11
141.853095
 21
133.732127
  0
LINE
  8
CSLAYER1
  6
CONTINUOUS
 62
     7
 10
142.589459
 20
139.058757
 11
143.816734
 21
139.058757
  0
ARC
  8
CSLAYER1
  6
CONTINUOUS
 62
     7
 10
142.589459
 20
138.322393
 40
0.736364
 50
90.000000
 51
180.000000
  0
ARC
  8
CSLAYER1
  6
CONTINUOUS
 62
     7
 10
142.589459
 20
138.322393
 40
1.748863
 50
90.000000
 51
180.000000
  0
ARC
  8
CSLAYER1
  6
CONTINUOUS
 62
     7
 10
142.589459
 20
133.720121
 40
0.736364
 50
180.000000
 51
270.000000
  0
ARC
  8
CSLAYER1
  6
CONTINUOUS
 62
     7
 10
142.589459
 20
133.720121
 40
1.748863
 50
180.000000
 51
270.000000
  0
LINE
  8
CSLAYER1
  6
CONTINUOUS
 62
     7
 10
145.565598
 20
138.310387
 11
145.565598
 21
133.732127
  0
LINE
  8
CSLAYER1
  6
CONTINUOUS
 62
     7
 10
144.553098
 20
138.322393
 11
144.553098
 21
133.732127
  0
ARC
  8
CSLAYER1
  6
CONTINUOUS
 62
     7
 10
143.816734
 20
138.322393
 40
0.736364
 50
0.000000
 51
90.000000
  0
ARC
  8
CSLAYER1
  6
CONTINUOUS
 62
     7
 10
143.816734
 20
138.322393
 40
1.748863
 50
0.000000
 51
90.000000
  0
ARC
  8
CSLAYER1
  6
CONTINUOUS
 62
     7
 10
143.816734
 20
133.720121
 40
0.736364
 50
270.000000
 51
360.000000
  0
ARC
  8
CSLAYER1
  6
CONTINUOUS
 62
     7
 10
143.816734
 20
133.720121
 40
1.748863
 50
270.000000
 51
360.000000
  0
LINE
  8
CSLAYER1
  6
CONTINUOUS
 62
     7
 10
142.589459
 20
132.983757
 11
143.816734
 21
132.983757
  0
LINE
  8
CSLAYER1
  6
CONTINUOUS
 62
     7
 10
142.589459
 20
131.971257
 11
143.816734
 21
131.971257
  0
LINE
  8
CSLAYER1
  6
CONTINUOUS
 62
     7
 10
135.772021
 20
150.871259
 11
133.658977
 21
142.771257
  0
LINE
  8
CSLAYER1
  6
CONTINUOUS
 62
     7
 10
137.033978
 20
150.871259
 11
139.147022
 21
142.771257
  0
LINE
  8
CSLAYER1
  6
CONTINUOUS
 62
     7
 10
136.403000
 20
149.278867
 11
137.440311
 21
145.302508
  0
LINE
  8
CSLAYER1
  6
CONTINUOUS
 62
     7
 10
136.403000
 20
149.278867
 11
135.365689
 21
145.302508
  0
LINE
  8
CSLAYER1
  6
CONTINUOUS
 62
     7
 10
135.101558
 20
144.290008
 11
137.704441
 21
144.290008
  0
LINE
  8
CSLAYER1
  6
CONTINUOUS
 62
     7
 10
135.365689
 20
145.302508
 11
137.440311
 21
145.302508
  0
LINE
  8
CSLAYER1
  6
CONTINUOUS
 62
     7
 10
135.101558
 20
144.290008
 11
134.705362
 21
142.771257
  0
LINE
  8
CSLAYER1
  6
CONTINUOUS
 62
     7
 10
137.704441
 20
144.290008
 11
138.100637
 21
142.771257
  0
LINE
  8
CSLAYER1
  6
CONTINUOUS
 62
     7
 10
135.727999
 20
150.871259
 11
137.078000
 21
150.871259
  0
LINE
  8
CSLAYER1
  6
CONTINUOUS
 62
     7
 10
133.658977
 20
142.771257
 11
134.705362
 21
142.771257
  0
LINE
  8
CSLAYER1
  6
CONTINUOUS
 62
     7
 10
138.100637
 20
142.771257
 11
139.147022
 21
142.771257
  0
LINE
  8
CSLAYER1
  6
CONTINUOUS
 62
     7
 10
127.718976
 20
150.871259
 11
127.718976
 21
142.771257
  0
LINE
  8
CSLAYER1
  6
CONTINUOUS
 62
     7
 10
132.443977
 20
149.521259
 11
132.443977
 21
149.015009
  0
LINE
  8
CSLAYER1
  6
CONTINUOUS
 62
     7
 10
128.731476
 20
147.327507
 11
128.731476
 21
149.858759
  0
LINE
  8
CSLAYER1
  6
CONTINUOUS
 62
     7
 10
128.731476
 20
149.858759
 11
130.756477
 21
149.858759
  0
ARC
  8
CSLAYER1
  6
CONTINUOUS
 62
     7
 10
130.756477
 20
149.183759
 40
0.675000
 50
0.000000
 51
90.000000
  0
LINE
  8
CSLAYER1
  6
CONTINUOUS
 62
     7
 10
127.718976
 20
150.871259
 11
131.093977
 21
150.871259
  0
ARC
  8
CSLAYER1
  6
CONTINUOUS
 62
     7
 10
131.093977
 20
149.521259
 40
1.350000
 50
0.000000
 51
90.000000
  0
LINE
  8
CSLAYER1
  6
CONTINUOUS
 62
     7
 10
131.431477
 20
149.015009
 11
131.431477
 21
149.183759
  0
LINE
  8
CSLAYER1
  6
CONTINUOUS
 62
     7
 10
127.718976
 20
142.771257
 11
128.731476
 21
142.771257
  0
LINE
  8
CSLAYER1
  6
CONTINUOUS
 62
     7
 10
131.431477
 20
149.015009
 11
131.431477
 21
148.002507
  0
LINE
  8
CSLAYER1
  6
CONTINUOUS
 62
     7
 10
132.443977
 20
149.015009
 11
132.443977
 21
147.665007
  0
ARC
  8
CSLAYER1
  6
CONTINUOUS
 62
     7
 10
130.756477
 20
148.002507
 40
0.675000
 50
270.000000
 51
360.000000
  0
ARC
  8
CSLAYER1
  6
CONTINUOUS
 62
     7
 10
131.093977
 20
147.665007
 40
1.350000
 50
270.000000
 51
360.000000
  0
LINE
  8
CSLAYER1
  6
CONTINUOUS
 62
     7
 10
130.756477
 20
147.327507
 11
128.731476
 21
147.327507
  0
LINE
  8
CSLAYER1
  6
CONTINUOUS
 62
     7
 10
131.093977
 20
146.315007
 11
128.731476
 21
146.315007
  0
LINE
  8
CSLAYER1
  6
CONTINUOUS
 62
     7
 10
128.731476
 20
146.315007
 11
128.731476
 21
142.771257
  0
LINE
  8
CSLAYER1
  6
CONTINUOUS
 62
     7
 10
140.362022
 20
150.871259
 11
140.362022
 21
149.858759
  0
LINE
  8
CSLAYER1
  6
CONTINUOUS
 62
     7
 10
145.087023
 20
150.871259
 11
145.087023
 21
149.858759
  0
LINE
  8
CSLAYER1
  6
CONTINUOUS
 62
     7
 10
140.362022
 20
150.871259
 11
145.087023
 21
150.871259
  0
LINE
  8
CSLAYER1
  6
CONTINUOUS
 62
     7
 10
142.218273
 20
149.858759
 11
142.218273
 21
142.771257
  0
LINE
  8
CSLAYER1
  6
CONTINUOUS
 62
     7
 10
143.230773
 20
149.858759
 11
143.230773
 21
142.771257
  0
LINE
  8
CSLAYER1
  6
CONTINUOUS
 62
     7
 10
142.218273
 20
142.771257
 11
143.230773
 21
142.771257
  0
LINE
  8
CSLAYER1
  6
CONTINUOUS
 62
     7
 10
142.218273
 20
150.871259
 11
143.230773
 21
150.871259
  0
LINE
  8
CSLAYER1
  6
CONTINUOUS
 62
     7
 10
140.362022
 20
149.858759
 11
142.218273
 21
149.858759
  0
LINE
  8
CSLAYER1
  6
CONTINUOUS
 62
     7
 10
143.230773
 20
149.858759
 11
145.087023
 21
149.858759
  0
LINE
  8
CSLAYER1
  6
CONTINUOUS
 62
     7
 10
142.218273
 20
142.771257
 11
143.230773
 21
142.771257
  0
LINE
  8
CSLAYER1
  6
CONTINUOUS
 62
     7
 10
148.529461
 20
140.071257
 11
149.756736
 21
140.071257
  0
LINE
  8
CSLAYER1
  6
CONTINUOUS
 62
     7
 10
146.780598
 20
138.310387
 11
146.780598
 21
133.732127
  0
LINE
  8
CSLAYER1
  6
CONTINUOUS
 62
     7
 10
147.793097
 20
138.322393
 11
147.793097
 21
133.732127
  0
LINE
  8
CSLAYER1
  6
CONTINUOUS
 62
     7
 10
148.529461
 20
139.058757
 11
149.756736
 21
139.058757
  0
ARC
  8
CSLAYER1
  6
CONTINUOUS
 62
     7
 10
148.529461
 20
138.322393
 40
0.736364
 50
90.000000
 51
180.000000
  0
ARC
  8
CSLAYER1
  6
CONTINUOUS
 62
     7
 10
148.529461
 20
138.322393
 40
1.748863
 50
90.000000
 51
180.000000
  0
ARC
  8
CSLAYER1
  6
CONTINUOUS
 62
     7
 10
148.529461
 20
133.720121
 40
0.736364
 50
180.000000
 51
270.000000
  0
ARC
  8
CSLAYER1
  6
CONTINUOUS
 62
     7
 10
148.529461
 20
133.720121
 40
1.748863
 50
180.000000
 51
270.000000
  0
LINE
  8
CSLAYER1
  6
CONTINUOUS
 62
     7
 10
151.505600
 20
138.310387
 11
151.505600
 21
133.732127
  0
LINE
  8
CSLAYER1
  6
CONTINUOUS
 62
     7
 10
150.493100
 20
138.322393
 11
150.493100
 21
133.732127
  0
ARC
  8
CSLAYER1
  6
CONTINUOUS
 62
     7
 10
149.756736
 20
138.322393
 40
0.736364
 50
0.000000
 51
90.000000
  0
ARC
  8
CSLAYER1
  6
CONTINUOUS
 62
     7
 10
149.756736
 20
138.322393
 40
1.748863
 50
0.000000
 51
90.000000
  0
ARC
  8
CSLAYER1
  6
CONTINUOUS
 62
     7
 10
149.756736
 20
133.720121
 40
0.736364
 50
270.000000
 51
360.000000
  0
ARC
  8
CSLAYER1
  6
CONTINUOUS
 62
     7
 10
149.756736
 20
133.720121
 40
1.748863
 50
270.000000
 51
360.000000
  0
LINE
  8
CSLAYER1
  6
CONTINUOUS
 62
     7
 10
148.529461
 20
132.983757
 11
149.756736
 21
132.983757
  0
LINE
  8
CSLAYER1
  6
CONTINUOUS
 62
     7
 10
148.529461
 20
131.971257
 11
149.756736
 21
131.971257
  0
LINE
  8
CSLAYER1
  6
CONTINUOUS
 62
     7
 10
136.707254
 20
140.071257
 11
137.934529
 21
140.071257
  0
LINE
  8
CSLAYER1
  6
CONTINUOUS
 62
     7
 10
136.707254
 20
139.058757
 11
137.934529
 21
139.058757
  0
ARC
  8
CSLAYER1
  6
CONTINUOUS
 62
     7
 10
136.707254
 20
138.322393
 40
0.736364
 50
90.000000
 51
180.000000
  0
ARC
  8
CSLAYER1
  6
CONTINUOUS
 62
     7
 10
136.707254
 20
138.322393
 40
1.748863
 50
90.000000
 51
180.000000
  0
ARC
  8
CSLAYER1
  6
CONTINUOUS
 62
     7
 10
136.707254
 20
133.720121
 40
0.736364
 50
180.000000
 51
270.000000
  0
ARC
  8
CSLAYER1
  6
CONTINUOUS
 62
     7
 10
136.707254
 20
133.720121
 40
1.748863
 50
180.000000
 51
270.000000
  0
LINE
  8
CSLAYER1
  6
CONTINUOUS
 62
     7
 10
139.683392
 20
138.310387
 11
139.683392
 21
136.771257
  0
LINE
  8
CSLAYER1
  6
CONTINUOUS
 62
     7
 10
138.670892
 20
138.322393
 11
138.670892
 21
137.277507
  0
ARC
  8
CSLAYER1
  6
CONTINUOUS
 62
     7
 10
137.934529
 20
138.322393
 40
0.736364
 50
0.000000
 51
90.000000
  0
ARC
  8
CSLAYER1
  6
CONTINUOUS
 62
     7
 10
137.934529
 20
138.322393
 40
1.748863
 50
0.000000
 51
90.000000
  0
ARC
  8
CSLAYER1
  6
CONTINUOUS
 62
     7
 10
137.934529
 20
133.720121
 40
0.736364
 50
270.000000
 51
360.000000
  0
ARC
  8
CSLAYER1
  6
CONTINUOUS
 62
     7
 10
137.934529
 20
133.720121
 40
1.748863
 50
270.000000
 51
360.000000
  0
LINE
  8
CSLAYER1
  6
CONTINUOUS
 62
     7
 10
136.707254
 20
132.983757
 11
137.934529
 21
132.983757
  0
LINE
  8
CSLAYER1
  6
CONTINUOUS
 62
     7
 10
136.707254
 20
131.971257
 11
137.934529
 21
131.971257
  0
LINE
  8
CSLAYER1
  6
CONTINUOUS
 62
     7
 10
134.958390
 20
138.310387
 11
135.970890
 21
138.310387
  0
LINE
  8
CSLAYER1
  6
CONTINUOUS
 62
     7
 10
134.958390
 20
133.720121
 11
135.970890
 21
133.720121
  0
LINE
  8
CSLAYER1
  6
CONTINUOUS
 62
     7
 10
136.707254
 20
136.527507
 11
137.920892
 21
136.527507
  0
LINE
  8
CSLAYER1
  6
CONTINUOUS
 62
     7
 10
136.707254
 20
135.515007
 11
137.920892
 21
135.515007
  0
LINE
  8
CSLAYER1
  6
CONTINUOUS
 62
     7
 10
136.707254
 20
136.527507
 11
136.707254
 21
135.515007
  0
LINE
  8
CSLAYER1
  6
CONTINUOUS
 62
     7
 10
139.683392
 20
133.720121
 11
139.683392
 21
135.271257
  0
ARC
  8
CSLAYER1
  6
CONTINUOUS
 62
     7
 10
137.920892
 20
137.277507
 40
0.750000
 50
270.000000
 51
360.000000
  0
LINE
  8
CSLAYER1
  6
CONTINUOUS
 62
     7
 10
138.670892
 20
133.720121
 11
138.670892
 21
134.765007
  0
ARC
  8
CSLAYER1
  6
CONTINUOUS
 62
     7
 10
137.920892
 20
134.765007
 40
0.750000
 50
0.000000
 51
90.000000
  0
ARC
  8
CSLAYER1
  6
CONTINUOUS
 62
     7
 10
138.933392
 20
135.271257
 40
0.750000
 50
0.000000
 51
58.997281
  0
ARC
  8
CSLAYER1
  6
CONTINUOUS
 62
     7
 10
138.933392
 20
136.771257
 40
0.750000
 50
301.002719
 51
360.000000
  0
ARC
  8
CSLAYER1
  6
CONTINUOUS
 62
     7
 10
139.384086
 20
136.021257
 40
0.125000
 50
121.002719
 51
238.997281
  0
LINE
  8
CSLAYER1
  6
CONTINUOUS
 62
     7
 10
72.000002
 20
125.500000
 11
72.000002
 21
119.244397
  0
LINE
  8
CSLAYER1
  6
CONTINUOUS
 62
     7
 10
67.000002
 20
118.250000
 11
67.000002
 21
122.500000
  0
LINE
  8
CSLAYER1
  6
CONTINUOUS
 62
     7
 10
66.000002
 20
118.125000
 11
66.000002
 21
122.500000
  0
LINE
  8
CSLAYER1
  6
CONTINUOUS
 62
     7
 10
62.750002
 20
117.875000
 11
65.750002
 21
117.875000
  0
ARC
  8
CSLAYER1
  6
CONTINUOUS
 62
     7
 10
62.750002
 20
118.375000
 40
0.500000
 50
180.000000
 51
270.000000
  0
ARC
  8
CSLAYER1
  6
CONTINUOUS
 62
     7
 10
65.750002
 20
118.125000
 40
0.250000
 50
270.000000
 51
360.000000
  0
LINE
  8
CSLAYER1
  6
CONTINUOUS
 62
     7
 10
66.967525
 20
118.125000
 11
66.500002
 21
118.125000
  0
LINE
  8
CSLAYER1
  6
CONTINUOUS
 62
     7
 10
59.705002
 20
119.500000
 11
59.705002
 21
122.500000
  0
LINE
  8
CSLAYER1
  6
CONTINUOUS
 62
     7
 10
59.705002
 20
119.500000
 11
59.972952
 21
119.035899
  0
ARC
  8
CSLAYER1
  6
CONTINUOUS
 62
     7
 10
61.695496
 20
119.901924
 40
1.927993
 50
153.308604
 51
206.691396
  0
ARC
  8
CSLAYER1
  6
CONTINUOUS
 62
     7
 10
67.171302
 20
122.500000
 40
7.403800
 50
180.000000
 51
193.529195
  0
LINE
  8
CSLAYER1
  6
CONTINUOUS
 62
     7
 10
59.705002
 20
125.500000
 11
59.705002
 21
122.500000
  0
LINE
  8
CSLAYER1
  6
CONTINUOUS
 62
     7
 10
59.705002
 20
125.500000
 11
59.972952
 21
125.964102
  0
ARC
  8
CSLAYER1
  6
CONTINUOUS
 62
     7
 10
61.695496
 20
125.098076
 40
1.927993
 50
153.308604
 51
206.691396
  0
ARC
  8
CSLAYER1
  6
CONTINUOUS
 62
     7
 10
67.171302
 20
122.500000
 40
7.403800
 50
166.470805
 51
180.000000
  0
LINE
  8
CSLAYER1
  6
CONTINUOUS
 62
     7
 10
59.972952
 20
125.964102
 11
62.250002
 21
125.964102
  0
LINE
  8
CSLAYER1
  6
CONTINUOUS
 62
     7
 10
59.972952
 20
124.232051
 11
62.250002
 21
124.232051
  0
LINE
  8
CSLAYER1
  6
CONTINUOUS
 62
     7
 10
59.972952
 20
120.767949
 11
62.250002
 21
120.767949
  0
LINE
  8
CSLAYER1
  6
CONTINUOUS
 62
     7
 10
59.972952
 20
119.035899
 11
62.250002
 21
119.035899
  0
LINE
  8
CSLAYER1
  6
CONTINUOUS
 62
     7
 10
75.250002
 20
120.500000
 11
76.875002
 21
120.500000
  0
LINE
  8
CSLAYER1
  6
CONTINUOUS
 62
     7
 10
76.875002
 20
120.500000
 11
77.250002
 21
120.875000
  0
LINE
  8
CSLAYER1
  6
CONTINUOUS
 62
     7
 10
77.250002
 20
120.875000
 11
77.250002
 21
122.500000
  0
LINE
  8
CSLAYER1
  6
CONTINUOUS
 62
     7
 10
77.250002
 20
124.125000
 11
77.250002
 21
122.500000
  0
LINE
  8
CSLAYER1
  6
CONTINUOUS
 62
     7
 10
76.875002
 20
124.500000
 11
77.250002
 21
124.125000
  0
LINE
  8
CSLAYER1
  6
CONTINUOUS
 62
     7
 10
75.250002
 20
124.500000
 11
76.875002
 21
124.500000
  0
LINE
  8
CSLAYER1
  6
CONTINUOUS
 62
     7
 10
75.250002
 20
124.250000
 11
77.125002
 21
124.250000
  0
LINE
  8
CSLAYER1
  6
CONTINUOUS
 62
     7
 10
76.875002
 20
124.500000
 11
76.875002
 21
122.500000
  0
LINE
  8
CSLAYER1
  6
CONTINUOUS
 62
     7
 10
76.875002
 20
120.500000
 11
76.875002
 21
122.500000
  0
LINE
  8
CSLAYER1
  6
CONTINUOUS
 62
     7
 10
75.250002
 20
120.750000
 11
77.125002
 21
120.750000
  0
LINE
  8
CSLAYER1
  6
CONTINUOUS
 62
     7
 10
75.250002
 20
119.500000
 11
75.250002
 21
122.500000
  0
ARC
  8
CSLAYER1
  6
CONTINUOUS
 62
     7
 10
73.259509
 20
119.901924
 40
1.927993
 50
-19.940387
 51
26.691396
  0
ARC
  8
CSLAYER1
  6
CONTINUOUS
 62
     7
 10
67.783703
 20
122.500000
 40
7.403800
 50
346.470805
 51
360.000000
  0
LINE
  8
CSLAYER1
  6
CONTINUOUS
 62
     7
 10
75.250002
 20
125.500000
 11
75.250002
 21
122.500000
  0
LINE
  8
CSLAYER1
  6
CONTINUOUS
 62
     7
 10
75.250002
 20
125.500000
 11
74.982053
 21
125.964102
  0
ARC
  8
CSLAYER1
  6
CONTINUOUS
 62
     7
 10
73.259509
 20
125.098076
 40
1.927993
 50
-26.691396
 51
26.691396
  0
ARC
  8
CSLAYER1
  6
CONTINUOUS
 62
     7
 10
67.783703
 20
122.500000
 40
7.403800
 50
0.000000
 51
13.529195
  0
LINE
  8
CSLAYER1
  6
CONTINUOUS
 62
     7
 10
72.000002
 20
125.964102
 11
74.982053
 21
125.964102
  0
LINE
  8
CSLAYER1
  6
CONTINUOUS
 62
     7
 10
72.000002
 20
124.232051
 11
74.982053
 21
124.232051
  0
LINE
  8
CSLAYER1
  6
CONTINUOUS
 62
     7
 10
72.000002
 20
120.767949
 11
74.982053
 21
120.767949
  0
LINE
  8
CSLAYER1
  6
CONTINUOUS
 62
     7
 10
67.000002
 20
120.125000
 11
67.000002
 21
118.883553
  0
LINE
  8
CSLAYER1
  6
CONTINUOUS
 62
     7
 10
66.500002
 20
122.500000
 11
66.500002
 21
118.125000
  0
LINE
  8
CSLAYER1
  6
CONTINUOUS
 62
     7
 10
59.705002
 20
136.750000
 11
59.705002
 21
133.750000
  0
LINE
  8
CSLAYER1
  6
CONTINUOUS
 62
     7
 10
59.705002
 20
136.750000
 11
59.972952
 21
137.214102
  0
ARC
  8
CSLAYER1
  6
CONTINUOUS
 62
     7
 10
61.695496
 20
136.348076
 40
1.927993
 50
153.308604
 51
206.691396
  0
ARC
  8
CSLAYER1
  6
CONTINUOUS
 62
     7
 10
67.171302
 20
133.750000
 40
7.403800
 50
166.470805
 51
180.000000
  0
LINE
  8
CSLAYER1
  6
CONTINUOUS
 62
     7
 10
59.705002
 20
130.750000
 11
59.705002
 21
133.750000
  0
LINE
  8
CSLAYER1
  6
CONTINUOUS
 62
     7
 10
59.705002
 20
130.750000
 11
59.972952
 21
130.285899
  0
ARC
  8
CSLAYER1
  6
CONTINUOUS
 62
     7
 10
61.695496
 20
131.151924
 40
1.927993
 50
153.308604
 51
206.691396
  0
ARC
  8
CSLAYER1
  6
CONTINUOUS
 62
     7
 10
67.171302
 20
133.750000
 40
7.403800
 50
180.000000
 51
193.529195
  0
LINE
  8
CSLAYER1
  6
CONTINUOUS
 62
     7
 10
59.972952
 20
130.285899
 11
62.250002
 21
130.285899
  0
LINE
  8
CSLAYER1
  6
CONTINUOUS
 62
     7
 10
59.972952
 20
132.017949
 11
62.250002
 21
132.017949
  0
LINE
  8
CSLAYER1
  6
CONTINUOUS
 62
     7
 10
59.972952
 20
135.482051
 11
62.250002
 21
135.482051
  0
LINE
  8
CSLAYER1
  6
CONTINUOUS
 62
     7
 10
59.972952
 20
137.214102
 11
62.250002
 21
137.214102
  0
LINE
  8
CSLAYER1
  6
CONTINUOUS
 62
     7
 10
60.750002
 20
130.285899
 11
60.750002
 21
129.577391
  0
LINE
  8
CSLAYER1
  6
CONTINUOUS
 62
     7
 10
75.250002
 20
135.750000
 11
76.875002
 21
135.750000
  0
LINE
  8
CSLAYER1
  6
CONTINUOUS
 62
     7
 10
76.875002
 20
135.750000
 11
77.250002
 21
135.375000
  0
LINE
  8
CSLAYER1
  6
CONTINUOUS
 62
     7
 10
77.250002
 20
135.375000
 11
77.250002
 21
133.750000
  0
LINE
  8
CSLAYER1
  6
CONTINUOUS
 62
     7
 10
77.250002
 20
132.125000
 11
77.250002
 21
133.750000
  0
LINE
  8
CSLAYER1
  6
CONTINUOUS
 62
     7
 10
76.875002
 20
131.750000
 11
77.250002
 21
132.125000
  0
LINE
  8
CSLAYER1
  6
CONTINUOUS
 62
     7
 10
75.250002
 20
131.750000
 11
76.875002
 21
131.750000
  0
LINE
  8
CSLAYER1
  6
CONTINUOUS
 62
     7
 10
75.250002
 20
132.000000
 11
77.125002
 21
132.000000
  0
LINE
  8
CSLAYER1
  6
CONTINUOUS
 62
     7
 10
76.875002
 20
131.750000
 11
76.875002
 21
133.750000
  0
LINE
  8
CSLAYER1
  6
CONTINUOUS
 62
     7
 10
76.875002
 20
135.750000
 11
76.875002
 21
133.750000
  0
LINE
  8
CSLAYER1
  6
CONTINUOUS
 62
     7
 10
75.250002
 20
135.500000
 11
77.125002
 21
135.500000
  0
LINE
  8
CSLAYER1
  6
CONTINUOUS
 62
     7
 10
75.250002
 20
136.750000
 11
75.250002
 21
133.750000
  0
LINE
  8
CSLAYER1
  6
CONTINUOUS
 62
     7
 10
75.250002
 20
136.750000
 11
74.982053
 21
137.214102
  0
ARC
  8
CSLAYER1
  6
CONTINUOUS
 62
     7
 10
73.259509
 20
136.348076
 40
1.927993
 50
-26.691396
 51
26.691396
  0
ARC
  8
CSLAYER1
  6
CONTINUOUS
 62
     7
 10
67.783703
 20
133.750000
 40
7.403800
 50
0.000000
 51
13.529195
  0
LINE
  8
CSLAYER1
  6
CONTINUOUS
 62
     7
 10
75.250002
 20
130.750000
 11
75.250002
 21
133.750000
  0
LINE
  8
CSLAYER1
  6
CONTINUOUS
 62
     7
 10
75.250002
 20
130.750000
 11
74.982053
 21
130.285899
  0
ARC
  8
CSLAYER1
  6
CONTINUOUS
 62
     7
 10
73.259509
 20
131.151924
 40
1.927993
 50
-26.691396
 51
26.691396
  0
ARC
  8
CSLAYER1
  6
CONTINUOUS
 62
     7
 10
67.783703
 20
133.750000
 40
7.403800
 50
346.470805
 51
360.000000
  0
LINE
  8
CSLAYER1
  6
CONTINUOUS
 62
     7
 10
72.000002
 20
130.285899
 11
74.982053
 21
130.285899
  0
LINE
  8
CSLAYER1
  6
CONTINUOUS
 62
     7
 10
72.000002
 20
132.017949
 11
74.982053
 21
132.017949
  0
LINE
  8
CSLAYER1
  6
CONTINUOUS
 62
     7
 10
72.000002
 20
135.482051
 11
74.982053
 21
135.482051
  0
LINE
  8
CSLAYER1
  6
CONTINUOUS
 62
     7
 10
72.000002
 20
137.214102
 11
74.982053
 21
137.214102
  0
LINE
  8
CSLAYER1
  6
CONTINUOUS
 62
     7
 10
66.138199
 20
142.305902
 11
66.500002
 21
142.125000
  0
ARC
  8
CSLAYER1
  6
CONTINUOUS
 62
     7
 10
66.250002
 20
142.529509
 40
0.250000
 50
180.000000
 51
243.434949
  0
LINE
  8
CSLAYER1
  6
CONTINUOUS
 62
     7
 10
76.750002
 20
48.750000
 11
72.750002
 21
48.750000
  0
LINE
  8
CSLAYER1
  6
CONTINUOUS
 62
     7
 10
77.250002
 20
56.250000
 11
77.250002
 21
49.250000
  0
ARC
  8
CSLAYER1
  6
CONTINUOUS
 62
     7
 10
76.750002
 20
49.250000
 40
0.500000
 50
270.000000
 51
360.000000
  0
LINE
  8
CSLAYER1
  6
CONTINUOUS
 62
     7
 10
72.750002
 20
48.750000
 11
72.500002
 21
49.000000
  0
LINE
  8
CSLAYER1
  6
CONTINUOUS
 62
     7
 10
71.375002
 20
55.812500
 11
71.875002
 21
55.812500
  0
LINE
  8
CSLAYER1
  6
CONTINUOUS
 62
     7
 10
71.250002
 20
55.937500
 11
71.375002
 21
55.812500
  0
LINE
  8
CSLAYER1
  6
CONTINUOUS
 62
     7
 10
71.875002
 20
55.812500
 11
72.000002
 21
55.937500
  0
LINE
  8
CSLAYER1
  6
CONTINUOUS
 62
     7
 10
67.875002
 20
48.750000
 11
71.000002
 21
48.750000
  0
LINE
  8
CSLAYER1
  6
CONTINUOUS
 62
     7
 10
67.625002
 20
49.000000
 11
67.875002
 21
48.750000
  0
LINE
  8
CSLAYER1
  6
CONTINUOUS
 62
     7
 10
71.000002
 20
48.750000
 11
71.250002
 21
49.000000
  0
LINE
  8
CSLAYER1
  6
CONTINUOUS
 62
     7
 10
72.000002
 20
48.875000
 11
72.500002
 21
48.875000
  0
LINE
  8
CSLAYER1
  6
CONTINUOUS
 62
     7
 10
72.750002
 20
48.750000
 11
72.500002
 21
49.000000
  0
LINE
  8
CSLAYER1
  6
CONTINUOUS
 62
     7
 10
71.000002
 20
48.750000
 11
71.250002
 21
49.000000
  0
LINE
  8
CSLAYER1
  6
CONTINUOUS
 62
     7
 10
72.000002
 20
48.875000
 11
72.500002
 21
48.875000
  0
LINE
  8
CSLAYER1
  6
CONTINUOUS
 62
     7
 10
72.500002
 20
61.375000
 11
72.500002
 21
49.000000
  0
LINE
  8
CSLAYER1
  6
CONTINUOUS
 62
     7
 10
72.000002
 20
64.500000
 11
72.000002
 21
48.875000
  0
LINE
  8
CSLAYER1
  6
CONTINUOUS
 62
     7
 10
71.250002
 20
64.500000
 11
71.250002
 21
49.000000
  0
LINE
  8
CSLAYER1
  6
CONTINUOUS
 62
     7
 10
65.080002
 20
78.750000
 11
65.080002
 21
75.750000
  0
LINE
  8
CSLAYER1
  6
CONTINUOUS
 62
     7
 10
65.080002
 20
78.750000
 11
65.347952
 21
79.214102
  0
ARC
  8
CSLAYER1
  6
CONTINUOUS
 62
     7
 10
67.070496
 20
78.348076
 40
1.927993
 50
153.308604
 51
206.691396
  0
ARC
  8
CSLAYER1
  6
CONTINUOUS
 62
     7
 10
72.546302
 20
75.750000
 40
7.403800
 50
166.470805
 51
180.000000
  0
LINE
  8
CSLAYER1
  6
CONTINUOUS
 62
     7
 10
65.080002
 20
72.750000
 11
65.080002
 21
75.750000
  0
LINE
  8
CSLAYER1
  6
CONTINUOUS
 62
     7
 10
65.080002
 20
72.750000
 11
65.347952
 21
72.285899
  0
ARC
  8
CSLAYER1
  6
CONTINUOUS
 62
     7
 10
67.070496
 20
73.151924
 40
1.927993
 50
153.308604
 51
206.691396
  0
ARC
  8
CSLAYER1
  6
CONTINUOUS
 62
     7
 10
72.546302
 20
75.750000
 40
7.403800
 50
180.000000
 51
193.529195
  0
LINE
  8
CSLAYER1
  6
CONTINUOUS
 62
     7
 10
65.347952
 20
72.285899
 11
67.625002
 21
72.285899
  0
LINE
  8
CSLAYER1
  6
CONTINUOUS
 62
     7
 10
65.347952
 20
74.017949
 11
67.625002
 21
74.017949
  0
LINE
  8
CSLAYER1
  6
CONTINUOUS
 62
     7
 10
65.347952
 20
77.482051
 11
67.625002
 21
77.482051
  0
LINE
  8
CSLAYER1
  6
CONTINUOUS
 62
     7
 10
65.347952
 20
79.214102
 11
67.625002
 21
79.214102
  0
LINE
  8
CSLAYER1
  6
CONTINUOUS
 62
     7
 10
80.625002
 20
77.750000
 11
82.250002
 21
77.750000
  0
LINE
  8
CSLAYER1
  6
CONTINUOUS
 62
     7
 10
82.250002
 20
77.750000
 11
82.625002
 21
77.375000
  0
LINE
  8
CSLAYER1
  6
CONTINUOUS
 62
     7
 10
82.625002
 20
77.375000
 11
82.625002
 21
75.750000
  0
LINE
  8
CSLAYER1
  6
CONTINUOUS
 62
     7
 10
82.625002
 20
74.125000
 11
82.625002
 21
75.750000
  0
LINE
  8
CSLAYER1
  6
CONTINUOUS
 62
     7
 10
82.250002
 20
73.750000
 11
82.625002
 21
74.125000
  0
LINE
  8
CSLAYER1
  6
CONTINUOUS
 62
     7
 10
80.625002
 20
73.750000
 11
82.250002
 21
73.750000
  0
LINE
  8
CSLAYER1
  6
CONTINUOUS
 62
     7
 10
80.625002
 20
74.000000
 11
82.500002
 21
74.000000
  0
LINE
  8
CSLAYER1
  6
CONTINUOUS
 62
     7
 10
82.250002
 20
73.750000
 11
82.250002
 21
75.750000
  0
LINE
  8
CSLAYER1
  6
CONTINUOUS
 62
     7
 10
82.250002
 20
77.750000
 11
82.250002
 21
75.750000
  0
LINE
  8
CSLAYER1
  6
CONTINUOUS
 62
     7
 10
80.625002
 20
77.500000
 11
82.500002
 21
77.500000
  0
LINE
  8
CSLAYER1
  6
CONTINUOUS
 62
     7
 10
80.625002
 20
78.750000
 11
80.625002
 21
75.750000
  0
LINE
  8
CSLAYER1
  6
CONTINUOUS
 62
     7
 10
80.625002
 20
78.750000
 11
80.357053
 21
79.214102
  0
ARC
  8
CSLAYER1
  6
CONTINUOUS
 62
     7
 10
78.634509
 20
78.348076
 40
1.927993
 50
-26.691396
 51
26.691396
  0
ARC
  8
CSLAYER1
  6
CONTINUOUS
 62
     7
 10
73.158703
 20
75.750000
 40
7.403800
 50
0.000000
 51
13.529195
  0
LINE
  8
CSLAYER1
  6
CONTINUOUS
 62
     7
 10
80.625002
 20
72.750000
 11
80.625002
 21
75.750000
  0
LINE
  8
CSLAYER1
  6
CONTINUOUS
 62
     7
 10
80.625002
 20
72.750000
 11
80.357053
 21
72.285899
  0
ARC
  8
CSLAYER1
  6
CONTINUOUS
 62
     7
 10
78.634509
 20
73.151924
 40
1.927993
 50
-26.691396
 51
26.691396
  0
ARC
  8
CSLAYER1
  6
CONTINUOUS
 62
     7
 10
73.158703
 20
75.750000
 40
7.403800
 50
346.470805
 51
360.000000
  0
LINE
  8
CSLAYER1
  6
CONTINUOUS
 62
     7
 10
77.375002
 20
72.285899
 11
80.357053
 21
72.285899
  0
LINE
  8
CSLAYER1
  6
CONTINUOUS
 62
     7
 10
77.375002
 20
74.017949
 11
80.357053
 21
74.017949
  0
LINE
  8
CSLAYER1
  6
CONTINUOUS
 62
     7
 10
77.375002
 20
77.482051
 11
80.357053
 21
77.482051
  0
LINE
  8
CSLAYER1
  6
CONTINUOUS
 62
     7
 10
77.375002
 20
79.214102
 11
80.357053
 21
79.214102
  0
LINE
  8
CSLAYER1
  6
CONTINUOUS
 62
     7
 10
65.080002
 20
67.500000
 11
65.080002
 21
64.500000
  0
LINE
  8
CSLAYER1
  6
CONTINUOUS
 62
     7
 10
65.080002
 20
67.500000
 11
65.347952
 21
67.964102
  0
ARC
  8
CSLAYER1
  6
CONTINUOUS
 62
     7
 10
67.070496
 20
67.098076
 40
1.927993
 50
153.308604
 51
206.691396
  0
ARC
  8
CSLAYER1
  6
CONTINUOUS
 62
     7
 10
72.546302
 20
64.500000
 40
7.403800
 50
166.470805
 51
180.000000
  0
LINE
  8
CSLAYER1
  6
CONTINUOUS
 62
     7
 10
65.080002
 20
61.500000
 11
65.080002
 21
64.500000
  0
LINE
  8
CSLAYER1
  6
CONTINUOUS
 62
     7
 10
65.080002
 20
61.500000
 11
65.347952
 21
61.035899
  0
ARC
  8
CSLAYER1
  6
CONTINUOUS
 62
     7
 10
67.070496
 20
61.901924
 40
1.927993
 50
153.308604
 51
206.691396
  0
ARC
  8
CSLAYER1
  6
CONTINUOUS
 62
     7
 10
72.546302
 20
64.500000
 40
7.403800
 50
180.000000
 51
193.529195
  0
LINE
  8
CSLAYER1
  6
CONTINUOUS
 62
     7
 10
65.347952
 20
61.035899
 11
67.625002
 21
61.035899
  0
LINE
  8
CSLAYER1
  6
CONTINUOUS
 62
     7
 10
65.347952
 20
62.767949
 11
67.625002
 21
62.767949
  0
LINE
  8
CSLAYER1
  6
CONTINUOUS
 62
     7
 10
65.347952
 20
66.232051
 11
67.625002
 21
66.232051
  0
LINE
  8
CSLAYER1
  6
CONTINUOUS
 62
     7
 10
65.347952
 20
67.964102
 11
67.625002
 21
67.964102
  0
LINE
  8
CSLAYER1
  6
CONTINUOUS
 62
     7
 10
65.080002
 20
56.250000
 11
65.080002
 21
53.250000
  0
LINE
  8
CSLAYER1
  6
CONTINUOUS
 62
     7
 10
65.080002
 20
56.250000
 11
65.347952
 21
56.714102
  0
ARC
  8
CSLAYER1
  6
CONTINUOUS
 62
     7
 10
67.070496
 20
55.848076
 40
1.927993
 50
153.308604
 51
206.691396
  0
ARC
  8
CSLAYER1
  6
CONTINUOUS
 62
     7
 10
72.546302
 20
53.250000
 40
7.403800
 50
166.470805
 51
180.000000
  0
LINE
  8
CSLAYER1
  6
CONTINUOUS
 62
     7
 10
65.080002
 20
50.250000
 11
65.080002
 21
53.250000
  0
LINE
  8
CSLAYER1
  6
CONTINUOUS
 62
     7
 10
65.080002
 20
50.250000
 11
65.347952
 21
49.785899
  0
ARC
  8
CSLAYER1
  6
CONTINUOUS
 62
     7
 10
67.070496
 20
50.651924
 40
1.927993
 50
153.308604
 51
206.691396
  0
ARC
  8
CSLAYER1
  6
CONTINUOUS
 62
     7
 10
72.546302
 20
53.250000
 40
7.403800
 50
180.000000
 51
193.529195
  0
LINE
  8
CSLAYER1
  6
CONTINUOUS
 62
     7
 10
65.347952
 20
49.785899
 11
67.625002
 21
49.785899
  0
LINE
  8
CSLAYER1
  6
CONTINUOUS
 62
     7
 10
65.347952
 20
51.517949
 11
67.625002
 21
51.517949
  0
LINE
  8
CSLAYER1
  6
CONTINUOUS
 62
     7
 10
65.347952
 20
54.982051
 11
67.625002
 21
54.982051
  0
LINE
  8
CSLAYER1
  6
CONTINUOUS
 62
     7
 10
65.347952
 20
56.714102
 11
67.625002
 21
56.714102
  0
LINE
  8
CSLAYER1
  6
CONTINUOUS
 62
     7
 10
77.250002
 20
50.250000
 11
77.250002
 21
64.500000
  0
LINE
  8
CSLAYER1
  6
CONTINUOUS
 62
     7
 10
80.625002
 20
55.250000
 11
82.250002
 21
55.250000
  0
LINE
  8
CSLAYER1
  6
CONTINUOUS
 62
     7
 10
82.250002
 20
55.250000
 11
82.625002
 21
54.875000
  0
LINE
  8
CSLAYER1
  6
CONTINUOUS
 62
     7
 10
82.625002
 20
54.875000
 11
82.625002
 21
53.250000
  0
LINE
  8
CSLAYER1
  6
CONTINUOUS
 62
     7
 10
82.625002
 20
51.625000
 11
82.625002
 21
53.250000
  0
LINE
  8
CSLAYER1
  6
CONTINUOUS
 62
     7
 10
82.250002
 20
51.250000
 11
82.625002
 21
51.625000
  0
LINE
  8
CSLAYER1
  6
CONTINUOUS
 62
     7
 10
80.625002
 20
51.250000
 11
82.250002
 21
51.250000
  0
LINE
  8
CSLAYER1
  6
CONTINUOUS
 62
     7
 10
80.625002
 20
51.500000
 11
82.500002
 21
51.500000
  0
LINE
  8
CSLAYER1
  6
CONTINUOUS
 62
     7
 10
82.250002
 20
51.250000
 11
82.250002
 21
53.250000
  0
LINE
  8
CSLAYER1
  6
CONTINUOUS
 62
     7
 10
82.250002
 20
55.250000
 11
82.250002
 21
53.250000
  0
LINE
  8
CSLAYER1
  6
CONTINUOUS
 62
     7
 10
80.625002
 20
55.000000
 11
82.500002
 21
55.000000
  0
LINE
  8
CSLAYER1
  6
CONTINUOUS
 62
     7
 10
80.625002
 20
56.250000
 11
80.625002
 21
53.250000
  0
LINE
  8
CSLAYER1
  6
CONTINUOUS
 62
     7
 10
80.625002
 20
56.250000
 11
80.357053
 21
56.714102
  0
ARC
  8
CSLAYER1
  6
CONTINUOUS
 62
     7
 10
78.634509
 20
55.848076
 40
1.927993
 50
-26.691396
 51
26.691396
  0
ARC
  8
CSLAYER1
  6
CONTINUOUS
 62
     7
 10
73.158703
 20
53.250000
 40
7.403800
 50
0.000000
 51
13.529195
  0
LINE
  8
CSLAYER1
  6
CONTINUOUS
 62
     7
 10
80.625002
 20
50.250000
 11
80.625002
 21
53.250000
  0
LINE
  8
CSLAYER1
  6
CONTINUOUS
 62
     7
 10
80.625002
 20
50.250000
 11
80.357053
 21
49.785899
  0
ARC
  8
CSLAYER1
  6
CONTINUOUS
 62
     7
 10
78.634509
 20
50.651924
 40
1.927993
 50
-26.691396
 51
26.691396
  0
ARC
  8
CSLAYER1
  6
CONTINUOUS
 62
     7
 10
73.158703
 20
53.250000
 40
7.403800
 50
346.470805
 51
360.000000
  0
LINE
  8
CSLAYER1
  6
CONTINUOUS
 62
     7
 10
77.250002
 20
49.785899
 11
80.357053
 21
49.785899
  0
LINE
  8
CSLAYER1
  6
CONTINUOUS
 62
     7
 10
77.250002
 20
51.517949
 11
80.357053
 21
51.517949
  0
LINE
  8
CSLAYER1
  6
CONTINUOUS
 62
     7
 10
77.250002
 20
54.982051
 11
80.357053
 21
54.982051
  0
LINE
  8
CSLAYER1
  6
CONTINUOUS
 62
     7
 10
77.375002
 20
56.714102
 11
80.357053
 21
56.714102
  0
LINE
  8
CSLAYER1
  6
CONTINUOUS
 62
     7
 10
77.250002
 20
67.500000
 11
77.250002
 21
60.500000
  0
LINE
  8
CSLAYER1
  6
CONTINUOUS
 62
     7
 10
80.625002
 20
66.500000
 11
82.250002
 21
66.500000
  0
LINE
  8
CSLAYER1
  6
CONTINUOUS
 62
     7
 10
82.250002
 20
66.500000
 11
82.625002
 21
66.125000
  0
LINE
  8
CSLAYER1
  6
CONTINUOUS
 62
     7
 10
82.625002
 20
66.125000
 11
82.625002
 21
64.500000
  0
LINE
  8
CSLAYER1
  6
CONTINUOUS
 62
     7
 10
82.625002
 20
62.875000
 11
82.625002
 21
64.500000
  0
LINE
  8
CSLAYER1
  6
CONTINUOUS
 62
     7
 10
82.250002
 20
62.500000
 11
82.625002
 21
62.875000
  0
LINE
  8
CSLAYER1
  6
CONTINUOUS
 62
     7
 10
80.625002
 20
62.500000
 11
82.250002
 21
62.500000
  0
LINE
  8
CSLAYER1
  6
CONTINUOUS
 62
     7
 10
80.625002
 20
62.750000
 11
82.500002
 21
62.750000
  0
LINE
  8
CSLAYER1
  6
CONTINUOUS
 62
     7
 10
82.250002
 20
62.500000
 11
82.250002
 21
64.500000
  0
LINE
  8
CSLAYER1
  6
CONTINUOUS
 62
     7
 10
82.250002
 20
66.500000
 11
82.250002
 21
64.500000
  0
LINE
  8
CSLAYER1
  6
CONTINUOUS
 62
     7
 10
80.625002
 20
66.250000
 11
82.500002
 21
66.250000
  0
LINE
  8
CSLAYER1
  6
CONTINUOUS
 62
     7
 10
80.625002
 20
67.500000
 11
80.625002
 21
64.500000
  0
LINE
  8
CSLAYER1
  6
CONTINUOUS
 62
     7
 10
80.625002
 20
67.500000
 11
80.357053
 21
67.964102
  0
ARC
  8
CSLAYER1
  6
CONTINUOUS
 62
     7
 10
78.634509
 20
67.098076
 40
1.927993
 50
-26.691396
 51
26.691396
  0
ARC
  8
CSLAYER1
  6
CONTINUOUS
 62
     7
 10
73.158703
 20
64.500000
 40
7.403800
 50
0.000000
 51
13.529195
  0
LINE
  8
CSLAYER1
  6
CONTINUOUS
 62
     7
 10
80.625002
 20
61.500000
 11
80.625002
 21
64.500000
  0
LINE
  8
CSLAYER1
  6
CONTINUOUS
 62
     7
 10
80.625002
 20
61.500000
 11
80.357053
 21
61.035899
  0
ARC
  8
CSLAYER1
  6
CONTINUOUS
 62
     7
 10
78.634509
 20
61.901924
 40
1.927993
 50
-26.691396
 51
26.691396
  0
ARC
  8
CSLAYER1
  6
CONTINUOUS
 62
     7
 10
73.158703
 20
64.500000
 40
7.403800
 50
346.470805
 51
360.000000
  0
LINE
  8
CSLAYER1
  6
CONTINUOUS
 62
     7
 10
77.375002
 20
61.035899
 11
80.357053
 21
61.035899
  0
LINE
  8
CSLAYER1
  6
CONTINUOUS
 62
     7
 10
77.375002
 20
62.767949
 11
80.357053
 21
62.767949
  0
LINE
  8
CSLAYER1
  6
CONTINUOUS
 62
     7
 10
77.375002
 20
66.232051
 11
80.357053
 21
66.232051
  0
LINE
  8
CSLAYER1
  6
CONTINUOUS
 62
     7
 10
77.375002
 20
67.964102
 11
80.357053
 21
67.964102
  0
LINE
  8
CSLAYER1
  6
CONTINUOUS
 62
     7
 10
67.625002
 20
119.244397
 11
66.967525
 21
118.864802
  0
LINE
  8
CSLAYER1
  6
CONTINUOUS
 62
     7
 10
195.423813
 20
99.678261
 11
190.516336
 21
99.678261
  0
LINE
  8
CSLAYER1
  6
CONTINUOUS
 62
     7
 10
194.766336
 20
94.828261
 11
190.516336
 21
94.828261
  0
LINE
  8
CSLAYER1
  6
CONTINUOUS
 62
     7
 10
195.423813
 20
95.207856
 11
195.423813
 21
99.678261
  0
LINE
  8
CSLAYER1
  6
CONTINUOUS
 62
     7
 10
192.970075
 20
99.678261
 11
192.970075
 21
95.207856
  0
LINE
  8
CSLAYER1
  6
CONTINUOUS
 62
     7
 10
194.766336
 20
94.828261
 11
195.423813
 21
95.207856
  0
ARC
  8
CSLAYER1
  6
CONTINUOUS
 62
     7
 10
194.196944
 20
97.000710
 40
2.172449
 50
235.615753
 51
304.384247
  0
ARC
  8
CSLAYER1
  6
CONTINUOUS
 62
     7
 10
190.516336
 20
102.948666
 40
8.120405
 50
270.000000
 51
287.587954
  0
LINE
  8
CSLAYER1
  6
CONTINUOUS
 62
     7
 10
186.266336
 20
94.828261
 11
190.516336
 21
94.828261
  0
LINE
  8
CSLAYER1
  6
CONTINUOUS
 62
     7
 10
185.608859
 20
95.207856
 11
185.608859
 21
99.678261
  0
LINE
  8
CSLAYER1
  6
CONTINUOUS
 62
     7
 10
188.062597
 20
99.678261
 11
188.062597
 21
95.207856
  0
LINE
  8
CSLAYER1
  6
CONTINUOUS
 62
     7
 10
186.266336
 20
94.828261
 11
185.608859
 21
95.207856
  0
ARC
  8
CSLAYER1
  6
CONTINUOUS
 62
     7
 10
186.835728
 20
97.000710
 40
2.172449
 50
235.615753
 51
304.384247
  0
ARC
  8
CSLAYER1
  6
CONTINUOUS
 62
     7
 10
190.516336
 20
102.948666
 40
8.120405
 50
252.412046
 51
270.000000
  0
LINE
  8
CSLAYER1
  6
CONTINUOUS
 62
     7
 10
194.766336
 20
119.298276
 11
190.516336
 21
119.298276
  0
LINE
  8
CSLAYER1
  6
CONTINUOUS
 62
     7
 10
195.423813
 20
118.918681
 11
195.423813
 21
115.573276
  0
LINE
  8
CSLAYER1
  6
CONTINUOUS
 62
     7
 10
192.970075
 20
115.573276
 11
192.970075
 21
118.918681
  0
LINE
  8
CSLAYER1
  6
CONTINUOUS
 62
     7
 10
194.766336
 20
119.298276
 11
195.423813
 21
118.918681
  0
ARC
  8
CSLAYER1
  6
CONTINUOUS
 62
     7
 10
194.196944
 20
117.125827
 40
2.172449
 50
55.615753
 51
124.384247
  0
ARC
  8
CSLAYER1
  6
CONTINUOUS
 62
     7
 10
190.516336
 20
111.177871
 40
8.120405
 50
72.412046
 51
90.000000
  0
LINE
  8
CSLAYER1
  6
CONTINUOUS
 62
     7
 10
186.266336
 20
119.298276
 11
190.516336
 21
119.298276
  0
LINE
  8
CSLAYER1
  6
CONTINUOUS
 62
     7
 10
185.608859
 20
118.918681
 11
185.608859
 21
115.573276
  0
LINE
  8
CSLAYER1
  6
CONTINUOUS
 62
     7
 10
188.062597
 20
115.573276
 11
188.062597
 21
118.918681
  0
LINE
  8
CSLAYER1
  6
CONTINUOUS
 62
     7
 10
186.266336
 20
119.298276
 11
185.608859
 21
118.918681
  0
ARC
  8
CSLAYER1
  6
CONTINUOUS
 62
     7
 10
186.835728
 20
117.125827
 40
2.172449
 50
55.615753
 51
124.384247
  0
ARC
  8
CSLAYER1
  6
CONTINUOUS
 62
     7
 10
190.516336
 20
111.177871
 40
8.120405
 50
90.000000
 51
107.587954
  0
LINE
  8
CSLAYER1
  6
CONTINUOUS
 62
     7
 10
193.266336
 20
93.448276
 11
193.266336
 21
94.828261
  0
LINE
  8
CSLAYER1
  6
CONTINUOUS
 62
     7
 10
187.766336
 20
93.448276
 11
187.766336
 21
94.828261
  0
LINE
  8
CSLAYER1
  6
CONTINUOUS
 62
     7
 10
192.891336
 20
93.073276
 11
188.141336
 21
93.073276
  0
LINE
  8
CSLAYER1
  6
CONTINUOUS
 62
     7
 10
193.266336
 20
93.448276
 11
192.891336
 21
93.073276
  0
LINE
  8
CSLAYER1
  6
CONTINUOUS
 62
     7
 10
187.766336
 20
93.448276
 11
188.141336
 21
93.073276
  0
LINE
  8
CSLAYER1
  6
CONTINUOUS
 62
     7
 10
193.266336
 20
93.448276
 11
187.766336
 21
93.448276
  0
LINE
  8
CSLAYER1
  6
CONTINUOUS
 62
     7
 10
192.953836
 20
94.828261
 11
192.953836
 21
93.135776
  0
LINE
  8
CSLAYER1
  6
CONTINUOUS
 62
     7
 10
188.078836
 20
94.828261
 11
188.078836
 21
93.135776
  0
LINE
  8
CSLAYER1
  6
CONTINUOUS
 62
     7
 10
177.662791
 20
99.678261
 11
172.755313
 21
99.678261
  0
LINE
  8
CSLAYER1
  6
CONTINUOUS
 62
     7
 10
177.005313
 20
94.828261
 11
172.755313
 21
94.828261
  0
LINE
  8
CSLAYER1
  6
CONTINUOUS
 62
     7
 10
177.662791
 20
95.207856
 11
177.662791
 21
99.678261
  0
LINE
  8
CSLAYER1
  6
CONTINUOUS
 62
     7
 10
175.209052
 20
99.678261
 11
175.209052
 21
95.207856
  0
LINE
  8
CSLAYER1
  6
CONTINUOUS
 62
     7
 10
177.005313
 20
94.828261
 11
177.662791
 21
95.207856
  0
ARC
  8
CSLAYER1
  6
CONTINUOUS
 62
     7
 10
176.435921
 20
97.000710
 40
2.172449
 50
235.615753
 51
304.384247
  0
ARC
  8
CSLAYER1
  6
CONTINUOUS
 62
     7
 10
172.755313
 20
102.948666
 40
8.120405
 50
270.000000
 51
287.587954
  0
LINE
  8
CSLAYER1
  6
CONTINUOUS
 62
     7
 10
168.505313
 20
94.828261
 11
172.755313
 21
94.828261
  0
LINE
  8
CSLAYER1
  6
CONTINUOUS
 62
     7
 10
167.847836
 20
95.207856
 11
167.847836
 21
99.678261
  0
LINE
  8
CSLAYER1
  6
CONTINUOUS
 62
     7
 10
170.301575
 20
99.678261
 11
170.301575
 21
95.207856
  0
LINE
  8
CSLAYER1
  6
CONTINUOUS
 62
     7
 10
168.505313
 20
94.828261
 11
167.847836
 21
95.207856
  0
ARC
  8
CSLAYER1
  6
CONTINUOUS
 62
     7
 10
169.074705
 20
97.000710
 40
2.172449
 50
235.615753
 51
304.384247
  0
ARC
  8
CSLAYER1
  6
CONTINUOUS
 62
     7
 10
172.755313
 20
102.948666
 40
8.120405
 50
252.412046
 51
270.000000
  0
LINE
  8
CSLAYER1
  6
CONTINUOUS
 62
     7
 10
177.005313
 20
119.298276
 11
172.755313
 21
119.298276
  0
LINE
  8
CSLAYER1
  6
CONTINUOUS
 62
     7
 10
177.662791
 20
118.918681
 11
177.662791
 21
115.573276
  0
LINE
  8
CSLAYER1
  6
CONTINUOUS
 62
     7
 10
175.209052
 20
115.573276
 11
175.209052
 21
118.918681
  0
LINE
  8
CSLAYER1
  6
CONTINUOUS
 62
     7
 10
177.005313
 20
119.298276
 11
177.662791
 21
118.918681
  0
ARC
  8
CSLAYER1
  6
CONTINUOUS
 62
     7
 10
176.435921
 20
117.125827
 40
2.172449
 50
55.615753
 51
124.384247
  0
ARC
  8
CSLAYER1
  6
CONTINUOUS
 62
     7
 10
172.755313
 20
111.177871
 40
8.120405
 50
72.412046
 51
90.000000
  0
LINE
  8
CSLAYER1
  6
CONTINUOUS
 62
     7
 10
168.505313
 20
119.298276
 11
172.755313
 21
119.298276
  0
LINE
  8
CSLAYER1
  6
CONTINUOUS
 62
     7
 10
167.847836
 20
118.918681
 11
167.847836
 21
115.573276
  0
LINE
  8
CSLAYER1
  6
CONTINUOUS
 62
     7
 10
170.301575
 20
115.573276
 11
170.301575
 21
118.918681
  0
LINE
  8
CSLAYER1
  6
CONTINUOUS
 62
     7
 10
168.505313
 20
119.298276
 11
167.847836
 21
118.918681
  0
ARC
  8
CSLAYER1
  6
CONTINUOUS
 62
     7
 10
169.074705
 20
117.125827
 40
2.172449
 50
55.615753
 51
124.384247
  0
ARC
  8
CSLAYER1
  6
CONTINUOUS
 62
     7
 10
172.755313
 20
111.177871
 40
8.120405
 50
90.000000
 51
107.587954
  0
LINE
  8
CSLAYER1
  6
CONTINUOUS
 62
     7
 10
175.505313
 20
93.448276
 11
175.505313
 21
94.828261
  0
LINE
  8
CSLAYER1
  6
CONTINUOUS
 62
     7
 10
170.005313
 20
93.448276
 11
170.005313
 21
94.828261
  0
LINE
  8
CSLAYER1
  6
CONTINUOUS
 62
     7
 10
175.130313
 20
93.073276
 11
170.380313
 21
93.073276
  0
LINE
  8
CSLAYER1
  6
CONTINUOUS
 62
     7
 10
175.505313
 20
93.448276
 11
175.130313
 21
93.073276
  0
LINE
  8
CSLAYER1
  6
CONTINUOUS
 62
     7
 10
170.005313
 20
93.448276
 11
170.380313
 21
93.073276
  0
LINE
  8
CSLAYER1
  6
CONTINUOUS
 62
     7
 10
175.505313
 20
93.448276
 11
170.005313
 21
93.448276
  0
LINE
  8
CSLAYER1
  6
CONTINUOUS
 62
     7
 10
175.192813
 20
94.828261
 11
175.192813
 21
93.135776
  0
LINE
  8
CSLAYER1
  6
CONTINUOUS
 62
     7
 10
170.317813
 20
94.828261
 11
170.317813
 21
93.135776
  0
LINE
  8
CSLAYER1
  6
CONTINUOUS
 62
     7
 10
154.456896
 20
99.678261
 11
149.549419
 21
99.678261
  0
LINE
  8
CSLAYER1
  6
CONTINUOUS
 62
     7
 10
153.799419
 20
94.828261
 11
149.549419
 21
94.828261
  0
LINE
  8
CSLAYER1
  6
CONTINUOUS
 62
     7
 10
154.456896
 20
95.207856
 11
154.456896
 21
99.678261
  0
LINE
  8
CSLAYER1
  6
CONTINUOUS
 62
     7
 10
152.003158
 20
99.678261
 11
152.003158
 21
95.207856
  0
LINE
  8
CSLAYER1
  6
CONTINUOUS
 62
     7
 10
153.799419
 20
94.828261
 11
154.456896
 21
95.207856
  0
ARC
  8
CSLAYER1
  6
CONTINUOUS
 62
     7
 10
153.230027
 20
97.000710
 40
2.172449
 50
235.615753
 51
304.384247
  0
ARC
  8
CSLAYER1
  6
CONTINUOUS
 62
     7
 10
149.549419
 20
102.948666
 40
8.120405
 50
270.000000
 51
287.587954
  0
LINE
  8
CSLAYER1
  6
CONTINUOUS
 62
     7
 10
145.299419
 20
94.828261
 11
149.549419
 21
94.828261
  0
LINE
  8
CSLAYER1
  6
CONTINUOUS
 62
     7
 10
144.641942
 20
95.207856
 11
144.641942
 21
99.678261
  0
LINE
  8
CSLAYER1
  6
CONTINUOUS
 62
     7
 10
147.095680
 20
99.678261
 11
147.095680
 21
95.207856
  0
LINE
  8
CSLAYER1
  6
CONTINUOUS
 62
     7
 10
145.299419
 20
94.828261
 11
144.641942
 21
95.207856
  0
ARC
  8
CSLAYER1
  6
CONTINUOUS
 62
     7
 10
145.868811
 20
97.000710
 40
2.172449
 50
235.615753
 51
304.384247
  0
ARC
  8
CSLAYER1
  6
CONTINUOUS
 62
     7
 10
149.549419
 20
102.948666
 40
8.120405
 50
252.412046
 51
270.000000
  0
LINE
  8
CSLAYER1
  6
CONTINUOUS
 62
     7
 10
153.799419
 20
119.298276
 11
149.549419
 21
119.298276
  0
LINE
  8
CSLAYER1
  6
CONTINUOUS
 62
     7
 10
154.456896
 20
118.918681
 11
154.456896
 21
115.573276
  0
LINE
  8
CSLAYER1
  6
CONTINUOUS
 62
     7
 10
152.003158
 20
115.573276
 11
152.003158
 21
118.918681
  0
LINE
  8
CSLAYER1
  6
CONTINUOUS
 62
     7
 10
153.799419
 20
119.298276
 11
154.456896
 21
118.918681
  0
ARC
  8
CSLAYER1
  6
CONTINUOUS
 62
     7
 10
153.230027
 20
117.125827
 40
2.172449
 50
55.615753
 51
124.384247
  0
ARC
  8
CSLAYER1
  6
CONTINUOUS
 62
     7
 10
149.549419
 20
111.177871
 40
8.120405
 50
72.412046
 51
90.000000
  0
LINE
  8
CSLAYER1
  6
CONTINUOUS
 62
     7
 10
145.299419
 20
119.298276
 11
149.549419
 21
119.298276
  0
LINE
  8
CSLAYER1
  6
CONTINUOUS
 62
     7
 10
144.641942
 20
118.918681
 11
144.641942
 21
115.573276
  0
LINE
  8
CSLAYER1
  6
CONTINUOUS
 62
     7
 10
147.095680
 20
115.573276
 11
147.095680
 21
118.918681
  0
LINE
  8
CSLAYER1
  6
CONTINUOUS
 62
     7
 10
145.299419
 20
119.298276
 11
144.641942
 21
118.918681
  0
ARC
  8
CSLAYER1
  6
CONTINUOUS
 62
     7
 10
145.868811
 20
117.125827
 40
2.172449
 50
55.615753
 51
124.384247
  0
ARC
  8
CSLAYER1
  6
CONTINUOUS
 62
     7
 10
149.549419
 20
111.177871
 40
8.120405
 50
90.000000
 51
107.587954
  0
LINE
  8
CSLAYER1
  6
CONTINUOUS
 62
     7
 10
152.299419
 20
93.448276
 11
152.299419
 21
94.828261
  0
LINE
  8
CSLAYER1
  6
CONTINUOUS
 62
     7
 10
146.799419
 20
93.448276
 11
146.799419
 21
94.828261
  0
LINE
  8
CSLAYER1
  6
CONTINUOUS
 62
     7
 10
151.924419
 20
93.073276
 11
147.174419
 21
93.073276
  0
LINE
  8
CSLAYER1
  6
CONTINUOUS
 62
     7
 10
152.299419
 20
93.448276
 11
151.924419
 21
93.073276
  0
LINE
  8
CSLAYER1
  6
CONTINUOUS
 62
     7
 10
146.799419
 20
93.448276
 11
147.174419
 21
93.073276
  0
LINE
  8
CSLAYER1
  6
CONTINUOUS
 62
     7
 10
152.299419
 20
93.448276
 11
146.799419
 21
93.448276
  0
LINE
  8
CSLAYER1
  6
CONTINUOUS
 62
     7
 10
151.986919
 20
94.828261
 11
151.986919
 21
93.135776
  0
LINE
  8
CSLAYER1
  6
CONTINUOUS
 62
     7
 10
147.111919
 20
94.828261
 11
147.111919
 21
93.135776
  0
LINE
  8
CSLAYER1
  6
CONTINUOUS
 62
     7
 10
112.103000
 20
122.971257
 11
110.303000
 21
122.971257
  0
INSERT
  8
CSLAYER1
  2
BLKF0000
 10
0.0
 20
0.0
 30
0.0
  0
LINE
  8
CSLAYER1
  6
CONTINUOUS
 62
     7
 10
282.317709
 20
46.222030
 11
282.317709
 21
73.250000
  0
ARC
  8
CSLAYER1
  6
CONTINUOUS
 62
     7
 10
280.317709
 20
46.222030
 40
2.000000
 50
270.806929
 51
360.000000
  0
ARC
  8
CSLAYER1
  6
CONTINUOUS
 62
     7
 10
276.817709
 20
84.750000
 40
10.000000
 50
180.000000
 51
270.000000
  0
LINE
  8
CSLAYER1
  6
CONTINUOUS
 62
     7
 10
276.817709
 20
74.750000
 11
311.945287
 21
74.750000
  0
LINE
  8
CSLAYER1
  6
CONTINUOUS
 62
     7
 10
282.317709
 20
72.250000
 11
282.317709
 21
73.250000
  0
ARC
  8
CSLAYER1
  6
CONTINUOUS
 62
     7
 10
280.817709
 20
73.250000
 40
1.500000
 50
0.000000
 51
90.000000
  0
LINE
  8
CSLAYER1
  6
CONTINUOUS
 62
     7
 10
253.567709
 20
100.230435
 11
254.076559
 21
99.721585
  0
LINE
  8
CSLAYER1
  6
CENTER
 62
     2
 10
274.067709
 20
33.000000
 11
274.067709
 21
47.061721
  0
LINE
  8
CSLAYER1
  6
CONTINUOUS
 62
     7
 10
253.567709
 20
100.230435
 11
253.567709
 21
107.250000
  0
LINE
  8
CSLAYER1
  6
CONTINUOUS
 62
     7
 10
253.567709
 20
107.250000
 11
253.817709
 21
107.500000
  0
LINE
  8
CSLAYER1
  6
CONTINUOUS
 62
     7
 10
253.817709
 20
107.500000
 11
317.698808
 21
107.500000
  0
LINE
  8
CSLAYER1
  6
CONTINUOUS
 62
     7
 10
268.692709
 20
36.000000
 11
324.067709
 21
36.000000
  0
LINE
  8
CSLAYER1
  6
CONTINUOUS
 62
     7
 10
268.442709
 20
36.250000
 11
268.442709
 21
43.554578
  0
LINE
  8
CSLAYER1
  6
CONTINUOUS
 62
     7
 10
268.442709
 20
36.250000
 11
268.692709
 21
36.000000
  0
LINE
  8
CSLAYER1
  6
CONTINUOUS
 62
     7
 10
268.442709
 20
43.554578
 11
268.949852
 21
44.061721
  0
LINE
  8
CSLAYER1
  6
CENTER
 62
     2
 10
324.067709
 20
194.000000
 11
324.067709
 21
33.000000
  0
ARC
  8
CSLAYER1
  6
CONTINUOUS
 62
     7
 10
276.817709
 20
153.750000
 40
10.000000
 50
90.000000
 51
180.000000
  0
LINE
  8
CSLAYER1
  6
CONTINUOUS
 62
     7
 10
324.067709
 20
163.750000
 11
276.817709
 21
163.750000
  0
LINE
  8
CSLAYER1
  6
CONTINUOUS
 62
     7
 10
280.817709
 20
180.781006
 11
280.817709
 21
166.250000
  0
LINE
  8
CSLAYER1
  6
CONTINUOUS
 62
     7
 10
268.950646
 20
182.935423
 11
278.848956
 21
182.780762
  0
ARC
  8
CSLAYER1
  6
CONTINUOUS
 62
     7
 10
278.317709
 20
166.250000
 40
2.500000
 50
270.000000
 51
360.000000
  0
ARC
  8
CSLAYER1
  6
CONTINUOUS
 62
     7
 10
278.817709
 20
180.781006
 40
2.000000
 50
0.000000
 51
89.104826
  0
LINE
  8
CSLAYER1
  6
CONTINUOUS
 62
     7
 10
253.567709
 20
115.021552
 11
254.076481
 21
115.530324
  0
LINE
  8
CSLAYER1
  6
CONTINUOUS
 62
     7
 10
253.567709
 20
115.021552
 11
253.567709
 21
108.250000
  0
LINE
  8
CSLAYER1
  6
CONTINUOUS
 62
     7
 10
253.567709
 20
108.250000
 11
253.817709
 21
108.000000
  0
LINE
  8
CSLAYER1
  6
CONTINUOUS
 62
     7
 10
253.817709
 20
108.000000
 11
317.692709
 21
108.000000
  0
LINE
  8
CSLAYER1
  6
CONTINUOUS
 62
     7
 10
268.692709
 20
191.000000
 11
324.067709
 21
191.000000
  0
LINE
  8
CSLAYER1
  6
CONTINUOUS
 62
     7
 10
268.442709
 20
190.750000
 11
268.442709
 21
183.443360
  0
LINE
  8
CSLAYER1
  6
CONTINUOUS
 62
     7
 10
268.442709
 20
183.443360
 11
268.950646
 21
182.935423
  0
LINE
  8
CSLAYER1
  6
CONTINUOUS
 62
     7
 10
268.442709
 20
190.750000
 11
268.692709
 21
191.000000
  0
LINE
  8
CSLAYER1
  6
CENTER
 62
     2
 10
274.067709
 20
194.000000
 11
274.067709
 21
179.780762
  0
LINE
  8
CSLAYER1
  6
CONTINUOUS
 62
     7
 10
365.817709
 20
46.222030
 11
365.817709
 21
73.250000
  0
LINE
  8
CSLAYER1
  6
CONTINUOUS
 62
     7
 10
381.317709
 20
84.750000
 11
381.317709
 21
93.073276
  0
ARC
  8
CSLAYER1
  6
CONTINUOUS
 62
     7
 10
367.817709
 20
46.222030
 40
2.000000
 50
180.000000
 51
269.193071
  0
ARC
  8
CSLAYER1
  6
CONTINUOUS
 62
     7
 10
371.317709
 20
84.750000
 40
10.000000
 50
270.000000
 51
360.000000
  0
LINE
  8
CSLAYER1
  6
CONTINUOUS
 62
     7
 10
336.190132
 20
74.750000
 11
371.317709
 21
74.750000
  0
ARC
  8
CSLAYER1
  6
CONTINUOUS
 62
     7
 10
367.317709
 20
73.250000
 40
1.500000
 50
90.000000
 51
180.000000
  0
LINE
  8
CSLAYER1
  6
CONTINUOUS
 62
     7
 10
394.567709
 20
100.230435
 11
394.015536
 21
99.678261
  0
LINE
  8
CSLAYER1
  6
CENTER
 62
     2
 10
374.067709
 20
33.000000
 11
374.067709
 21
47.061721
  0
LINE
  8
CSLAYER1
  6
CONTINUOUS
 62
     7
 10
394.567709
 20
100.230435
 11
394.567709
 21
107.250000
  0
LINE
  8
CSLAYER1
  6
CONTINUOUS
 62
     7
 10
394.567709
 20
107.250000
 11
394.317709
 21
107.500000
  0
LINE
  8
CSLAYER1
  6
CONTINUOUS
 62
     7
 10
394.317709
 20
107.500000
 11
388.442709
 21
107.500000
  0
LINE
  8
CSLAYER1
  6
CONTINUOUS
 62
     7
 10
379.442709
 20
36.000000
 11
324.067709
 21
36.000000
  0
LINE
  8
CSLAYER1
  6
CONTINUOUS
 62
     7
 10
379.692709
 20
36.250000
 11
379.692709
 21
43.554578
  0
LINE
  8
CSLAYER1
  6
CONTINUOUS
 62
     7
 10
379.692709
 20
36.250000
 11
379.442709
 21
36.000000
  0
LINE
  8
CSLAYER1
  6
CONTINUOUS
 62
     7
 10
379.692709
 20
43.554578
 11
379.185567
 21
44.061721
  0
ARC
  8
CSLAYER1
  6
CONTINUOUS
 62
     7
 10
371.317709
 20
153.750000
 40
10.000000
 50
0.000000
 51
90.000000
  0
LINE
  8
CSLAYER1
  6
CONTINUOUS
 62
     7
 10
381.317709
 20
153.750000
 11
381.317709
 21
119.298276
  0
LINE
  8
CSLAYER1
  6
CONTINUOUS
 62
     3
 10
371.317709
 20
163.750000
 11
369.817709
 21
163.750000
  0
LINE
  8
CSLAYER1
  6
CONTINUOUS
 62
     7
 10
367.317709
 20
180.781006
 11
367.317709
 21
166.250000
  0
LINE
  8
CSLAYER1
  6
CONTINUOUS
 62
     7
 10
379.184773
 20
182.935423
 11
369.286463
 21
182.780762
  0
ARC
  8
CSLAYER1
  6
CONTINUOUS
 62
     7
 10
369.817709
 20
166.250000
 40
2.500000
 50
180.000000
 51
270.000000
  0
ARC
  8
CSLAYER1
  6
CONTINUOUS
 62
     7
 10
369.317709
 20
180.781006
 40
2.000000
 50
90.895174
 51
180.000000
  0
LINE
  8
CSLAYER1
  6
CONTINUOUS
 62
     7
 10
394.567709
 20
115.021552
 11
394.015985
 21
115.573276
  0
LINE
  8
CSLAYER1
  6
CONTINUOUS
 62
     7
 10
394.567709
 20
115.021552
 11
394.567709
 21
108.250000
  0
LINE
  8
CSLAYER1
  6
CONTINUOUS
 62
     7
 10
394.567709
 20
108.250000
 11
394.317709
 21
108.000000
  0
LINE
  8
CSLAYER1
  6
CONTINUOUS
 62
     7
 10
394.317709
 20
108.000000
 11
388.442709
 21
108.000000
  0
LINE
  8
CSLAYER1
  6
CONTINUOUS
 62
     7
 10
379.442709
 20
191.000000
 11
324.067709
 21
191.000000
  0
LINE
  8
CSLAYER1
  6
CONTINUOUS
 62
     7
 10
379.692709
 20
190.750000
 11
379.692709
 21
183.443360
  0
LINE
  8
CSLAYER1
  6
CONTINUOUS
 62
     7
 10
379.692709
 20
183.443360
 11
379.184773
 21
182.935423
  0
LINE
  8
CSLAYER1
  6
CENTER
 62
     2
 10
374.067709
 20
194.000000
 11
374.067709
 21
179.780762
  0
LINE
  8
CSLAYER1
  6
CONTINUOUS
 62
     7
 10
388.442709
 20
107.500000
 11
355.030124
 21
107.500000
  0
LINE
  8
CSLAYER1
  6
CONTINUOUS
 62
     7
 10
355.100962
 20
108.000000
 11
388.442709
 21
108.000000
  0
LINE
  8
CSLAYER1
  6
CONTINUOUS
 62
     7
 10
394.015536
 20
99.678261
 11
385.988971
 21
99.678261
  0
LINE
  8
CSLAYER1
  6
CONTINUOUS
 62
     7
 10
392.692709
 20
94.828261
 11
388.442709
 21
94.828261
  0
LINE
  8
CSLAYER1
  6
CONTINUOUS
 62
     7
 10
393.350187
 20
95.207856
 11
393.350187
 21
99.678261
  0
LINE
  8
CSLAYER1
  6
CONTINUOUS
 62
     7
 10
390.896448
 20
99.678261
 11
390.896448
 21
95.207856
  0
LINE
  8
CSLAYER1
  6
CONTINUOUS
 62
     7
 10
392.692709
 20
94.828261
 11
393.350187
 21
95.207856
  0
ARC
  8
CSLAYER1
  6
CONTINUOUS
 62
     7
 10
392.123317
 20
97.000710
 40
2.172449
 50
235.615753
 51
304.384247
  0
ARC
  8
CSLAYER1
  6
CONTINUOUS
 62
     7
 10
388.442709
 20
102.948666
 40
8.120405
 50
270.000000
 51
287.587954
  0
LINE
  8
CSLAYER1
  6
CONTINUOUS
 62
     7
 10
330.418562
 20
99.678261
 11
351.050962
 21
99.678261
  0
LINE
  8
CSLAYER1
  6
CONTINUOUS
 62
     7
 10
384.192709
 20
94.828261
 11
388.442709
 21
94.828261
  0
LINE
  8
CSLAYER1
  6
CONTINUOUS
 62
     7
 10
385.988971
 20
99.678261
 11
385.988971
 21
95.207856
  0
LINE
  8
CSLAYER1
  6
CONTINUOUS
 62
     7
 10
384.192709
 20
94.828261
 11
383.671876
 21
95.128964
  0
ARC
  8
CSLAYER1
  6
CONTINUOUS
 62
     7
 10
384.762101
 20
97.000710
 40
2.172449
 50
239.685070
 51
304.384247
  0
ARC
  8
CSLAYER1
  6
CONTINUOUS
 62
     7
 10
388.442709
 20
102.948666
 40
8.120405
 50
252.412046
 51
270.000000
  0
LINE
  8
CSLAYER1
  6
CONTINUOUS
 62
     7
 10
394.015985
 20
115.573276
 11
388.442709
 21
115.573276
  0
LINE
  8
CSLAYER1
  6
CONTINUOUS
 62
     7
 10
392.692709
 20
119.298276
 11
388.442709
 21
119.298276
  0
LINE
  8
CSLAYER1
  6
CONTINUOUS
 62
     7
 10
393.350187
 20
118.918681
 11
393.350187
 21
115.573276
  0
LINE
  8
CSLAYER1
  6
CONTINUOUS
 62
     7
 10
390.896448
 20
115.573276
 11
390.896448
 21
118.918681
  0
LINE
  8
CSLAYER1
  6
CONTINUOUS
 62
     7
 10
392.692709
 20
119.298276
 11
393.350187
 21
118.918681
  0
ARC
  8
CSLAYER1
  6
CONTINUOUS
 62
     7
 10
392.123317
 20
117.125827
 40
2.172449
 50
55.615753
 51
124.384247
  0
ARC
  8
CSLAYER1
  6
CONTINUOUS
 62
     7
 10
388.442709
 20
111.177871
 40
8.120405
 50
72.412046
 51
90.000000
  0
LINE
  8
CSLAYER1
  6
CONTINUOUS
 62
     7
 10
390.896448
 20
115.573276
 11
354.384195
 21
115.573276
  0
LINE
  8
CSLAYER1
  6
CONTINUOUS
 62
     7
 10
384.192709
 20
119.298276
 11
388.442709
 21
119.298276
  0
LINE
  8
CSLAYER1
  6
CONTINUOUS
 62
     7
 10
385.988971
 20
115.573276
 11
385.988971
 21
118.918681
  0
LINE
  8
CSLAYER1
  6
CONTINUOUS
 62
     7
 10
384.192709
 20
119.298276
 11
383.671876
 21
118.997573
  0
ARC
  8
CSLAYER1
  6
CONTINUOUS
 62
     7
 10
384.762101
 20
117.125827
 40
2.172449
 50
55.615753
 51
120.314930
  0
ARC
  8
CSLAYER1
  6
CONTINUOUS
 62
     7
 10
388.442709
 20
111.177871
 40
8.120405
 50
90.000000
 51
107.587954
  0
LINE
  8
CSLAYER1
  6
CONTINUOUS
 62
     7
 10
391.192709
 20
93.448276
 11
391.192709
 21
94.828261
  0
LINE
  8
CSLAYER1
  6
CONTINUOUS
 62
     7
 10
385.692709
 20
93.448276
 11
385.692709
 21
94.828261
  0
LINE
  8
CSLAYER1
  6
CONTINUOUS
 62
     7
 10
390.817709
 20
93.073276
 11
386.067709
 21
93.073276
  0
LINE
  8
CSLAYER1
  6
CONTINUOUS
 62
     7
 10
391.192709
 20
93.448276
 11
390.817709
 21
93.073276
  0
LINE
  8
CSLAYER1
  6
CONTINUOUS
 62
     7
 10
385.692709
 20
93.448276
 11
386.067709
 21
93.073276
  0
LINE
  8
CSLAYER1
  6
CONTINUOUS
 62
     7
 10
391.192709
 20
93.448276
 11
385.692709
 21
93.448276
  0
LINE
  8
CSLAYER1
  6
CONTINUOUS
 62
     7
 10
390.880209
 20
94.828261
 11
390.880209
 21
93.135776
  0
LINE
  8
CSLAYER1
  6
CONTINUOUS
 62
     7
 10
386.005209
 20
94.828261
 11
386.005209
 21
93.135776
  0
LINE
  8
CSLAYER1
  6
CONTINUOUS
 62
     7
 10
268.949852
 20
44.061721
 11
379.185567
 21
44.061721
  0
LINE
  8
CSLAYER1
  6
CONTINUOUS
 62
     7
 10
254.119434
 20
115.573276
 11
318.957363
 21
115.573276
  0
LINE
  8
CSLAYER1
  6
CONTINUOUS
 62
     7
 10
324.067709
 20
163.750000
 11
371.317709
 21
163.750000
  0
LINE
  8
CSLAYER1
  6
CONTINUOUS
 62
     7
 10
278.848956
 20
182.780762
 11
369.949083
 21
182.780762
  0
LINE
  8
CSLAYER1
  6
CONTINUOUS
 62
     7
 10
365.536421
 20
94.828261
 11
361.286421
 21
94.828261
  0
LINE
  8
CSLAYER1
  6
CONTINUOUS
 62
     7
 10
366.193899
 20
95.207856
 11
366.193899
 21
99.678261
  0
LINE
  8
CSLAYER1
  6
CONTINUOUS
 62
     7
 10
363.740160
 20
99.678261
 11
363.740160
 21
95.207856
  0
LINE
  8
CSLAYER1
  6
CONTINUOUS
 62
     7
 10
365.536421
 20
94.828261
 11
366.193899
 21
95.207856
  0
ARC
  8
CSLAYER1
  6
CONTINUOUS
 62
     7
 10
364.967029
 20
97.000710
 40
2.172449
 50
235.615753
 51
304.384247
  0
ARC
  8
CSLAYER1
  6
CONTINUOUS
 62
     7
 10
361.286421
 20
102.948666
 40
8.120405
 50
270.000000
 51
287.587954
  0
LINE
  8
CSLAYER1
  6
CONTINUOUS
 62
     7
 10
357.036421
 20
94.828261
 11
361.286421
 21
94.828261
  0
LINE
  8
CSLAYER1
  6
CONTINUOUS
 62
     7
 10
356.378944
 20
95.207856
 11
356.378944
 21
99.678261
  0
LINE
  8
CSLAYER1
  6
CONTINUOUS
 62
     7
 10
358.832683
 20
99.678261
 11
358.832683
 21
95.207856
  0
LINE
  8
CSLAYER1
  6
CONTINUOUS
 62
     7
 10
357.036421
 20
94.828261
 11
356.378944
 21
95.207856
  0
ARC
  8
CSLAYER1
  6
CONTINUOUS
 62
     7
 10
357.605813
 20
97.000710
 40
2.172449
 50
235.615753
 51
304.384247
  0
ARC
  8
CSLAYER1
  6
CONTINUOUS
 62
     7
 10
361.286421
 20
102.948666
 40
8.120405
 50
252.412046
 51
270.000000
  0
LINE
  8
CSLAYER1
  6
CONTINUOUS
 62
     7
 10
365.536421
 20
119.298276
 11
361.286421
 21
119.298276
  0
LINE
  8
CSLAYER1
  6
CONTINUOUS
 62
     7
 10
366.193899
 20
118.918681
 11
366.193899
 21
115.573276
  0
LINE
  8
CSLAYER1
  6
CONTINUOUS
 62
     7
 10
363.740160
 20
115.573276
 11
363.740160
 21
118.918681
  0
LINE
  8
CSLAYER1
  6
CONTINUOUS
 62
     7
 10
365.536421
 20
119.298276
 11
366.193899
 21
118.918681
  0
ARC
  8
CSLAYER1
  6
CONTINUOUS
 62
     7
 10
364.967029
 20
117.125827
 40
2.172449
 50
55.615753
 51
124.384247
  0
ARC
  8
CSLAYER1
  6
CONTINUOUS
 62
     7
 10
361.286421
 20
111.177871
 40
8.120405
 50
72.412046
 51
90.000000
  0
LINE
  8
CSLAYER1
  6
CONTINUOUS
 62
     7
 10
357.036421
 20
119.298276
 11
361.286421
 21
119.298276
  0
LINE
  8
CSLAYER1
  6
CONTINUOUS
 62
     7
 10
356.378944
 20
118.918681
 11
356.378944
 21
115.573276
  0
LINE
  8
CSLAYER1
  6
CONTINUOUS
 62
     7
 10
358.832683
 20
115.573276
 11
358.832683
 21
118.918681
  0
LINE
  8
CSLAYER1
  6
CONTINUOUS
 62
     7
 10
357.036421
 20
119.298276
 11
356.378944
 21
118.918681
  0
ARC
  8
CSLAYER1
  6
CONTINUOUS
 62
     7
 10
357.605813
 20
117.125827
 40
2.172449
 50
55.615753
 51
124.384247
  0
ARC
  8
CSLAYER1
  6
CONTINUOUS
 62
     7
 10
361.286421
 20
111.177871
 40
8.120405
 50
90.000000
 51
107.587954
  0
LINE
  8
CSLAYER1
  6
CONTINUOUS
 62
     7
 10
364.036421
 20
93.448276
 11
364.036421
 21
94.828261
  0
LINE
  8
CSLAYER1
  6
CONTINUOUS
 62
     7
 10
358.536421
 20
93.448276
 11
358.536421
 21
94.828261
  0
LINE
  8
CSLAYER1
  6
CONTINUOUS
 62
     7
 10
363.661421
 20
93.073276
 11
358.911421
 21
93.073276
  0
LINE
  8
CSLAYER1
  6
CONTINUOUS
 62
     7
 10
364.036421
 20
93.448276
 11
363.661421
 21
93.073276
  0
LINE
  8
CSLAYER1
  6
CONTINUOUS
 62
     7
 10
358.536421
 20
93.448276
 11
358.911421
 21
93.073276
  0
LINE
  8
CSLAYER1
  6
CONTINUOUS
 62
     7
 10
364.036421
 20
93.448276
 11
358.536421
 21
93.448276
  0
LINE
  8
CSLAYER1
  6
CONTINUOUS
 62
     7
 10
363.723921
 20
94.828261
 11
363.723921
 21
93.135776
  0
LINE
  8
CSLAYER1
  6
CONTINUOUS
 62
     7
 10
358.848921
 20
94.828261
 11
358.848921
 21
93.135776
  0
LINE
  8
CSLAYER1
  6
CONTINUOUS
 62
     7
 10
361.162687
 20
99.678261
 11
354.963831
 21
99.678261
  0
LINE
  8
CSLAYER1
  6
CONTINUOUS
 62
     7
 10
342.184126
 20
94.828261
 11
337.934126
 21
94.828261
  0
LINE
  8
CSLAYER1
  6
CONTINUOUS
 62
     7
 10
342.841604
 20
95.207856
 11
342.841604
 21
99.678261
  0
LINE
  8
CSLAYER1
  6
CONTINUOUS
 62
     7
 10
340.387865
 20
99.678261
 11
340.387865
 21
95.207856
  0
LINE
  8
CSLAYER1
  6
CONTINUOUS
 62
     7
 10
342.184126
 20
94.828261
 11
342.841604
 21
95.207856
  0
ARC
  8
CSLAYER1
  6
CONTINUOUS
 62
     7
 10
341.614734
 20
97.000710
 40
2.172449
 50
235.615753
 51
304.384247
  0
ARC
  8
CSLAYER1
  6
CONTINUOUS
 62
     7
 10
337.934126
 20
102.948666
 40
8.120405
 50
270.000000
 51
287.587954
  0
LINE
  8
CSLAYER1
  6
CONTINUOUS
 62
     7
 10
333.684126
 20
94.828261
 11
337.934126
 21
94.828261
  0
LINE
  8
CSLAYER1
  6
CONTINUOUS
 62
     7
 10
333.026649
 20
95.207856
 11
333.026649
 21
99.678261
  0
LINE
  8
CSLAYER1
  6
CONTINUOUS
 62
     7
 10
335.480388
 20
99.678261
 11
335.480388
 21
95.207856
  0
LINE
  8
CSLAYER1
  6
CONTINUOUS
 62
     7
 10
333.684126
 20
94.828261
 11
333.026649
 21
95.207856
  0
ARC
  8
CSLAYER1
  6
CONTINUOUS
 62
     7
 10
334.253518
 20
97.000710
 40
2.172449
 50
235.615753
 51
304.384247
  0
ARC
  8
CSLAYER1
  6
CONTINUOUS
 62
     7
 10
337.934126
 20
102.948666
 40
8.120405
 50
252.412046
 51
270.000000
  0
LINE
  8
CSLAYER1
  6
CONTINUOUS
 62
     7
 10
342.841604
 20
115.573276
 11
337.934126
 21
115.573276
  0
LINE
  8
CSLAYER1
  6
CONTINUOUS
 62
     7
 10
342.184126
 20
119.298276
 11
337.934126
 21
119.298276
  0
LINE
  8
CSLAYER1
  6
CONTINUOUS
 62
     7
 10
342.841604
 20
118.918681
 11
342.841604
 21
115.573276
  0
LINE
  8
CSLAYER1
  6
CONTINUOUS
 62
     7
 10
340.387865
 20
115.573276
 11
340.387865
 21
118.918681
  0
LINE
  8
CSLAYER1
  6
CONTINUOUS
 62
     7
 10
342.184126
 20
119.298276
 11
342.841604
 21
118.918681
  0
ARC
  8
CSLAYER1
  6
CONTINUOUS
 62
     7
 10
341.614734
 20
117.125827
 40
2.172449
 50
55.615753
 51
124.384247
  0
ARC
  8
CSLAYER1
  6
CONTINUOUS
 62
     7
 10
337.934126
 20
111.177871
 40
8.120405
 50
72.412046
 51
90.000000
  0
LINE
  8
CSLAYER1
  6
CONTINUOUS
 62
     7
 10
333.684126
 20
119.298276
 11
337.934126
 21
119.298276
  0
LINE
  8
CSLAYER1
  6
CONTINUOUS
 62
     7
 10
333.026649
 20
118.918681
 11
333.026649
 21
115.573276
  0
LINE
  8
CSLAYER1
  6
CONTINUOUS
 62
     7
 10
335.480388
 20
115.573276
 11
335.480388
 21
118.918681
  0
LINE
  8
CSLAYER1
  6
CONTINUOUS
 62
     7
 10
333.684126
 20
119.298276
 11
333.026649
 21
118.918681
  0
ARC
  8
CSLAYER1
  6
CONTINUOUS
 62
     7
 10
334.253518
 20
117.125827
 40
2.172449
 50
55.615753
 51
124.384247
  0
ARC
  8
CSLAYER1
  6
CONTINUOUS
 62
     7
 10
337.934126
 20
111.177871
 40
8.120405
 50
90.000000
 51
107.587954
  0
LINE
  8
CSLAYER1
  6
CONTINUOUS
 62
     7
 10
340.684126
 20
93.448276
 11
340.684126
 21
94.828261
  0
LINE
  8
CSLAYER1
  6
CONTINUOUS
 62
     7
 10
335.184126
 20
93.448276
 11
335.184126
 21
94.828261
  0
LINE
  8
CSLAYER1
  6
CONTINUOUS
 62
     7
 10
340.309126
 20
93.073276
 11
335.559126
 21
93.073276
  0
LINE
  8
CSLAYER1
  6
CONTINUOUS
 62
     7
 10
340.684126
 20
93.448276
 11
340.309126
 21
93.073276
  0
LINE
  8
CSLAYER1
  6
CONTINUOUS
 62
     7
 10
335.184126
 20
93.448276
 11
335.559126
 21
93.073276
  0
LINE
  8
CSLAYER1
  6
CONTINUOUS
 62
     7
 10
340.684126
 20
93.448276
 11
335.184126
 21
93.448276
  0
LINE
  8
CSLAYER1
  6
CONTINUOUS
 62
     7
 10
340.371626
 20
94.828261
 11
340.371626
 21
93.135776
  0
LINE
  8
CSLAYER1
  6
CONTINUOUS
 62
     7
 10
335.496626
 20
94.828261
 11
335.496626
 21
93.135776
  0
LINE
  8
CSLAYER1
  6
CONTINUOUS
 62
     7
 10
328.317709
 20
119.298276
 11
324.067709
 21
119.298276
  0
LINE
  8
CSLAYER1
  6
CONTINUOUS
 62
     7
 10
319.817709
 20
119.298276
 11
324.067709
 21
119.298276
  0
LINE
  8
CSLAYER1
  6
CONTINUOUS
 62
     7
 10
316.529682
 20
87.250000
 11
324.067709
 21
87.250000
  0
LINE
  8
CSLAYER1
  6
CONTINUOUS
 62
     7
 10
317.179201
 20
82.250000
 11
324.067709
 21
82.250000
  0
LINE
  8
CSLAYER1
  6
CONTINUOUS
 62
     7
 10
316.313176
 20
87.125000
 11
316.313176
 21
82.750000
  0
LINE
  8
CSLAYER1
  6
CONTINUOUS
 62
     7
 10
317.794160
 20
87.125000
 11
317.794160
 21
82.750000
  0
LINE
  8
CSLAYER1
  6
CONTINUOUS
 62
     7
 10
321.671427
 20
87.125000
 11
321.671427
 21
82.750000
  0
ARC
  8
CSLAYER1
  6
CONTINUOUS
 62
     7
 10
317.053668
 20
83.721657
 40
1.221657
 50
232.689265
 51
307.310735
  0
ARC
  8
CSLAYER1
  6
CONTINUOUS
 62
     7
 10
319.732793
 20
90.141600
 40
7.641600
 50
255.303745
 51
284.696255
  0
ARC
  8
CSLAYER1
  6
CONTINUOUS
 62
     7
 10
324.067709
 20
94.109342
 40
11.609342
 50
258.087956
 51
270.000000
  0
LINE
  8
CSLAYER1
  6
CONTINUOUS
 62
     7
 10
316.313176
 20
82.750000
 11
317.179201
 21
82.250000
  0
ARC
  8
CSLAYER1
  6
CONTINUOUS
 62
     7
 10
317.053668
 20
84.994186
 40
2.255814
 50
70.836841
 51
109.163159
  0
ARC
  8
CSLAYER1
  6
CONTINUOUS
 62
     7
 10
319.732793
 20
72.154301
 40
15.095699
 50
82.621533
 51
97.378467
  0
ARC
  8
CSLAYER1
  6
CONTINUOUS
 62
     7
 10
324.067709
 20
64.218816
 40
23.031184
 50
90.000000
 51
95.972156
  0
LINE
  8
CSLAYER1
  6
CONTINUOUS
 62
     7
 10
316.313176
 20
87.125000
 11
316.529682
 21
87.250000
  0
LINE
  8
CSLAYER1
  6
CONTINUOUS
 62
     7
 10
331.605737
 20
87.250000
 11
324.067709
 21
87.250000
  0
LINE
  8
CSLAYER1
  6
CONTINUOUS
 62
     7
 10
330.956218
 20
82.250000
 11
324.067709
 21
82.250000
  0
LINE
  8
CSLAYER1
  6
CONTINUOUS
 62
     7
 10
331.822243
 20
87.125000
 11
331.822243
 21
82.750000
  0
LINE
  8
CSLAYER1
  6
CONTINUOUS
 62
     7
 10
330.341259
 20
87.125000
 11
330.341259
 21
82.750000
  0
LINE
  8
CSLAYER1
  6
CONTINUOUS
 62
     7
 10
326.463992
 20
87.125000
 11
326.463992
 21
82.750000
  0
ARC
  8
CSLAYER1
  6
CONTINUOUS
 62
     7
 10
331.081751
 20
83.721657
 40
1.221657
 50
232.689265
 51
307.310735
  0
ARC
  8
CSLAYER1
  6
CONTINUOUS
 62
     7
 10
328.402626
 20
90.141600
 40
7.641600
 50
255.303745
 51
284.696255
  0
ARC
  8
CSLAYER1
  6
CONTINUOUS
 62
     7
 10
324.067709
 20
94.109342
 40
11.609342
 50
270.000000
 51
281.912044
  0
LINE
  8
CSLAYER1
  6
CONTINUOUS
 62
     7
 10
331.822243
 20
82.750000
 11
330.956218
 21
82.250000
  0
ARC
  8
CSLAYER1
  6
CONTINUOUS
 62
     7
 10
331.081751
 20
84.994186
 40
2.255814
 50
70.836841
 51
109.163159
  0
ARC
  8
CSLAYER1
  6
CONTINUOUS
 62
     7
 10
328.402626
 20
72.154301
 40
15.095699
 50
82.621533
 51
97.378467
  0
ARC
  8
CSLAYER1
  6
CONTINUOUS
 62
     7
 10
324.067709
 20
64.218816
 40
23.031184
 50
84.027844
 51
90.000000
  0
LINE
  8
CSLAYER1
  6
CONTINUOUS
 62
     7
 10
331.822243
 20
87.125000
 11
331.605737
 21
87.250000
  0
LINE
  8
CSLAYER1
  6
CONTINUOUS
 62
     7
 10
318.942709
 20
91.750000
 11
324.067709
 21
91.750000
  0
LINE
  8
CSLAYER1
  6
CONTINUOUS
 62
     7
 10
318.678966
 20
91.597728
 11
318.678966
 21
88.318363
  0
LINE
  8
CSLAYER1
  6
CONTINUOUS
 62
     7
 10
319.708124
 20
91.597728
 11
319.708124
 21
87.750000
  0
LINE
  8
CSLAYER1
  6
CONTINUOUS
 62
     7
 10
322.402496
 20
91.597728
 11
322.402496
 21
87.750000
  0
LINE
  8
CSLAYER1
  6
CONTINUOUS
 62
     7
 10
318.942709
 20
91.750000
 11
318.678966
 21
91.597728
  0
ARC
  8
CSLAYER1
  6
CONTINUOUS
 62
     7
 10
319.193545
 20
90.354325
 40
1.345676
 50
67.517902
 51
112.482098
  0
ARC
  8
CSLAYER1
  6
CONTINUOUS
 62
     7
 10
321.055310
 20
82.775960
 40
8.924040
 50
81.317352
 51
98.682648
  0
ARC
  8
CSLAYER1
  6
CONTINUOUS
 62
     7
 10
324.067709
 20
78.092273
 40
13.607727
 50
90.000000
 51
97.029054
  0
LINE
  8
CSLAYER1
  6
CONTINUOUS
 62
     7
 10
317.817709
 20
87.250000
 11
318.532519
 21
87.964810
  0
ARC
  8
CSLAYER1
  6
CONTINUOUS
 62
     7
 10
318.178966
 20
88.318363
 40
0.500000
 50
315.000000
 51
360.000000
  0
ARC
  8
CSLAYER1
  6
CONTINUOUS
 62
     7
 10
319.012917
 20
89.490247
 40
1.873972
 50
248.223896
 51
291.776104
  0
ARC
  8
CSLAYER1
  6
CONTINUOUS
 62
     7
 10
321.055310
 20
94.947140
 40
7.322140
 50
259.397863
 51
280.602137
  0
ARC
  8
CSLAYER1
  6
CONTINUOUS
 62
     7
 10
324.067709
 20
98.779243
 40
11.154243
 50
261.414235
 51
270.000000
  0
LINE
  8
CSLAYER1
  6
CONTINUOUS
 62
     7
 10
329.192709
 20
91.750000
 11
324.067709
 21
91.750000
  0
LINE
  8
CSLAYER1
  6
CONTINUOUS
 62
     7
 10
329.456453
 20
91.597728
 11
329.456453
 21
88.318363
  0
LINE
  8
CSLAYER1
  6
CONTINUOUS
 62
     7
 10
328.427295
 20
91.597728
 11
328.427295
 21
87.750000
  0
LINE
  8
CSLAYER1
  6
CONTINUOUS
 62
     7
 10
325.732923
 20
91.597728
 11
325.732923
 21
87.750000
  0
LINE
  8
CSLAYER1
  6
CONTINUOUS
 62
     7
 10
329.192709
 20
91.750000
 11
329.456453
 21
91.597728
  0
ARC
  8
CSLAYER1
  6
CONTINUOUS
 62
     7
 10
328.941874
 20
90.354325
 40
1.345676
 50
67.517902
 51
112.482098
  0
ARC
  8
CSLAYER1
  6
CONTINUOUS
 62
     7
 10
327.080109
 20
82.775960
 40
8.924040
 50
81.317352
 51
98.682648
  0
ARC
  8
CSLAYER1
  6
CONTINUOUS
 62
     7
 10
324.067709
 20
78.092273
 40
13.607727
 50
82.970946
 51
90.000000
  0
LINE
  8
CSLAYER1
  6
CONTINUOUS
 62
     7
 10
330.317709
 20
87.250000
 11
324.067709
 21
87.250000
  0
LINE
  8
CSLAYER1
  6
CONTINUOUS
 62
     7
 10
330.317709
 20
87.250000
 11
329.602900
 21
87.964810
  0
ARC
  8
CSLAYER1
  6
CONTINUOUS
 62
     7
 10
329.956453
 20
88.318363
 40
0.500000
 50
180.000000
 51
225.000000
  0
ARC
  8
CSLAYER1
  6
CONTINUOUS
 62
     7
 10
329.122502
 20
89.490247
 40
1.873972
 50
248.223896
 51
291.776104
  0
ARC
  8
CSLAYER1
  6
CONTINUOUS
 62
     7
 10
327.080109
 20
94.947140
 40
7.322140
 50
259.397863
 51
280.602137
  0
ARC
  8
CSLAYER1
  6
CONTINUOUS
 62
     7
 10
324.067709
 20
98.779243
 40
11.154243
 50
270.000000
 51
278.585765
  0
LINE
  8
CSLAYER1
  6
CONTINUOUS
 62
     7
 10
318.942709
 20
78.250000
 11
324.067709
 21
78.250000
  0
LINE
  8
CSLAYER1
  6
CONTINUOUS
 62
     7
 10
318.678966
 20
78.402273
 11
318.678966
 21
81.181637
  0
LINE
  8
CSLAYER1
  6
CONTINUOUS
 62
     7
 10
319.708124
 20
78.402273
 11
319.708124
 21
81.750000
  0
LINE
  8
CSLAYER1
  6
CONTINUOUS
 62
     7
 10
322.402496
 20
78.402273
 11
322.402496
 21
81.750000
  0
LINE
  8
CSLAYER1
  6
CONTINUOUS
 62
     7
 10
318.942709
 20
78.250000
 11
318.678966
 21
78.402273
  0
ARC
  8
CSLAYER1
  6
CONTINUOUS
 62
     7
 10
319.193545
 20
79.645676
 40
1.345676
 50
247.517902
 51
292.482098
  0
ARC
  8
CSLAYER1
  6
CONTINUOUS
 62
     7
 10
321.055310
 20
87.224040
 40
8.924040
 50
261.317352
 51
278.682648
  0
ARC
  8
CSLAYER1
  6
CONTINUOUS
 62
     7
 10
324.067709
 20
91.907727
 40
13.607727
 50
262.970946
 51
270.000000
  0
ARC
  8
CSLAYER1
  6
CONTINUOUS
 62
     7
 10
318.178966
 20
81.181637
 40
0.500000
 50
0.000000
 51
45.000000
  0
ARC
  8
CSLAYER1
  6
CONTINUOUS
 62
     7
 10
319.012917
 20
80.009753
 40
1.873972
 50
68.223896
 51
111.776104
  0
ARC
  8
CSLAYER1
  6
CONTINUOUS
 62
     7
 10
321.055310
 20
74.552860
 40
7.322140
 50
79.397863
 51
100.602137
  0
ARC
  8
CSLAYER1
  6
CONTINUOUS
 62
     7
 10
324.067709
 20
70.720757
 40
11.154243
 50
90.000000
 51
98.585765
  0
LINE
  8
CSLAYER1
  6
CONTINUOUS
 62
     7
 10
329.192709
 20
78.250000
 11
324.067709
 21
78.250000
  0
LINE
  8
CSLAYER1
  6
CONTINUOUS
 62
     7
 10
329.456453
 20
78.402273
 11
329.456453
 21
81.181637
  0
LINE
  8
CSLAYER1
  6
CONTINUOUS
 62
     7
 10
328.427295
 20
78.402273
 11
328.427295
 21
81.750000
  0
LINE
  8
CSLAYER1
  6
CONTINUOUS
 62
     7
 10
325.732923
 20
78.402273
 11
325.732923
 21
81.750000
  0
LINE
  8
CSLAYER1
  6
CONTINUOUS
 62
     7
 10
329.192709
 20
78.250000
 11
329.456453
 21
78.402273
  0
ARC
  8
CSLAYER1
  6
CONTINUOUS
 62
     7
 10
328.941874
 20
79.645676
 40
1.345676
 50
247.517902
 51
292.482098
  0
ARC
  8
CSLAYER1
  6
CONTINUOUS
 62
     7
 10
327.080109
 20
87.224040
 40
8.924040
 50
261.317352
 51
278.682648
  0
ARC
  8
CSLAYER1
  6
CONTINUOUS
 62
     7
 10
324.067709
 20
91.907727
 40
13.607727
 50
270.000000
 51
277.029054
  0
ARC
  8
CSLAYER1
  6
CONTINUOUS
 62
     7
 10
329.956453
 20
81.181637
 40
0.500000
 50
135.000000
 51
180.000000
  0
ARC
  8
CSLAYER1
  6
CONTINUOUS
 62
     7
 10
329.122502
 20
80.009753
 40
1.873972
 50
68.223896
 51
111.776104
  0
ARC
  8
CSLAYER1
  6
CONTINUOUS
 62
     7
 10
327.080109
 20
74.552860
 40
7.322140
 50
79.397863
 51
100.602137
  0
ARC
  8
CSLAYER1
  6
CONTINUOUS
 62
     7
 10
324.067709
 20
70.720757
 40
11.154243
 50
81.414235
 51
90.000000
  0
LINE
  8
CSLAYER1
  6
CONTINUOUS
 62
     7
 10
318.317709
 20
81.750000
 11
318.532519
 21
81.535191
  0
LINE
  8
CSLAYER1
  6
CONTINUOUS
 62
     7
 10
318.317709
 20
81.750000
 11
318.317709
 21
82.250000
  0
LINE
  8
CSLAYER1
  6
CONTINUOUS
 62
     7
 10
329.817709
 20
81.750000
 11
329.602900
 21
81.535191
  0
LINE
  8
CSLAYER1
  6
CONTINUOUS
 62
     7
 10
329.817709
 20
81.750000
 11
329.817709
 21
82.250000
  0
LINE
  8
CSLAYER1
  6
CONTINUOUS
 62
     7
 10
319.817709
 20
78.250000
 11
319.817709
 21
64.500000
  0
LINE
  8
CSLAYER1
  6
CONTINUOUS
 62
     7
 10
328.317709
 20
78.250000
 11
328.317709
 21
64.500000
  0
LINE
  8
CSLAYER1
  6
CONTINUOUS
 62
     7
 10
319.836506
 20
94.875000
 11
319.895100
 21
96.750000
  0
LINE
  8
CSLAYER1
  6
CONTINUOUS
 62
     7
 10
320.264850
 20
96.750000
 11
320.227415
 21
95.552074
  0
LINE
  8
CSLAYER1
  6
CONTINUOUS
 62
     7
 10
319.836506
 20
94.875000
 11
320.227415
 21
95.552074
  0
LINE
  8
CSLAYER1
  6
CONTINUOUS
 62
     7
 10
324.067709
 20
95.552074
 11
319.857665
 21
95.552074
  0
LINE
  8
CSLAYER1
  6
CONTINUOUS
 62
     7
 10
319.817709
 20
94.875000
 11
319.817709
 21
94.250000
  0
LINE
  8
CSLAYER1
  6
CONTINUOUS
 62
     7
 10
319.836506
 20
93.625000
 11
319.895100
 21
91.750000
  0
LINE
  8
CSLAYER1
  6
CONTINUOUS
 62
     7
 10
320.264850
 20
91.750000
 11
320.227415
 21
92.947927
  0
LINE
  8
CSLAYER1
  6
CONTINUOUS
 62
     7
 10
319.836506
 20
93.625000
 11
320.227415
 21
92.947927
  0
LINE
  8
CSLAYER1
  6
CONTINUOUS
 62
     7
 10
319.817709
 20
93.625000
 11
319.817709
 21
94.250000
  0
LINE
  8
CSLAYER1
  6
CONTINUOUS
 62
     7
 10
324.067709
 20
92.947927
 11
319.857665
 21
92.947927
  0
LINE
  8
CSLAYER1
  6
CONTINUOUS
 62
     7
 10
319.836506
 20
94.875000
 11
319.817709
 21
94.875000
  0
LINE
  8
CSLAYER1
  6
CONTINUOUS
 62
     7
 10
319.836506
 20
93.625000
 11
319.817709
 21
93.625000
  0
LINE
  8
CSLAYER1
  6
CONTINUOUS
 62
     7
 10
328.298913
 20
94.875000
 11
328.240319
 21
96.750000
  0
LINE
  8
CSLAYER1
  6
CONTINUOUS
 62
     7
 10
327.870569
 20
96.750000
 11
327.908004
 21
95.552074
  0
LINE
  8
CSLAYER1
  6
CONTINUOUS
 62
     7
 10
328.298913
 20
94.875000
 11
327.908004
 21
95.552074
  0
LINE
  8
CSLAYER1
  6
CONTINUOUS
 62
     7
 10
324.067709
 20
95.552074
 11
328.277754
 21
95.552074
  0
LINE
  8
CSLAYER1
  6
CONTINUOUS
 62
     7
 10
328.317709
 20
94.875000
 11
328.317709
 21
94.250000
  0
LINE
  8
CSLAYER1
  6
CONTINUOUS
 62
     7
 10
328.298913
 20
93.625000
 11
328.240319
 21
91.750000
  0
LINE
  8
CSLAYER1
  6
CONTINUOUS
 62
     7
 10
327.870569
 20
91.750000
 11
327.908004
 21
92.947927
  0
LINE
  8
CSLAYER1
  6
CONTINUOUS
 62
     7
 10
328.298913
 20
93.625000
 11
327.908004
 21
92.947927
  0
LINE
  8
CSLAYER1
  6
CONTINUOUS
 62
     7
 10
328.317709
 20
93.625000
 11
328.317709
 21
94.250000
  0
LINE
  8
CSLAYER1
  6
CONTINUOUS
 62
     7
 10
324.067709
 20
92.947927
 11
328.277754
 21
92.947927
  0
LINE
  8
CSLAYER1
  6
CONTINUOUS
 62
     7
 10
328.298913
 20
94.875000
 11
328.317709
 21
94.875000
  0
LINE
  8
CSLAYER1
  6
CONTINUOUS
 62
     7
 10
328.298913
 20
93.625000
 11
328.317709
 21
93.625000
  0
LINE
  8
CSLAYER1
  6
CENTER
 62
     2
 10
305.192709
 20
133.750000
 11
342.942709
 21
133.750000
  0
LINE
  8
CSLAYER1
  6
CONTINUOUS
 62
     7
 10
328.692709
 20
124.250000
 11
319.442709
 21
124.250000
  0
LINE
  8
CSLAYER1
  6
CONTINUOUS
 62
     7
 10
318.942709
 20
124.750000
 11
318.942709
 21
133.750000
  0
LINE
  8
CSLAYER1
  6
CONTINUOUS
 62
     7
 10
329.192709
 20
124.750000
 11
329.192709
 21
133.750000
  0
ARC
  8
CSLAYER1
  6
CONTINUOUS
 62
     7
 10
319.442709
 20
124.750000
 40
0.500000
 50
180.000000
 51
270.000000
  0
ARC
  8
CSLAYER1
  6
CONTINUOUS
 62
     7
 10
328.692709
 20
124.750000
 40
0.500000
 50
270.000000
 51
360.000000
  0
LINE
  8
CSLAYER1
  6
CONTINUOUS
 62
     7
 10
328.240319
 20
91.750000
 11
319.895100
 21
91.750000
  0
LINE
  8
CSLAYER1
  6
CONTINUOUS
 62
     7
 10
319.836506
 20
122.375000
 11
319.895100
 21
124.250000
  0
LINE
  8
CSLAYER1
  6
CONTINUOUS
 62
     7
 10
320.264850
 20
124.250000
 11
320.227415
 21
123.052074
  0
LINE
  8
CSLAYER1
  6
CONTINUOUS
 62
     7
 10
319.836506
 20
122.375000
 11
320.227415
 21
123.052074
  0
LINE
  8
CSLAYER1
  6
CONTINUOUS
 62
     7
 10
324.067709
 20
123.052074
 11
319.857665
 21
123.052074
  0
LINE
  8
CSLAYER1
  6
CONTINUOUS
 62
     7
 10
319.817709
 20
122.375000
 11
319.817709
 21
121.750000
  0
LINE
  8
CSLAYER1
  6
CONTINUOUS
 62
     7
 10
319.836506
 20
121.125000
 11
319.895100
 21
119.250000
  0
LINE
  8
CSLAYER1
  6
CONTINUOUS
 62
     7
 10
320.264850
 20
119.250000
 11
320.227415
 21
120.447927
  0
LINE
  8
CSLAYER1
  6
CONTINUOUS
 62
     7
 10
319.836506
 20
121.125000
 11
320.227415
 21
120.447927
  0
LINE
  8
CSLAYER1
  6
CONTINUOUS
 62
     7
 10
319.817709
 20
121.125000
 11
319.817709
 21
121.750000
  0
LINE
  8
CSLAYER1
  6
CONTINUOUS
 62
     7
 10
324.067709
 20
120.447927
 11
319.857665
 21
120.447927
  0
LINE
  8
CSLAYER1
  6
CONTINUOUS
 62
     7
 10
319.836506
 20
122.375000
 11
319.817709
 21
122.375000
  0
LINE
  8
CSLAYER1
  6
CONTINUOUS
 62
     7
 10
319.836506
 20
121.125000
 11
319.817709
 21
121.125000
  0
LINE
  8
CSLAYER1
  6
CONTINUOUS
 62
     7
 10
328.298913
 20
122.375000
 11
328.240319
 21
124.250000
  0
LINE
  8
CSLAYER1
  6
CONTINUOUS
 62
     7
 10
327.870569
 20
124.250000
 11
327.908004
 21
123.052074
  0
LINE
  8
CSLAYER1
  6
CONTINUOUS
 62
     7
 10
328.298913
 20
122.375000
 11
327.908004
 21
123.052074
  0
LINE
  8
CSLAYER1
  6
CONTINUOUS
 62
     7
 10
324.067709
 20
123.052074
 11
328.277754
 21
123.052074
  0
LINE
  8
CSLAYER1
  6
CONTINUOUS
 62
     7
 10
328.317709
 20
122.375000
 11
328.317709
 21
121.750000
  0
LINE
  8
CSLAYER1
  6
CONTINUOUS
 62
     7
 10
328.298913
 20
121.125000
 11
328.240319
 21
119.250000
  0
LINE
  8
CSLAYER1
  6
CONTINUOUS
 62
     7
 10
327.870569
 20
119.250000
 11
327.908004
 21
120.447927
  0
LINE
  8
CSLAYER1
  6
CONTINUOUS
 62
     7
 10
328.298913
 20
121.125000
 11
327.908004
 21
120.447927
  0
LINE
  8
CSLAYER1
  6
CONTINUOUS
 62
     7
 10
328.317709
 20
121.125000
 11
328.317709
 21
121.750000
  0
LINE
  8
CSLAYER1
  6
CONTINUOUS
 62
     7
 10
324.067709
 20
120.447927
 11
328.277754
 21
120.447927
  0
LINE
  8
CSLAYER1
  6
CONTINUOUS
 62
     7
 10
328.298913
 20
122.375000
 11
328.317709
 21
122.375000
  0
LINE
  8
CSLAYER1
  6
CONTINUOUS
 62
     7
 10
328.298913
 20
121.125000
 11
328.317709
 21
121.125000
  0
LINE
  8
CSLAYER1
  6
CONTINUOUS
 62
     7
 10
328.240319
 20
124.250000
 11
319.895100
 21
124.250000
  0
ARC
  8
CSLAYER1
  6
CONTINUOUS
 62
     7
 10
324.067709
 20
133.750000
 40
5.125000
 50
0.000000
 51
180.000000
  0
ARC
  8
CSLAYER1
  6
CONTINUOUS
 62
     7
 10
324.067709
 20
133.750000
 40
5.393237
 50
-18.146349
 51
198.146349
  0
ARC
  8
CSLAYER1
  6
CONTINUOUS
 62
     7
 10
324.067709
 20
133.750000
 40
6.231763
 50
-34.674254
 51
214.674254
  0
LINE
  8
CSLAYER1
  6
CONTINUOUS
 62
     7
 10
328.558559
 20
141.704952
 11
330.290610
 21
144.704952
  0
LINE
  8
CSLAYER1
  6
CONTINUOUS
 62
     7
 10
330.290610
 20
144.704952
 11
333.754712
 21
144.704952
  0
LINE
  8
CSLAYER1
  6
CONTINUOUS
 62
     7
 10
333.754712
 20
144.704952
 11
335.486762
 21
141.704952
  0
LINE
  8
CSLAYER1
  6
CONTINUOUS
 62
     7
 10
335.486762
 20
141.704952
 11
333.754712
 21
138.704952
  0
LINE
  8
CSLAYER1
  6
CONTINUOUS
 62
     7
 10
333.754712
 20
138.704952
 11
330.290610
 21
138.704952
  0
LINE
  8
CSLAYER1
  6
CONTINUOUS
 62
     7
 10
330.290610
 20
138.704952
 11
328.558559
 21
141.704952
  0
CIRCLE
  8
CSLAYER1
  6
CONTINUOUS
 62
     7
 10
332.022661
 20
141.704952
 40
3.000000
  0
CIRCLE
  8
CSLAYER1
  6
CONTINUOUS
 62
     7
 10
332.022661
 20
141.704952
 40
4.000000
  0
LINE
  8
CSLAYER1
  6
CONTINUOUS
 62
     7
 10
312.648657
 20
141.704952
 11
314.380707
 21
144.704952
  0
LINE
  8
CSLAYER1
  6
CONTINUOUS
 62
     7
 10
314.380707
 20
144.704952
 11
317.844809
 21
144.704952
  0
LINE
  8
CSLAYER1
  6
CONTINUOUS
 62
     7
 10
317.844809
 20
144.704952
 11
319.576860
 21
141.704952
  0
LINE
  8
CSLAYER1
  6
CONTINUOUS
 62
     7
 10
319.576860
 20
141.704952
 11
317.844809
 21
138.704952
  0
LINE
  8
CSLAYER1
  6
CONTINUOUS
 62
     7
 10
317.844809
 20
138.704952
 11
314.380707
 21
138.704952
  0
LINE
  8
CSLAYER1
  6
CONTINUOUS
 62
     7
 10
314.380707
 20
138.704952
 11
312.648657
 21
141.704952
  0
CIRCLE
  8
CSLAYER1
  6
CONTINUOUS
 62
     7
 10
316.112758
 20
141.704952
 40
3.000000
  0
CIRCLE
  8
CSLAYER1
  6
CONTINUOUS
 62
     7
 10
316.112758
 20
141.704952
 40
4.000000
  0
LINE
  8
CSLAYER1
  6
CONTINUOUS
 62
     7
 10
314.380707
 20
128.795049
 11
317.844809
 21
128.795049
  0
LINE
  8
CSLAYER1
  6
CONTINUOUS
 62
     7
 10
317.844809
 20
128.795049
 11
318.942709
 21
126.893430
  0
LINE
  8
CSLAYER1
  6
CONTINUOUS
 62
     7
 10
329.192709
 20
126.893430
 11
330.290610
 21
128.795049
  0
LINE
  8
CSLAYER1
  6
CONTINUOUS
 62
     7
 10
330.290610
 20
128.795049
 11
333.754712
 21
128.795049
  0
LINE
  8
CSLAYER1
  6
CONTINUOUS
 62
     7
 10
312.648657
 20
125.795049
 11
314.380707
 21
128.795049
  0
ARC
  8
CSLAYER1
  6
CONTINUOUS
 62
     7
 10
316.112758
 20
125.795049
 40
4.000000
 50
44.969117
 51
337.277880
  0
ARC
  8
CSLAYER1
  6
CONTINUOUS
 62
     7
 10
324.067709
 20
133.750000
 40
15.375000
 50
-70.577032
 51
250.577032
  0
ARC
  8
CSLAYER1
  6
CONTINUOUS
 62
     7
 10
324.067709
 20
133.750000
 40
15.875000
 50
-66.418462
 51
246.418462
  0
LINE
  8
CSLAYER1
  6
CONTINUOUS
 62
     7
 10
314.380707
 20
122.795049
 11
312.648657
 21
125.795049
  0
ARC
  8
CSLAYER1
  6
CONTINUOUS
 62
     7
 10
316.112758
 20
125.795049
 40
3.000000
 50
19.383703
 51
340.616297
  0
LINE
  8
CSLAYER1
  6
CONTINUOUS
 62
     7
 10
318.945130
 20
124.700861
 11
317.844809
 21
122.795049
  0
LINE
  8
CSLAYER1
  6
CONTINUOUS
 62
     7
 10
317.844809
 20
122.795049
 11
314.380707
 21
122.795049
  0
ARC
  8
CSLAYER1
  6
CONTINUOUS
 62
     7
 10
332.022661
 20
125.795049
 40
3.000000
 50
-160.616297
 51
160.616297
  0
LINE
  8
CSLAYER1
  6
CONTINUOUS
 62
     7
 10
333.754712
 20
128.795049
 11
335.486762
 21
125.795049
  0
LINE
  8
CSLAYER1
  6
CONTINUOUS
 62
     7
 10
335.486762
 20
125.795049
 11
333.754712
 21
122.795049
  0
LINE
  8
CSLAYER1
  6
CONTINUOUS
 62
     7
 10
333.754712
 20
122.795049
 11
330.290610
 21
122.795049
  0
LINE
  8
CSLAYER1
  6
CONTINUOUS
 62
     7
 10
330.290610
 20
122.795049
 11
329.190289
 21
124.700861
  0
ARC
  8
CSLAYER1
  6
CONTINUOUS
 62
     7
 10
332.022661
 20
125.795049
 40
4.000000
 50
-157.277880
 51
135.030883
  0
LINE
  8
CSLAYER1
  6
CENTER
 62
     2
 10
342.942709
 20
64.500000
 11
305.192709
 21
64.500000
  0
ARC
  8
CSLAYER1
  6
CONTINUOUS
 62
     7
 10
332.022661
 20
72.454952
 40
4.000000
 50
-157.855754
 51
157.277880
  0
ARC
  8
CSLAYER1
  6
CONTINUOUS
 62
     7
 10
316.112758
 20
72.454952
 40
4.000000
 50
22.722120
 51
337.855754
  0
ARC
  8
CSLAYER1
  6
CONTINUOUS
 62
     7
 10
324.067709
 20
64.500000
 40
15.375000
 50
-250.577032
 51
70.577032
  0
ARC
  8
CSLAYER1
  6
CONTINUOUS
 62
     7
 10
324.067709
 20
64.500000
 40
15.875000
 50
-246.418462
 51
66.418462
  0
LINE
  8
CSLAYER1
  6
CONTINUOUS
 62
     7
 10
328.558559
 20
56.545049
 11
330.290610
 21
53.545049
  0
LINE
  8
CSLAYER1
  6
CONTINUOUS
 62
     7
 10
330.290610
 20
53.545049
 11
333.754712
 21
53.545049
  0
LINE
  8
CSLAYER1
  6
CONTINUOUS
 62
     7
 10
333.754712
 20
53.545049
 11
335.486762
 21
56.545049
  0
LINE
  8
CSLAYER1
  6
CONTINUOUS
 62
     7
 10
335.486762
 20
56.545049
 11
333.754712
 21
59.545049
  0
LINE
  8
CSLAYER1
  6
CONTINUOUS
 62
     7
 10
333.754712
 20
59.545049
 11
330.290610
 21
59.545049
  0
LINE
  8
CSLAYER1
  6
CONTINUOUS
 62
     7
 10
330.290610
 20
59.545049
 11
328.558559
 21
56.545049
  0
CIRCLE
  8
CSLAYER1
  6
CONTINUOUS
 62
     7
 10
332.022661
 20
56.545049
 40
3.000000
  0
CIRCLE
  8
CSLAYER1
  6
CONTINUOUS
 62
     7
 10
332.022661
 20
56.545049
 40
4.000000
  0
LINE
  8
CSLAYER1
  6
CONTINUOUS
 62
     7
 10
312.648657
 20
56.545049
 11
314.380707
 21
53.545049
  0
LINE
  8
CSLAYER1
  6
CONTINUOUS
 62
     7
 10
314.380707
 20
53.545049
 11
317.844809
 21
53.545049
  0
LINE
  8
CSLAYER1
  6
CONTINUOUS
 62
     7
 10
317.844809
 20
53.545049
 11
319.576860
 21
56.545049
  0
LINE
  8
CSLAYER1
  6
CONTINUOUS
 62
     7
 10
319.576860
 20
56.545049
 11
317.844809
 21
59.545049
  0
LINE
  8
CSLAYER1
  6
CONTINUOUS
 62
     7
 10
317.844809
 20
59.545049
 11
314.380707
 21
59.545049
  0
LINE
  8
CSLAYER1
  6
CONTINUOUS
 62
     7
 10
314.380707
 20
59.545049
 11
312.648657
 21
56.545049
  0
CIRCLE
  8
CSLAYER1
  6
CONTINUOUS
 62
     7
 10
316.112758
 20
56.545049
 40
3.000000
  0
CIRCLE
  8
CSLAYER1
  6
CONTINUOUS
 62
     7
 10
316.112758
 20
56.545049
 40
4.000000
  0
LINE
  8
CSLAYER1
  6
CONTINUOUS
 62
     7
 10
314.380707
 20
69.454952
 11
317.844809
 21
69.454952
  0
LINE
  8
CSLAYER1
  6
CONTINUOUS
 62
     7
 10
317.844809
 20
69.454952
 11
319.576860
 21
72.454952
  0
LINE
  8
CSLAYER1
  6
CONTINUOUS
 62
     7
 10
328.558559
 20
72.454952
 11
330.290610
 21
69.454952
  0
LINE
  8
CSLAYER1
  6
CONTINUOUS
 62
     7
 10
330.290610
 20
69.454952
 11
333.754712
 21
69.454952
  0
LINE
  8
CSLAYER1
  6
CONTINUOUS
 62
     7
 10
312.648657
 20
72.454952
 11
314.380707
 21
69.454952
  0
LINE
  8
CSLAYER1
  6
CONTINUOUS
 62
     7
 10
314.380707
 20
75.454952
 11
312.648657
 21
72.454952
  0
LINE
  8
CSLAYER1
  6
CONTINUOUS
 62
     7
 10
319.576860
 20
72.454952
 11
317.844809
 21
75.454952
  0
LINE
  8
CSLAYER1
  6
CONTINUOUS
 62
     7
 10
317.844809
 20
75.454952
 11
314.380707
 21
75.454952
  0
LINE
  8
CSLAYER1
  6
CONTINUOUS
 62
     7
 10
333.754712
 20
69.454952
 11
335.486762
 21
72.454952
  0
LINE
  8
CSLAYER1
  6
CONTINUOUS
 62
     7
 10
335.486762
 20
72.454952
 11
333.754712
 21
75.454952
  0
LINE
  8
CSLAYER1
  6
CONTINUOUS
 62
     7
 10
333.754712
 20
75.454952
 11
330.290610
 21
75.454952
  0
LINE
  8
CSLAYER1
  6
CONTINUOUS
 62
     7
 10
330.290610
 20
75.454952
 11
328.558559
 21
72.454952
  0
ARC
  8
CSLAYER1
  6
CONTINUOUS
 62
     7
 10
324.067709
 20
64.500000
 40
4.250000
 50
180.000000
 51
360.000000
  0
ARC
  8
CSLAYER1
  6
CONTINUOUS
 62
     7
 10
324.067709
 20
64.500000
 40
4.500000
 50
-199.188136
 51
19.188136
  0
ARC
  8
CSLAYER1
  6
CONTINUOUS
 62
     7
 10
324.067709
 20
64.500000
 40
5.250000
 50
-215.950568
 51
35.950568
  0
CIRCLE
  8
CSLAYER1
  6
CONTINUOUS
 62
     7
 10
316.112758
 20
72.454952
 40
3.000000
  0
CIRCLE
  8
CSLAYER1
  6
CONTINUOUS
 62
     7
 10
332.022661
 20
72.454952
 40
3.000000
  0
LINE
  8
CSLAYER1
  6
CONTINUOUS
 62
     7
 10
330.418562
 20
96.750000
 11
317.716856
 21
96.750000
  0
LINE
  8
CSLAYER1
  6
CONTINUOUS
 62
     7
 10
317.716856
 20
96.750000
 11
317.716856
 21
99.750000
  0
LINE
  8
CSLAYER1
  6
CONTINUOUS
 62
     7
 10
320.892283
 20
96.750000
 11
320.892283
 21
99.750000
  0
LINE
  8
CSLAYER1
  6
CONTINUOUS
 62
     7
 10
330.418562
 20
96.750000
 11
330.418562
 21
99.750000
  0
LINE
  8
CSLAYER1
  6
CONTINUOUS
 62
     7
 10
327.243136
 20
96.750000
 11
327.243136
 21
99.750000
  0
LINE
  8
CSLAYER1
  6
CONTINUOUS
 62
     7
 10
330.418562
 20
99.750000
 11
317.716856
 21
99.750000
  0
LINE
  8
CSLAYER1
  6
CONTINUOUS
 62
     7
 10
330.418562
 20
119.250000
 11
317.716856
 21
119.250000
  0
LINE
  8
CSLAYER1
  6
CONTINUOUS
 62
     7
 10
317.716856
 20
119.250000
 11
317.716856
 21
116.250000
  0
LINE
  8
CSLAYER1
  6
CONTINUOUS
 62
     7
 10
330.418562
 20
119.250000
 11
330.418562
 21
116.250000
  0
LINE
  8
CSLAYER1
  6
CONTINUOUS
 62
     7
 10
330.418562
 20
116.250000
 11
317.716856
 21
116.250000
  0
LINE
  8
CSLAYER1
  6
CONTINUOUS
 62
     7
 10
318.441562
 20
116.055814
 11
317.716855
 21
116.249999
  0
LINE
  8
CSLAYER1
  6
CONTINUOUS
 62
     7
 10
330.418563
 20
99.750001
 11
329.693857
 21
99.944186
  0
LINE
  8
CSLAYER1
  6
CONTINUOUS
 62
     7
 10
330.418563
 20
116.249999
 11
329.693857
 21
116.055814
  0
LINE
  8
CSLAYER1
  6
CONTINUOUS
 62
     7
 10
318.441562
 20
99.944186
 11
317.716855
 21
99.750001
  0
LINE
  8
CSLAYER1
  6
CONTINUOUS
 62
     7
 10
320.892283
 20
116.250000
 11
320.892283
 21
119.250000
  0
LINE
  8
CSLAYER1
  6
CONTINUOUS
 62
     7
 10
327.243136
 20
116.250000
 11
327.243136
 21
119.250000
  0
LINE
  8
CSLAYER1
  6
CONTINUOUS
 62
     7
 10
332.799090
 20
102.750000
 11
331.317709
 21
102.750000
  0
LINE
  8
CSLAYER1
  6
CONTINUOUS
 62
     7
 10
332.799090
 20
113.250000
 11
331.317709
 21
113.250000
  0
LINE
  8
CSLAYER1
  6
CONTINUOUS
 62
     7
 10
332.067709
 20
113.250000
 11
332.067709
 21
102.750000
  0
LINE
  8
CSLAYER1
  6
CONTINUOUS
 62
     7
 10
331.317709
 20
113.250000
 11
331.317709
 21
102.750000
  0
LINE
  8
CSLAYER1
  6
CONTINUOUS
 62
     7
 10
331.317709
 20
103.000000
 11
330.399981
 21
103.000000
  0
LINE
  8
CSLAYER1
  6
CONTINUOUS
 62
     7
 10
331.317709
 20
113.000000
 11
330.399981
 21
113.000000
  0
LINE
  8
CSLAYER1
  6
CONTINUOUS
 62
     7
 10
334.665461
 20
111.608439
 11
332.942709
 21
111.608439
  0
LINE
  8
CSLAYER1
  6
CONTINUOUS
 62
     7
 10
334.665461
 20
109.804220
 11
332.942709
 21
109.804220
  0
LINE
  8
CSLAYER1
  6
CONTINUOUS
 62
     7
 10
334.665461
 20
106.195781
 11
332.942709
 21
106.195781
  0
LINE
  8
CSLAYER1
  6
CONTINUOUS
 62
     7
 10
334.665461
 20
104.391561
 11
332.942709
 21
104.391561
  0
LINE
  8
CSLAYER1
  6
CONTINUOUS
 62
     7
 10
332.799091
 20
113.250001
 11
332.942708
 21
111.608440
  0
LINE
  8
CSLAYER1
  6
CONTINUOUS
 62
     7
 10
332.942708
 20
104.391561
 11
332.799091
 21
102.750000
  0
LINE
  8
CSLAYER1
  6
CONTINUOUS
 62
     7
 10
340.192709
 20
105.125000
 11
335.954794
 21
105.125000
  0
LINE
  8
CSLAYER1
  6
CONTINUOUS
 62
     7
 10
340.192709
 20
110.875000
 11
335.954794
 21
110.875000
  0
LINE
  8
CSLAYER1
  6
CONTINUOUS
 62
     7
 10
345.742709
 20
111.998153
 11
345.742709
 21
104.001848
  0
LINE
  8
CSLAYER1
  6
CONTINUOUS
 62
     7
 10
341.617709
 20
111.998153
 11
341.617709
 21
104.001848
  0
LINE
  8
CSLAYER1
  6
CONTINUOUS
 62
     7
 10
345.742709
 20
111.998153
 11
341.617709
 21
111.998153
  0
LINE
  8
CSLAYER1
  6
CONTINUOUS
 62
     7
 10
345.742709
 20
109.999076
 11
341.617709
 21
109.999076
  0
LINE
  8
CSLAYER1
  6
CONTINUOUS
 62
     7
 10
345.742709
 20
106.000924
 11
341.617709
 21
106.000924
  0
LINE
  8
CSLAYER1
  6
CONTINUOUS
 62
     7
 10
345.742709
 20
104.001848
 11
341.617709
 21
104.001848
  0
LINE
  8
CSLAYER1
  6
CONTINUOUS
 62
     7
 10
340.192709
 20
111.000000
 11
340.192709
 21
105.000000
  0
LINE
  8
CSLAYER1
  6
CONTINUOUS
 62
     7
 10
341.617709
 20
105.000000
 11
340.192709
 21
105.000000
  0
LINE
  8
CSLAYER1
  6
CONTINUOUS
 62
     7
 10
341.617709
 20
111.000000
 11
340.192709
 21
111.000000
  0
LINE
  8
CSLAYER1
  6
CONTINUOUS
 62
     7
 10
341.617709
 20
110.750000
 11
340.192709
 21
110.750000
  0
LINE
  8
CSLAYER1
  6
CONTINUOUS
 62
     7
 10
341.617709
 20
105.250000
 11
340.192709
 21
105.250000
  0
LINE
  8
CSLAYER1
  6
CONTINUOUS
 62
     7
 10
349.175962
 20
110.250001
 11
349.175962
 21
105.750000
  0
LINE
  8
CSLAYER1
  6
CONTINUOUS
 62
     7
 10
349.175962
 20
106.562500
 11
345.742709
 21
106.562500
  0
LINE
  8
CSLAYER1
  6
CONTINUOUS
 62
     7
 10
349.175962
 20
109.437500
 11
345.742709
 21
109.437500
  0
LINE
  8
CSLAYER1
  6
CONTINUOUS
 62
     7
 10
351.050962
 20
118.961865
 11
351.050962
 21
97.038136
  0
LINE
  8
CSLAYER1
  6
CONTINUOUS
 62
     7
 10
351.725962
 20
119.250000
 11
351.725962
 21
96.750000
  0
LINE
  8
CSLAYER1
  6
CONTINUOUS
 62
     7
 10
351.725957
 20
119.250001
 11
351.279174
 21
119.210913
  0
LINE
  8
CSLAYER1
  6
CONTINUOUS
 62
     7
 10
351.725962
 20
116.362496
 11
351.279182
 21
116.323407
  0
LINE
  8
CSLAYER1
  6
CONTINUOUS
 62
     7
 10
352.525962
 20
112.990692
 11
352.525962
 21
110.300000
  0
LINE
  8
CSLAYER1
  6
CONTINUOUS
 62
     7
 10
353.750964
 20
112.990692
 11
353.750964
 21
109.742842
  0
LINE
  8
CSLAYER1
  6
CONTINUOUS
 62
     7
 10
354.350962
 20
112.538250
 11
354.350962
 21
109.462020
  0
LINE
  8
CSLAYER1
  6
CONTINUOUS
 62
     7
 10
353.300962
 20
109.800000
 11
353.025962
 21
109.800000
  0
LINE
  8
CSLAYER1
  6
CONTINUOUS
 62
     7
 10
353.500964
 20
113.240692
 11
352.775962
 21
113.240692
  0
LINE
  8
CSLAYER1
  6
CONTINUOUS
 62
     7
 10
353.500964
 20
117.073956
 11
352.775962
 21
117.073956
  0
LINE
  8
CSLAYER1
  6
CONTINUOUS
 62
     7
 10
353.750964
 20
116.823956
 11
353.750964
 21
115.952732
  0
LINE
  8
CSLAYER1
  6
CONTINUOUS
 62
     7
 10
352.525962
 20
116.823956
 11
352.525962
 21
116.256683
  0
LINE
  8
CSLAYER1
  6
CONTINUOUS
 62
     7
 10
351.050964
 20
105.585958
 11
349.175962
 21
105.750000
  0
LINE
  8
CSLAYER1
  6
CONTINUOUS
 62
     7
 10
351.050964
 20
110.414042
 11
349.175962
 21
110.250000
  0
LINE
  8
CSLAYER1
  6
CONTINUOUS
 62
     7
 10
349.300964
 20
105.739063
 11
351.050962
 21
102.707977
  0
LINE
  8
CSLAYER1
  6
CONTINUOUS
 62
     7
 10
351.050962
 20
113.292023
 11
349.300964
 21
110.260938
  0
LINE
  8
CSLAYER1
  6
CONTINUOUS
 62
     7
 10
351.725957
 20
96.749999
 11
351.279174
 21
96.789087
  0
LINE
  8
CSLAYER1
  6
CONTINUOUS
 62
     7
 10
351.725962
 20
99.637505
 11
351.279182
 21
99.676593
  0
LINE
  8
CSLAYER1
  6
CONTINUOUS
 62
     7
 10
352.525962
 20
103.009308
 11
352.525962
 21
105.700000
  0
LINE
  8
CSLAYER1
  6
CONTINUOUS
 62
     7
 10
353.750964
 20
103.009308
 11
353.750964
 21
106.257158
  0
LINE
  8
CSLAYER1
  6
CONTINUOUS
 62
     7
 10
354.350962
 20
103.461750
 11
354.350962
 21
106.537981
  0
LINE
  8
CSLAYER1
  6
CONTINUOUS
 62
     7
 10
353.300962
 20
106.200000
 11
353.025962
 21
106.200000
  0
LINE
  8
CSLAYER1
  6
CONTINUOUS
 62
     7
 10
353.500964
 20
102.759308
 11
352.775962
 21
102.759308
  0
LINE
  8
CSLAYER1
  6
CONTINUOUS
 62
     7
 10
353.500964
 20
98.926045
 11
352.775962
 21
98.926045
  0
LINE
  8
CSLAYER1
  6
CONTINUOUS
 62
     7
 10
353.750964
 20
99.176045
 11
353.750964
 21
100.047268
  0
LINE
  8
CSLAYER1
  6
CONTINUOUS
 62
     7
 10
352.525962
 20
99.176045
 11
352.525962
 21
99.743317
  0
LINE
  8
CSLAYER1
  6
CONTINUOUS
 62
     7
 10
334.665461
 20
111.608439
 11
334.665461
 21
104.391561
  0
LINE
  8
CSLAYER1
  6
CONTINUOUS
 62
     7
 10
332.942709
 20
111.608439
 11
332.942709
 21
104.391561
  0
LINE
  8
CSLAYER1
  6
CONTINUOUS
 62
     7
 10
332.799090
 20
113.250000
 11
332.799090
 21
102.750000
  0
ARC
  8
CSLAYER1
  6
CONTINUOUS
 62
     7
 10
338.192709
 20
108.000000
 40
20.500000
 50
159.817850
 51
200.182130
  0
ARC
  8
CSLAYER1
  6
CONTINUOUS
 62
     7
 10
309.942709
 20
108.000000
 40
20.500000
 50
339.817866
 51
344.300710
  0
ARC
  8
CSLAYER1
  6
CONTINUOUS
 62
     7
 10
329.887972
 20
100.668629
 40
0.750000
 50
159.817960
 51
255.000050
  0
ARC
  8
CSLAYER1
  6
CONTINUOUS
 62
     7
 10
329.887972
 20
115.331371
 40
0.750000
 50
104.999950
 51
200.182080
  0
ARC
  8
CSLAYER1
  6
CONTINUOUS
 62
     7
 10
318.247446
 20
115.331371
 40
0.750000
 50
-20.182080
 51
75.000050
  0
ARC
  8
CSLAYER1
  6
CONTINUOUS
 62
     7
 10
318.247446
 20
100.668629
 40
0.750000
 50
-75.000047
 51
20.182040
  0
ARC
  8
CSLAYER1
  6
CONTINUOUS
 62
     7
 10
309.942709
 20
108.000000
 40
20.500000
 50
15.699250
 51
20.182150
  0
ARC
  8
CSLAYER1
  6
CONTINUOUS
 62
     7
 10
330.399981
 20
113.750000
 40
0.750000
 50
195.699240
 51
269.999930
  0
ARC
  8
CSLAYER1
  6
CONTINUOUS
 62
     7
 10
330.399981
 20
102.250000
 40
0.750000
 50
90.000090
 51
164.300750
  0
ARC
  8
CSLAYER1
  6
CONTINUOUS
 62
     7
 10
335.954794
 20
112.375000
 40
1.500000
 50
210.733140
 51
269.999990
  0
ARC
  8
CSLAYER1
  6
CONTINUOUS
 62
     7
 10
335.954794
 20
103.625000
 40
1.500000
 50
90.000040
 51
149.266840
  0
ARC
  8
CSLAYER1
  6
CONTINUOUS
 62
     7
 10
350.504077
 20
106.935472
 40
12.375000
 50
77.029820
 51
84.333530
  0
ARC
  8
CSLAYER1
  6
CONTINUOUS
 62
     7
 10
352.675569
 20
116.363632
 40
2.700000
 50
45.982290
 51
77.029820
  0
ARC
  8
CSLAYER1
  6
CONTINUOUS
 62
     7
 10
353.300962
 20
117.010845
 40
1.800000
 50
-53.167546
 51
45.982290
  0
ARC
  8
CSLAYER1
  6
CONTINUOUS
 62
     7
 10
351.300962
 20
118.961865
 40
0.250000
 50
94.999950
 51
179.999740
  0
ARC
  8
CSLAYER1
  6
CONTINUOUS
 62
     7
 10
350.504084
 20
104.047971
 40
12.375000
 50
77.029820
 51
84.333530
  0
ARC
  8
CSLAYER1
  6
CONTINUOUS
 62
     7
 10
352.675577
 20
113.476132
 40
2.700000
 50
45.982290
 51
77.029820
  0
ARC
  8
CSLAYER1
  6
CONTINUOUS
 62
     7
 10
353.300969
 20
114.123345
 40
1.800000
 50
-50.643620
 51
45.982290
  0
ARC
  8
CSLAYER1
  6
CONTINUOUS
 62
     7
 10
351.300969
 20
116.074364
 40
0.250000
 50
94.999950
 51
179.999740
  0
ARC
  8
CSLAYER1
  6
CONTINUOUS
 62
     7
 10
353.300962
 20
108.000000
 40
1.800000
 50
-90.000000
 51
90.000020
  0
ARC
  8
CSLAYER1
  6
CONTINUOUS
 62
     7
 10
353.025962
 20
110.300000
 40
0.500000
 50
180.000020
 51
270.000000
  0
ARC
  8
CSLAYER1
  6
CONTINUOUS
 62
     7
 10
353.500964
 20
112.990692
 40
0.250000
 50
-0.000018
 51
90.000020
  0
ARC
  8
CSLAYER1
  6
CONTINUOUS
 62
     7
 10
352.775962
 20
112.990692
 40
0.250000
 50
90.000020
 51
180.000000
  0
ARC
  8
CSLAYER1
  6
CONTINUOUS
 62
     7
 10
354.600962
 20
112.538250
 40
0.250000
 50
129.356510
 51
180.000180
  0
ARC
  8
CSLAYER1
  6
CONTINUOUS
 62
     7
 10
352.775962
 20
116.823956
 40
0.250000
 50
90.000020
 51
180.000000
  0
ARC
  8
CSLAYER1
  6
CONTINUOUS
 62
     7
 10
353.500964
 20
116.823956
 40
0.250000
 50
-0.000018
 51
90.000020
  0
ARC
  8
CSLAYER1
  6
CONTINUOUS
 62
     7
 10
350.504077
 20
109.064529
 40
12.375000
 50
275.666472
 51
282.970184
  0
ARC
  8
CSLAYER1
  6
CONTINUOUS
 62
     7
 10
352.675569
 20
99.636368
 40
2.700000
 50
282.970184
 51
314.017711
  0
ARC
  8
CSLAYER1
  6
CONTINUOUS
 62
     7
 10
353.300962
 20
98.989155
 40
1.800000
 50
-45.982289
 51
53.167540
  0
ARC
  8
CSLAYER1
  6
CONTINUOUS
 62
     7
 10
351.300962
 20
97.038136
 40
0.250000
 50
180.000240
 51
265.000050
  0
ARC
  8
CSLAYER1
  6
CONTINUOUS
 62
     7
 10
350.504084
 20
111.952030
 40
12.375000
 50
275.666472
 51
282.970184
  0
ARC
  8
CSLAYER1
  6
CONTINUOUS
 62
     7
 10
352.675577
 20
102.523869
 40
2.700000
 50
282.970184
 51
314.017711
  0
ARC
  8
CSLAYER1
  6
CONTINUOUS
 62
     7
 10
353.300969
 20
101.876656
 40
1.800000
 50
-45.982289
 51
50.643590
  0
ARC
  8
CSLAYER1
  6
CONTINUOUS
 62
     7
 10
351.300969
 20
99.925636
 40
0.250000
 50
180.000240
 51
265.000050
  0
ARC
  8
CSLAYER1
  6
CONTINUOUS
 62
     7
 10
353.025962
 20
105.700000
 40
0.500000
 50
90.000020
 51
180.000000
  0
ARC
  8
CSLAYER1
  6
CONTINUOUS
 62
     7
 10
353.500964
 20
103.009308
 40
0.250000
 50
-90.000020
 51
0.000037
  0
ARC
  8
CSLAYER1
  6
CONTINUOUS
 62
     7
 10
352.775962
 20
103.009308
 40
0.250000
 50
180.000020
 51
269.999980
  0
ARC
  8
CSLAYER1
  6
CONTINUOUS
 62
     7
 10
354.600962
 20
103.461750
 40
0.250000
 50
179.999800
 51
230.643480
  0
ARC
  8
CSLAYER1
  6
CONTINUOUS
 62
     7
 10
352.775962
 20
99.176045
 40
0.250000
 50
180.000020
 51
269.999980
  0
ARC
  8
CSLAYER1
  6
CONTINUOUS
 62
     7
 10
353.500964
 20
99.176045
 40
0.250000
 50
-90.000020
 51
0.000037
  0
ARC
  8
CSLAYER1
  6
CONTINUOUS
 62
     7
 10
335.863383
 20
108.000000
 40
7.840851
 50
140.380490
 51
219.619470
  0
LINE
  8
CSLAYER1
  6
CONTINUOUS
 62
     7
 10
266.817709
 20
153.750000
 11
266.817709
 21
119.298276
  0
LINE
  8
CSLAYER1
  6
CONTINUOUS
 62
     7
 10
361.162687
 20
99.678261
 11
388.442709
 21
99.678261
  0
LINE
  8
CSLAYER1
  6
CONTINUOUS
 62
     7
 10
351.050962
 20
115.573276
 11
329.178055
 21
115.573276
  0
INSERT
  8
CSLAYER1
  2
BLKF0001
 10
0.0
 20
0.0
 30
0.0
  0
LINE
  8
CSLAYER1
  6
CENTER
 62
     2
 10
38.125002
 20
304.500000
 11
209.750002
 21
304.500000
  0
LINE
  8
CSLAYER1
  6
CENTER
 62
     2
 10
136.250002
 20
231.000000
 11
136.250002
 21
378.000000
  0
ARC
  8
CSLAYER1
  6
CONTINUOUS
 62
     7
 10
136.250002
 20
304.500000
 40
70.500000
 50
-167.090940
 51
167.090940
  0
CIRCLE
  8
CSLAYER1
  6
CONTINUOUS
 62
     7
 10
136.250002
 20
304.500000
 40
55.625000
  0
CIRCLE
  8
CSLAYER1
  6
CONTINUOUS
 62
     7
 10
136.250002
 20
304.500000
 40
40.000000
  0
CIRCLE
  8
CSLAYER1
  6
CENTER
 62
     2
 10
136.250002
 20
304.500000
 40
50.000000
  0
CIRCLE
  8
CSLAYER1
  6
CONTINUOUS
 62
     7
 10
185.289266
 20
314.254516
 40
3.125000
  0
CIRCLE
  8
CSLAYER1
  6
CONTINUOUS
 62
     7
 10
177.823483
 20
332.278512
 40
3.125000
  0
CIRCLE
  8
CSLAYER1
  6
CONTINUOUS
 62
     7
 10
164.028514
 20
346.073481
 40
3.125000
  0
CIRCLE
  8
CSLAYER1
  6
CONTINUOUS
 62
     7
 10
146.004518
 20
353.539264
 40
3.125000
  0
CIRCLE
  8
CSLAYER1
  6
CONTINUOUS
 62
     7
 10
185.289266
 20
294.745484
 40
3.125000
  0
CIRCLE
  8
CSLAYER1
  6
CONTINUOUS
 62
     7
 10
177.823483
 20
276.721489
 40
3.125000
  0
CIRCLE
  8
CSLAYER1
  6
CONTINUOUS
 62
     7
 10
164.028514
 20
262.926520
 40
3.125000
  0
CIRCLE
  8
CSLAYER1
  6
CONTINUOUS
 62
     7
 10
146.004518
 20
255.460736
 40
3.125000
  0
CIRCLE
  8
CSLAYER1
  6
CONTINUOUS
 62
     7
 10
87.210738
 20
314.254516
 40
3.125000
  0
CIRCLE
  8
CSLAYER1
  6
CONTINUOUS
 62
     7
 10
94.676522
 20
332.278512
 40
3.125000
  0
CIRCLE
  8
CSLAYER1
  6
CONTINUOUS
 62
     7
 10
108.471491
 20
346.073481
 40
3.125000
  0
CIRCLE
  8
CSLAYER1
  6
CONTINUOUS
 62
     7
 10
126.495486
 20
353.539264
 40
3.125000
  0
CIRCLE
  8
CSLAYER1
  6
CONTINUOUS
 62
     7
 10
87.210738
 20
294.745484
 40
3.125000
  0
CIRCLE
  8
CSLAYER1
  6
CONTINUOUS
 62
     7
 10
94.676522
 20
276.721489
 40
3.125000
  0
CIRCLE
  8
CSLAYER1
  6
CONTINUOUS
 62
     7
 10
108.471491
 20
262.926520
 40
3.125000
  0
CIRCLE
  8
CSLAYER1
  6
CONTINUOUS
 62
     7
 10
126.495486
 20
255.460736
 40
3.125000
  0
LINE
  8
CSLAYER1
  6
CONTINUOUS
 62
     7
 10
195.221055
 20
317.058940
 11
197.299516
 21
320.658940
  0
LINE
  8
CSLAYER1
  6
CONTINUOUS
 62
     7
 10
197.299516
 20
320.658940
 11
201.456438
 21
320.658940
  0
LINE
  8
CSLAYER1
  6
CONTINUOUS
 62
     7
 10
201.456438
 20
313.458940
 11
197.299516
 21
313.458940
  0
LINE
  8
CSLAYER1
  6
CONTINUOUS
 62
     7
 10
197.299516
 20
313.458940
 11
195.221055
 21
317.058940
  0
CIRCLE
  8
CSLAYER1
  6
CONTINUOUS
 62
     7
 10
199.377977
 20
317.058940
 40
3.600000
  0
LINE
  8
CSLAYER1
  6
CONTINUOUS
 62
     7
 10
203.534899
 20
317.058940
 11
201.456438
 21
313.458940
  0
LINE
  8
CSLAYER1
  6
CONTINUOUS
 62
     7
 10
201.456438
 20
320.658940
 11
203.534899
 21
317.058940
  0
LINE
  8
CSLAYER1
  6
CONTINUOUS
 62
     7
 10
185.608859
 20
340.264834
 11
187.687320
 21
343.864834
  0
LINE
  8
CSLAYER1
  6
CONTINUOUS
 62
     7
 10
187.687320
 20
343.864834
 11
191.844242
 21
343.864834
  0
LINE
  8
CSLAYER1
  6
CONTINUOUS
 62
     7
 10
191.844242
 20
336.664834
 11
187.687320
 21
336.664834
  0
LINE
  8
CSLAYER1
  6
CONTINUOUS
 62
     7
 10
187.687320
 20
336.664834
 11
185.608859
 21
340.264834
  0
CIRCLE
  8
CSLAYER1
  6
CONTINUOUS
 62
     7
 10
189.765781
 20
340.264834
 40
3.600000
  0
LINE
  8
CSLAYER1
  6
CONTINUOUS
 62
     7
 10
193.922703
 20
340.264834
 11
191.844242
 21
336.664834
  0
LINE
  8
CSLAYER1
  6
CONTINUOUS
 62
     7
 10
191.844242
 20
343.864834
 11
193.922703
 21
340.264834
  0
LINE
  8
CSLAYER1
  6
CONTINUOUS
 62
     7
 10
167.847836
 20
358.025857
 11
169.926297
 21
361.625857
  0
LINE
  8
CSLAYER1
  6
CONTINUOUS
 62
     7
 10
169.926297
 20
361.625857
 11
174.083219
 21
361.625857
  0
LINE
  8
CSLAYER1
  6
CONTINUOUS
 62
     7
 10
174.083219
 20
354.425857
 11
169.926297
 21
354.425857
  0
LINE
  8
CSLAYER1
  6
CONTINUOUS
 62
     7
 10
169.926297
 20
354.425857
 11
167.847836
 21
358.025857
  0
CIRCLE
  8
CSLAYER1
  6
CONTINUOUS
 62
     7
 10
172.004758
 20
358.025857
 40
3.600000
  0
LINE
  8
CSLAYER1
  6
CONTINUOUS
 62
     7
 10
176.161680
 20
358.025857
 11
174.083219
 21
354.425857
  0
LINE
  8
CSLAYER1
  6
CONTINUOUS
 62
     7
 10
174.083219
 20
361.625857
 11
176.161680
 21
358.025857
  0
LINE
  8
CSLAYER1
  6
CONTINUOUS
 62
     7
 10
144.641942
 20
367.638053
 11
146.720403
 21
371.238053
  0
LINE
  8
CSLAYER1
  6
CONTINUOUS
 62
     7
 10
146.720403
 20
371.238053
 11
150.877325
 21
371.238053
  0
LINE
  8
CSLAYER1
  6
CONTINUOUS
 62
     7
 10
150.877325
 20
364.038053
 11
146.720403
 21
364.038053
  0
LINE
  8
CSLAYER1
  6
CONTINUOUS
 62
     7
 10
146.720403
 20
364.038053
 11
144.641942
 21
367.638053
  0
CIRCLE
  8
CSLAYER1
  6
CONTINUOUS
 62
     7
 10
148.798864
 20
367.638053
 40
3.600000
  0
LINE
  8
CSLAYER1
  6
CONTINUOUS
 62
     7
 10
152.955786
 20
367.638053
 11
150.877325
 21
364.038053
  0
LINE
  8
CSLAYER1
  6
CONTINUOUS
 62
     7
 10
150.877325
 20
371.238053
 11
152.955786
 21
367.638053
  0
LINE
  8
CSLAYER1
  6
CONTINUOUS
 62
     7
 10
195.221055
 20
291.941061
 11
197.299516
 21
288.341061
  0
LINE
  8
CSLAYER1
  6
CONTINUOUS
 62
     7
 10
197.299516
 20
288.341061
 11
201.456438
 21
288.341061
  0
LINE
  8
CSLAYER1
  6
CONTINUOUS
 62
     7
 10
201.456438
 20
295.541061
 11
197.299516
 21
295.541061
  0
LINE
  8
CSLAYER1
  6
CONTINUOUS
 62
     7
 10
197.299516
 20
295.541061
 11
195.221055
 21
291.941061
  0
CIRCLE
  8
CSLAYER1
  6
CONTINUOUS
 62
     7
 10
199.377977
 20
291.941061
 40
3.600000
  0
LINE
  8
CSLAYER1
  6
CONTINUOUS
 62
     7
 10
203.534899
 20
291.941061
 11
201.456438
 21
295.541061
  0
LINE
  8
CSLAYER1
  6
CONTINUOUS
 62
     7
 10
201.456438
 20
288.341061
 11
203.534899
 21
291.941061
  0
LINE
  8
CSLAYER1
  6
CONTINUOUS
 62
     7
 10
185.608859
 20
268.735166
 11
187.687320
 21
265.135166
  0
LINE
  8
CSLAYER1
  6
CONTINUOUS
 62
     7
 10
187.687320
 20
265.135166
 11
191.844242
 21
265.135166
  0
LINE
  8
CSLAYER1
  6
CONTINUOUS
 62
     7
 10
191.844242
 20
272.335166
 11
187.687320
 21
272.335166
  0
LINE
  8
CSLAYER1
  6
CONTINUOUS
 62
     7
 10
187.687320
 20
272.335166
 11
185.608859
 21
268.735166
  0
CIRCLE
  8
CSLAYER1
  6
CONTINUOUS
 62
     7
 10
189.765781
 20
268.735166
 40
3.600000
  0
LINE
  8
CSLAYER1
  6
CONTINUOUS
 62
     7
 10
193.922703
 20
268.735166
 11
191.844242
 21
272.335166
  0
LINE
  8
CSLAYER1
  6
CONTINUOUS
 62
     7
 10
191.844242
 20
265.135166
 11
193.922703
 21
268.735166
  0
LINE
  8
CSLAYER1
  6
CONTINUOUS
 62
     7
 10
167.847836
 20
250.974144
 11
169.926297
 21
247.374144
  0
LINE
  8
CSLAYER1
  6
CONTINUOUS
 62
     7
 10
169.926297
 20
247.374144
 11
174.083219
 21
247.374144
  0
LINE
  8
CSLAYER1
  6
CONTINUOUS
 62
     7
 10
174.083219
 20
254.574144
 11
169.926297
 21
254.574144
  0
LINE
  8
CSLAYER1
  6
CONTINUOUS
 62
     7
 10
169.926297
 20
254.574144
 11
167.847836
 21
250.974144
  0
CIRCLE
  8
CSLAYER1
  6
CONTINUOUS
 62
     7
 10
172.004758
 20
250.974144
 40
3.600000
  0
LINE
  8
CSLAYER1
  6
CONTINUOUS
 62
     7
 10
176.161680
 20
250.974144
 11
174.083219
 21
254.574144
  0
LINE
  8
CSLAYER1
  6
CONTINUOUS
 62
     7
 10
174.083219
 20
247.374144
 11
176.161680
 21
250.974144
  0
LINE
  8
CSLAYER1
  6
CONTINUOUS
 62
     7
 10
144.641942
 20
241.361948
 11
146.720403
 21
237.761948
  0
LINE
  8
CSLAYER1
  6
CONTINUOUS
 62
     7
 10
146.720403
 20
237.761948
 11
150.877325
 21
237.761948
  0
LINE
  8
CSLAYER1
  6
CONTINUOUS
 62
     7
 10
150.877325
 20
244.961948
 11
146.720403
 21
244.961948
  0
LINE
  8
CSLAYER1
  6
CONTINUOUS
 62
     7
 10
146.720403
 20
244.961948
 11
144.641942
 21
241.361948
  0
CIRCLE
  8
CSLAYER1
  6
CONTINUOUS
 62
     7
 10
148.798864
 20
241.361948
 40
3.600000
  0
LINE
  8
CSLAYER1
  6
CONTINUOUS
 62
     7
 10
152.955786
 20
241.361948
 11
150.877325
 21
244.961948
  0
LINE
  8
CSLAYER1
  6
CONTINUOUS
 62
     7
 10
150.877325
 20
237.761948
 11
152.955786
 21
241.361948
  0
LINE
  8
CSLAYER1
  6
CONTINUOUS
 62
     7
 10
86.891146
 20
340.264834
 11
84.812685
 21
343.864834
  0
LINE
  8
CSLAYER1
  6
CONTINUOUS
 62
     7
 10
84.812685
 20
343.864834
 11
80.655763
 21
343.864834
  0
LINE
  8
CSLAYER1
  6
CONTINUOUS
 62
     7
 10
80.655763
 20
336.664834
 11
84.812685
 21
336.664834
  0
LINE
  8
CSLAYER1
  6
CONTINUOUS
 62
     7
 10
84.812685
 20
336.664834
 11
86.891146
 21
340.264834
  0
CIRCLE
  8
CSLAYER1
  6
CONTINUOUS
 62
     7
 10
82.734224
 20
340.264834
 40
3.600000
  0
LINE
  8
CSLAYER1
  6
CONTINUOUS
 62
     7
 10
78.577302
 20
340.264834
 11
80.655763
 21
336.664834
  0
LINE
  8
CSLAYER1
  6
CONTINUOUS
 62
     7
 10
80.655763
 20
343.864834
 11
78.577302
 21
340.264834
  0
LINE
  8
CSLAYER1
  6
CONTINUOUS
 62
     7
 10
104.652169
 20
358.025857
 11
102.573708
 21
361.625857
  0
LINE
  8
CSLAYER1
  6
CONTINUOUS
 62
     7
 10
102.573708
 20
361.625857
 11
98.416786
 21
361.625857
  0
LINE
  8
CSLAYER1
  6
CONTINUOUS
 62
     7
 10
98.416786
 20
354.425857
 11
102.573708
 21
354.425857
  0
LINE
  8
CSLAYER1
  6
CONTINUOUS
 62
     7
 10
102.573708
 20
354.425857
 11
104.652169
 21
358.025857
  0
CIRCLE
  8
CSLAYER1
  6
CONTINUOUS
 62
     7
 10
100.495247
 20
358.025857
 40
3.600000
  0
LINE
  8
CSLAYER1
  6
CONTINUOUS
 62
     7
 10
96.338325
 20
358.025857
 11
98.416786
 21
354.425857
  0
LINE
  8
CSLAYER1
  6
CONTINUOUS
 62
     7
 10
98.416786
 20
361.625857
 11
96.338325
 21
358.025857
  0
LINE
  8
CSLAYER1
  6
CONTINUOUS
 62
     7
 10
127.858063
 20
367.638053
 11
125.779602
 21
371.238053
  0
LINE
  8
CSLAYER1
  6
CONTINUOUS
 62
     7
 10
125.779602
 20
371.238053
 11
121.622680
 21
371.238053
  0
LINE
  8
CSLAYER1
  6
CONTINUOUS
 62
     7
 10
121.622680
 20
364.038053
 11
125.779602
 21
364.038053
  0
LINE
  8
CSLAYER1
  6
CONTINUOUS
 62
     7
 10
125.779602
 20
364.038053
 11
127.858063
 21
367.638053
  0
CIRCLE
  8
CSLAYER1
  6
CONTINUOUS
 62
     7
 10
123.701141
 20
367.638053
 40
3.600000
  0
LINE
  8
CSLAYER1
  6
CONTINUOUS
 62
     7
 10
119.544219
 20
367.638053
 11
121.622680
 21
364.038053
  0
LINE
  8
CSLAYER1
  6
CONTINUOUS
 62
     7
 10
121.622680
 20
371.238053
 11
119.544219
 21
367.638053
  0
LINE
  8
CSLAYER1
  6
CONTINUOUS
 62
     7
 10
86.891146
 20
268.735166
 11
84.812685
 21
265.135166
  0
LINE
  8
CSLAYER1
  6
CONTINUOUS
 62
     7
 10
84.812685
 20
265.135166
 11
80.655763
 21
265.135166
  0
LINE
  8
CSLAYER1
  6
CONTINUOUS
 62
     7
 10
80.655763
 20
272.335166
 11
84.812685
 21
272.335166
  0
LINE
  8
CSLAYER1
  6
CONTINUOUS
 62
     7
 10
84.812685
 20
272.335166
 11
86.891146
 21
268.735166
  0
CIRCLE
  8
CSLAYER1
  6
CONTINUOUS
 62
     7
 10
82.734224
 20
268.735166
 40
3.600000
  0
LINE
  8
CSLAYER1
  6
CONTINUOUS
 62
     7
 10
78.577302
 20
268.735166
 11
80.655763
 21
272.335166
  0
LINE
  8
CSLAYER1
  6
CONTINUOUS
 62
     7
 10
80.655763
 20
265.135166
 11
78.577302
 21
268.735166
  0
LINE
  8
CSLAYER1
  6
CONTINUOUS
 62
     7
 10
104.652169
 20
250.974144
 11
102.573708
 21
247.374144
  0
LINE
  8
CSLAYER1
  6
CONTINUOUS
 62
     7
 10
102.573708
 20
247.374144
 11
98.416786
 21
247.374144
  0
LINE
  8
CSLAYER1
  6
CONTINUOUS
 62
     7
 10
98.416786
 20
254.574144
 11
102.573708
 21
254.574144
  0
LINE
  8
CSLAYER1
  6
CONTINUOUS
 62
     7
 10
102.573708
 20
254.574144
 11
104.652169
 21
250.974144
  0
CIRCLE
  8
CSLAYER1
  6
CONTINUOUS
 62
     7
 10
100.495247
 20
250.974144
 40
3.600000
  0
LINE
  8
CSLAYER1
  6
CONTINUOUS
 62
     7
 10
96.338325
 20
250.974144
 11
98.416786
 21
254.574144
  0
LINE
  8
CSLAYER1
  6
CONTINUOUS
 62
     7
 10
98.416786
 20
247.374144
 11
96.338325
 21
250.974144
  0
LINE
  8
CSLAYER1
  6
CONTINUOUS
 62
     7
 10
127.858063
 20
241.361948
 11
125.779602
 21
237.761948
  0
LINE
  8
CSLAYER1
  6
CONTINUOUS
 62
     7
 10
125.779602
 20
237.761948
 11
121.622680
 21
237.761948
  0
LINE
  8
CSLAYER1
  6
CONTINUOUS
 62
     7
 10
121.622680
 20
244.961948
 11
125.779602
 21
244.961948
  0
LINE
  8
CSLAYER1
  6
CONTINUOUS
 62
     7
 10
125.779602
 20
244.961948
 11
127.858063
 21
241.361948
  0
CIRCLE
  8
CSLAYER1
  6
CONTINUOUS
 62
     7
 10
123.701141
 20
241.361948
 40
3.600000
  0
LINE
  8
CSLAYER1
  6
CONTINUOUS
 62
     7
 10
119.544219
 20
241.361948
 11
121.622680
 21
244.961948
  0
LINE
  8
CSLAYER1
  6
CONTINUOUS
 62
     7
 10
121.622680
 20
237.761948
 11
119.544219
 21
241.361948
  0
LINE
  8
CSLAYER1
  6
CONTINUOUS
 62
     7
 10
72.000002
 20
304.500000
 11
72.000002
 21
289.250000
  0
LINE
  8
CSLAYER1
  6
CONTINUOUS
 62
     7
 10
79.342182
 20
298.250000
 11
74.000002
 21
298.250000
  0
LINE
  8
CSLAYER1
  6
CONTINUOUS
 62
     7
 10
71.500002
 20
320.250000
 11
67.250002
 21
320.250000
  0
LINE
  8
CSLAYER1
  6
CONTINUOUS
 62
     7
 10
72.000002
 20
304.500000
 11
72.000002
 21
319.750000
  0
LINE
  8
CSLAYER1
  6
CONTINUOUS
 62
     7
 10
79.342182
 20
310.750000
 11
74.000002
 21
310.750000
  0
ARC
  8
CSLAYER1
  6
CONTINUOUS
 62
     7
 10
74.000002
 20
312.750000
 40
2.000000
 50
180.000000
 51
270.000000
  0
ARC
  8
CSLAYER1
  6
CONTINUOUS
 62
     7
 10
74.000002
 20
296.250000
 40
2.000000
 50
90.000000
 51
180.000000
  0
ARC
  8
CSLAYER1
  6
CONTINUOUS
 62
     7
 10
71.500002
 20
319.750000
 40
0.500000
 50
0.000000
 51
90.000000
  0
LINE
  8
CSLAYER1
  6
CONTINUOUS
 62
     7
 10
67.000002
 20
320.000000
 11
67.000002
 21
315.750000
  0
LINE
  8
CSLAYER1
  6
CONTINUOUS
 62
     7
 10
67.000002
 20
301.125000
 11
67.000002
 21
289.636600
  0
LINE
  8
CSLAYER1
  6
CONTINUOUS
 62
     7
 10
67.250002
 20
320.250000
 11
67.000002
 21
320.000000
  0
LINE
  8
CSLAYER1
  6
CONTINUOUS
 62
     7
 10
67.000002
 20
307.875000
 11
67.000002
 21
301.125000
  0
LINE
  8
CSLAYER1
  6
CONTINUOUS
 62
     7
 10
66.500002
 20
296.125000
 11
66.500002
 21
304.500000
  0
LINE
  8
CSLAYER1
  6
CONTINUOUS
 62
     7
 10
60.750002
 20
298.106763
 11
60.750002
 21
301.035899
  0
LINE
  8
CSLAYER1
  6
CONTINUOUS
 62
     7
 10
66.000002
 20
288.875000
 11
66.000002
 21
304.500000
  0
LINE
  8
CSLAYER1
  6
CONTINUOUS
 62
     7
 10
66.138199
 20
295.944099
 11
66.500002
 21
296.125000
  0
LINE
  8
CSLAYER1
  6
CONTINUOUS
 62
     7
 10
62.250002
 20
289.125000
 11
62.250002
 21
304.500000
  0
LINE
  8
CSLAYER1
  6
CONTINUOUS
 62
     7
 10
62.750002
 20
288.625000
 11
65.750002
 21
288.625000
  0
ARC
  8
CSLAYER1
  6
CONTINUOUS
 62
     7
 10
62.750002
 20
289.125000
 40
0.500000
 50
180.000000
 51
270.000000
  0
ARC
  8
CSLAYER1
  6
CONTINUOUS
 62
     7
 10
65.750002
 20
288.875000
 40
0.250000
 50
270.000000
 51
360.000000
  0
ARC
  8
CSLAYER1
  6
CONTINUOUS
 62
     7
 10
66.250002
 20
295.720492
 40
0.250000
 50
116.565051
 51
180.000000
  0
LINE
  8
CSLAYER1
  6
CONTINUOUS
 62
     7
 10
66.500002
 20
315.750000
 11
66.500002
 21
304.500000
  0
LINE
  8
CSLAYER1
  6
CONTINUOUS
 62
     7
 10
60.750002
 20
310.893237
 11
60.750002
 21
307.964102
  0
LINE
  8
CSLAYER1
  6
CONTINUOUS
 62
     7
 10
66.000002
 20
320.125000
 11
66.000002
 21
315.750000
  0
LINE
  8
CSLAYER1
  6
CONTINUOUS
 62
     7
 10
62.250002
 20
319.875000
 11
62.250002
 21
304.500000
  0
LINE
  8
CSLAYER1
  6
CONTINUOUS
 62
     7
 10
60.957297
 20
311.228648
 11
62.042707
 21
311.771353
  0
LINE
  8
CSLAYER1
  6
CONTINUOUS
 62
     7
 10
62.750002
 20
320.375000
 11
65.750002
 21
320.375000
  0
ARC
  8
CSLAYER1
  6
CONTINUOUS
 62
     7
 10
62.750002
 20
319.875000
 40
0.500000
 50
90.000000
 51
180.000000
  0
ARC
  8
CSLAYER1
  6
CONTINUOUS
 62
     7
 10
65.750002
 20
320.125000
 40
0.250000
 50
0.000000
 51
90.000000
  0
ARC
  8
CSLAYER1
  6
CONTINUOUS
 62
     7
 10
61.125002
 20
310.893237
 40
0.375000
 50
116.565051
 51
180.000000
  0
LINE
  8
CSLAYER1
  6
CONTINUOUS
 62
     7
 10
58.875002
 20
308.731203
 11
60.750002
 21
308.672610
  0
LINE
  8
CSLAYER1
  6
CONTINUOUS
 62
     7
 10
60.750002
 20
308.302860
 11
59.552076
 21
308.340295
  0
LINE
  8
CSLAYER1
  6
CONTINUOUS
 62
     7
 10
59.552076
 20
304.500000
 11
59.552076
 21
308.710045
  0
LINE
  8
CSLAYER1
  6
CONTINUOUS
 62
     7
 10
58.875002
 20
308.750000
 11
58.250002
 21
308.750000
  0
LINE
  8
CSLAYER1
  6
CONTINUOUS
 62
     7
 10
58.875002
 20
308.731203
 11
58.875002
 21
308.750000
  0
LINE
  8
CSLAYER1
  6
CONTINUOUS
 62
     7
 10
58.875002
 20
300.268797
 11
60.750002
 21
300.327391
  0
LINE
  8
CSLAYER1
  6
CONTINUOUS
 62
     7
 10
59.552076
 20
304.500000
 11
59.552076
 21
300.289956
  0
LINE
  8
CSLAYER1
  6
CONTINUOUS
 62
     7
 10
58.875002
 20
300.250000
 11
58.250002
 21
300.250000
  0
LINE
  8
CSLAYER1
  6
CONTINUOUS
 62
     7
 10
60.750002
 20
308.672610
 11
60.750002
 21
307.964102
  0
LINE
  8
CSLAYER1
  6
CONTINUOUS
 62
     7
 10
66.500002
 20
304.500000
 11
66.500002
 21
313.375000
  0
LINE
  8
CSLAYER1
  6
CONTINUOUS
 62
     7
 10
67.000002
 20
304.500000
 11
67.000002
 21
315.750000
  0
LINE
  8
CSLAYER1
  6
CONTINUOUS
 62
     7
 10
67.000002
 20
320.125000
 11
66.500002
 21
320.125000
  0
LINE
  8
CSLAYER1
  6
CONTINUOUS
 62
     7
 10
67.000002
 20
304.500000
 11
67.000002
 21
289.633553
  0
LINE
  8
CSLAYER1
  6
CONTINUOUS
 62
     7
 10
66.500002
 20
304.500000
 11
66.500002
 21
288.875000
  0
LINE
  8
CSLAYER1
  6
CONTINUOUS
 62
     7
 10
60.957297
 20
297.771353
 11
62.042707
 21
297.228648
  0
ARC
  8
CSLAYER1
  6
CONTINUOUS
 62
     7
 10
61.125002
 20
298.106763
 40
0.375000
 50
180.000000
 51
243.434949
  0
ARC
  8
CSLAYER1
  6
CONTINUOUS
 62
     7
 10
61.875002
 20
296.893237
 40
0.375000
 50
0.000000
 51
63.434949
  0
LINE
  8
CSLAYER1
  6
CONTINUOUS
 62
     7
 10
59.705002
 20
318.750000
 11
59.705002
 21
315.750000
  0
LINE
  8
CSLAYER1
  6
CONTINUOUS
 62
     7
 10
59.705002
 20
318.750000
 11
59.972952
 21
319.214102
  0
ARC
  8
CSLAYER1
  6
CONTINUOUS
 62
     7
 10
61.695496
 20
318.348076
 40
1.927993
 50
153.308604
 51
206.691396
  0
ARC
  8
CSLAYER1
  6
CONTINUOUS
 62
     7
 10
67.171302
 20
315.750000
 40
7.403800
 50
166.470805
 51
180.000000
  0
LINE
  8
CSLAYER1
  6
CONTINUOUS
 62
     7
 10
59.705002
 20
312.750000
 11
59.705002
 21
315.750000
  0
LINE
  8
CSLAYER1
  6
CONTINUOUS
 62
     7
 10
59.705002
 20
312.750000
 11
59.972952
 21
312.285899
  0
ARC
  8
CSLAYER1
  6
CONTINUOUS
 62
     7
 10
61.695496
 20
313.151924
 40
1.927993
 50
153.308604
 51
206.691396
  0
ARC
  8
CSLAYER1
  6
CONTINUOUS
 62
     7
 10
67.171302
 20
315.750000
 40
7.403800
 50
180.000000
 51
193.529195
  0
LINE
  8
CSLAYER1
  6
CONTINUOUS
 62
     7
 10
59.972952
 20
312.285899
 11
62.250002
 21
312.285899
  0
LINE
  8
CSLAYER1
  6
CONTINUOUS
 62
     7
 10
59.972952
 20
314.017949
 11
62.250002
 21
314.017949
  0
LINE
  8
CSLAYER1
  6
CONTINUOUS
 62
     7
 10
59.972952
 20
317.482051
 11
62.250002
 21
317.482051
  0
LINE
  8
CSLAYER1
  6
CONTINUOUS
 62
     7
 10
59.972952
 20
319.214102
 11
62.250002
 21
319.214102
  0
LINE
  8
CSLAYER1
  6
CONTINUOUS
 62
     7
 10
75.250002
 20
317.750000
 11
76.875002
 21
317.750000
  0
LINE
  8
CSLAYER1
  6
CONTINUOUS
 62
     7
 10
76.875002
 20
317.750000
 11
77.250002
 21
317.375000
  0
LINE
  8
CSLAYER1
  6
CONTINUOUS
 62
     7
 10
77.250002
 20
317.375000
 11
77.250002
 21
315.750000
  0
LINE
  8
CSLAYER1
  6
CONTINUOUS
 62
     7
 10
77.250002
 20
314.125000
 11
77.250002
 21
315.750000
  0
LINE
  8
CSLAYER1
  6
CONTINUOUS
 62
     7
 10
76.875002
 20
313.750000
 11
77.250002
 21
314.125000
  0
LINE
  8
CSLAYER1
  6
CONTINUOUS
 62
     7
 10
75.250002
 20
313.750000
 11
76.875002
 21
313.750000
  0
LINE
  8
CSLAYER1
  6
CONTINUOUS
 62
     7
 10
75.250002
 20
314.000000
 11
77.125002
 21
314.000000
  0
LINE
  8
CSLAYER1
  6
CONTINUOUS
 62
     7
 10
76.875002
 20
313.750000
 11
76.875002
 21
315.750000
  0
LINE
  8
CSLAYER1
  6
CONTINUOUS
 62
     7
 10
76.875002
 20
317.750000
 11
76.875002
 21
315.750000
  0
LINE
  8
CSLAYER1
  6
CONTINUOUS
 62
     7
 10
75.250002
 20
317.500000
 11
77.125002
 21
317.500000
  0
LINE
  8
CSLAYER1
  6
CONTINUOUS
 62
     7
 10
75.250002
 20
318.750000
 11
75.250002
 21
315.750000
  0
LINE
  8
CSLAYER1
  6
CONTINUOUS
 62
     7
 10
75.250002
 20
318.750000
 11
74.982053
 21
319.214102
  0
ARC
  8
CSLAYER1
  6
CONTINUOUS
 62
     7
 10
73.259509
 20
318.348076
 40
1.927993
 50
-26.691396
 51
26.691396
  0
ARC
  8
CSLAYER1
  6
CONTINUOUS
 62
     7
 10
67.783703
 20
315.750000
 40
7.403800
 50
0.000000
 51
13.529195
  0
LINE
  8
CSLAYER1
  6
CONTINUOUS
 62
     7
 10
75.250002
 20
312.750000
 11
75.250002
 21
315.750000
  0
LINE
  8
CSLAYER1
  6
CONTINUOUS
 62
     7
 10
75.250002
 20
312.750000
 11
74.982053
 21
312.285899
  0
ARC
  8
CSLAYER1
  6
CONTINUOUS
 62
     7
 10
73.259509
 20
313.151924
 40
1.927993
 50
-26.691396
 51
26.691396
  0
ARC
  8
CSLAYER1
  6
CONTINUOUS
 62
     7
 10
67.783703
 20
315.750000
 40
7.403800
 50
346.470805
 51
360.000000
  0
LINE
  8
CSLAYER1
  6
CONTINUOUS
 62
     7
 10
72.000002
 20
312.285899
 11
74.982053
 21
312.285899
  0
LINE
  8
CSLAYER1
  6
CONTINUOUS
 62
     7
 10
72.000002
 20
314.017949
 11
74.982053
 21
314.017949
  0
LINE
  8
CSLAYER1
  6
CONTINUOUS
 62
     7
 10
72.000002
 20
317.482051
 11
74.982053
 21
317.482051
  0
LINE
  8
CSLAYER1
  6
CONTINUOUS
 62
     7
 10
72.000002
 20
319.214102
 11
74.982053
 21
319.214102
  0
LINE
  8
CSLAYER1
  6
CONTINUOUS
 62
     7
 10
67.000002
 20
313.375000
 11
67.000002
 21
307.875000
  0
LINE
  8
CSLAYER1
  6
CONTINUOUS
 62
     7
 10
67.000002
 20
318.125000
 11
67.000002
 21
320.125000
  0
LINE
  8
CSLAYER1
  6
CONTINUOUS
 62
     7
 10
66.500002
 20
315.750000
 11
66.500002
 21
320.125000
  0
LINE
  8
CSLAYER1
  6
CONTINUOUS
 62
     7
 10
66.000002
 20
315.750000
 11
66.000002
 21
304.500000
  0
LINE
  8
CSLAYER1
  6
CONTINUOUS
 62
     7
 10
72.000002
 20
296.250000
 11
72.000002
 21
289.994397
  0
LINE
  8
CSLAYER1
  6
CONTINUOUS
 62
     7
 10
67.000002
 20
289.000000
 11
67.000002
 21
293.250000
  0
LINE
  8
CSLAYER1
  6
CONTINUOUS
 62
     7
 10
66.000002
 20
288.875000
 11
66.000002
 21
293.250000
  0
LINE
  8
CSLAYER1
  6
CONTINUOUS
 62
     7
 10
62.750002
 20
288.625000
 11
65.750002
 21
288.625000
  0
ARC
  8
CSLAYER1
  6
CONTINUOUS
 62
     7
 10
62.750002
 20
289.125000
 40
0.500000
 50
180.000000
 51
270.000000
  0
ARC
  8
CSLAYER1
  6
CONTINUOUS
 62
     7
 10
65.750002
 20
288.875000
 40
0.250000
 50
270.000000
 51
360.000000
  0
LINE
  8
CSLAYER1
  6
CONTINUOUS
 62
     7
 10
66.967525
 20
288.875000
 11
66.500002
 21
288.875000
  0
LINE
  8
CSLAYER1
  6
CONTINUOUS
 62
     7
 10
59.705002
 20
290.250000
 11
59.705002
 21
293.250000
  0
LINE
  8
CSLAYER1
  6
CONTINUOUS
 62
     7
 10
59.705002
 20
290.250000
 11
59.972952
 21
289.785899
  0
ARC
  8
CSLAYER1
  6
CONTINUOUS
 62
     7
 10
61.695496
 20
290.651924
 40
1.927993
 50
153.308604
 51
206.691396
  0
ARC
  8
CSLAYER1
  6
CONTINUOUS
 62
     7
 10
67.171302
 20
293.250000
 40
7.403800
 50
180.000000
 51
193.529195
  0
LINE
  8
CSLAYER1
  6
CONTINUOUS
 62
     7
 10
59.705002
 20
296.250000
 11
59.705002
 21
293.250000
  0
LINE
  8
CSLAYER1
  6
CONTINUOUS
 62
     7
 10
59.705002
 20
296.250000
 11
59.972952
 21
296.714102
  0
ARC
  8
CSLAYER1
  6
CONTINUOUS
 62
     7
 10
61.695496
 20
295.848076
 40
1.927993
 50
153.308604
 51
206.691396
  0
ARC
  8
CSLAYER1
  6
CONTINUOUS
 62
     7
 10
67.171302
 20
293.250000
 40
7.403800
 50
166.470805
 51
180.000000
  0
LINE
  8
CSLAYER1
  6
CONTINUOUS
 62
     7
 10
59.972952
 20
296.714102
 11
62.250002
 21
296.714102
  0
LINE
  8
CSLAYER1
  6
CONTINUOUS
 62
     7
 10
59.972952
 20
294.982051
 11
62.250002
 21
294.982051
  0
LINE
  8
CSLAYER1
  6
CONTINUOUS
 62
     7
 10
59.972952
 20
291.517949
 11
62.250002
 21
291.517949
  0
LINE
  8
CSLAYER1
  6
CONTINUOUS
 62
     7
 10
59.972952
 20
289.785899
 11
62.250002
 21
289.785899
  0
LINE
  8
CSLAYER1
  6
CONTINUOUS
 62
     7
 10
75.250002
 20
291.250000
 11
76.875002
 21
291.250000
  0
LINE
  8
CSLAYER1
  6
CONTINUOUS
 62
     7
 10
76.875002
 20
291.250000
 11
77.250002
 21
291.625000
  0
LINE
  8
CSLAYER1
  6
CONTINUOUS
 62
     7
 10
77.250002
 20
291.625000
 11
77.250002
 21
293.250000
  0
LINE
  8
CSLAYER1
  6
CONTINUOUS
 62
     7
 10
77.250002
 20
294.875000
 11
77.250002
 21
293.250000
  0
LINE
  8
CSLAYER1
  6
CONTINUOUS
 62
     7
 10
76.875002
 20
295.250000
 11
77.250002
 21
294.875000
  0
LINE
  8
CSLAYER1
  6
CONTINUOUS
 62
     7
 10
75.250002
 20
295.250000
 11
76.875002
 21
295.250000
  0
LINE
  8
CSLAYER1
  6
CONTINUOUS
 62
     7
 10
75.250002
 20
295.000000
 11
77.125002
 21
295.000000
  0
LINE
  8
CSLAYER1
  6
CONTINUOUS
 62
     7
 10
76.875002
 20
295.250000
 11
76.875002
 21
293.250000
  0
LINE
  8
CSLAYER1
  6
CONTINUOUS
 62
     7
 10
76.875002
 20
291.250000
 11
76.875002
 21
293.250000
  0
LINE
  8
CSLAYER1
  6
CONTINUOUS
 62
     7
 10
75.250002
 20
290.250000
 11
75.250002
 21
293.250000
  0
LINE
  8
CSLAYER1
  6
CONTINUOUS
 62
     7
 10
75.250002
 20
290.250000
 11
75.102430
 21
289.994397
  0
ARC
  8
CSLAYER1
  6
CONTINUOUS
 62
     7
 10
73.259509
 20
290.651924
 40
1.927993
 50
-19.940387
 51
26.691396
  0
ARC
  8
CSLAYER1
  6
CONTINUOUS
 62
     7
 10
67.783703
 20
293.250000
 40
7.403800
 50
346.470805
 51
360.000000
  0
LINE
  8
CSLAYER1
  6
CONTINUOUS
 62
     7
 10
75.250002
 20
296.250000
 11
75.250002
 21
293.250000
  0
LINE
  8
CSLAYER1
  6
CONTINUOUS
 62
     7
 10
75.250002
 20
296.250000
 11
74.982053
 21
296.714102
  0
ARC
  8
CSLAYER1
  6
CONTINUOUS
 62
     7
 10
73.259509
 20
295.848076
 40
1.927993
 50
-26.691396
 51
26.691396
  0
ARC
  8
CSLAYER1
  6
CONTINUOUS
 62
     7
 10
67.783703
 20
293.250000
 40
7.403800
 50
0.000000
 51
13.529195
  0
LINE
  8
CSLAYER1
  6
CONTINUOUS
 62
     7
 10
72.000002
 20
296.714102
 11
74.982053
 21
296.714102
  0
LINE
  8
CSLAYER1
  6
CONTINUOUS
 62
     7
 10
72.000002
 20
294.982051
 11
74.982053
 21
294.982051
  0
LINE
  8
CSLAYER1
  6
CONTINUOUS
 62
     7
 10
72.000002
 20
291.517949
 11
74.982053
 21
291.517949
  0
LINE
  8
CSLAYER1
  6
CONTINUOUS
 62
     7
 10
67.000002
 20
290.875000
 11
67.000002
 21
289.633553
  0
LINE
  8
CSLAYER1
  6
CONTINUOUS
 62
     7
 10
66.500002
 20
293.250000
 11
66.500002
 21
288.875000
  0
LINE
  8
CSLAYER1
  6
CONTINUOUS
 62
     7
 10
59.705002
 20
307.500000
 11
59.705002
 21
304.500000
  0
LINE
  8
CSLAYER1
  6
CONTINUOUS
 62
     7
 10
59.705002
 20
307.500000
 11
59.972952
 21
307.964102
  0
ARC
  8
CSLAYER1
  6
CONTINUOUS
 62
     7
 10
61.695496
 20
307.098076
 40
1.927993
 50
153.308604
 51
206.691396
  0
ARC
  8
CSLAYER1
  6
CONTINUOUS
 62
     7
 10
67.171302
 20
304.500000
 40
7.403800
 50
166.470805
 51
180.000000
  0
LINE
  8
CSLAYER1
  6
CONTINUOUS
 62
     7
 10
59.705002
 20
301.500000
 11
59.705002
 21
304.500000
  0
LINE
  8
CSLAYER1
  6
CONTINUOUS
 62
     7
 10
59.705002
 20
301.500000
 11
59.972952
 21
301.035899
  0
ARC
  8
CSLAYER1
  6
CONTINUOUS
 62
     7
 10
61.695496
 20
301.901924
 40
1.927993
 50
153.308604
 51
206.691396
  0
ARC
  8
CSLAYER1
  6
CONTINUOUS
 62
     7
 10
67.171302
 20
304.500000
 40
7.403800
 50
180.000000
 51
193.529195
  0
LINE
  8
CSLAYER1
  6
CONTINUOUS
 62
     7
 10
59.972952
 20
301.035899
 11
62.250002
 21
301.035899
  0
LINE
  8
CSLAYER1
  6
CONTINUOUS
 62
     7
 10
59.972952
 20
302.767949
 11
62.250002
 21
302.767949
  0
LINE
  8
CSLAYER1
  6
CONTINUOUS
 62
     7
 10
59.972952
 20
306.232051
 11
62.250002
 21
306.232051
  0
LINE
  8
CSLAYER1
  6
CONTINUOUS
 62
     7
 10
59.972952
 20
307.964102
 11
62.250002
 21
307.964102
  0
LINE
  8
CSLAYER1
  6
CONTINUOUS
 62
     7
 10
60.750002
 20
301.035899
 11
60.750002
 21
300.327391
  0
LINE
  8
CSLAYER1
  6
CONTINUOUS
 62
     7
 10
75.250002
 20
306.500000
 11
76.875002
 21
306.500000
  0
LINE
  8
CSLAYER1
  6
CONTINUOUS
 62
     7
 10
76.875002
 20
306.500000
 11
77.250002
 21
306.125000
  0
LINE
  8
CSLAYER1
  6
CONTINUOUS
 62
     7
 10
77.250002
 20
306.125000
 11
77.250002
 21
304.500000
  0
LINE
  8
CSLAYER1
  6
CONTINUOUS
 62
     7
 10
77.250002
 20
302.875000
 11
77.250002
 21
304.500000
  0
LINE
  8
CSLAYER1
  6
CONTINUOUS
 62
     7
 10
76.875002
 20
302.500000
 11
77.250002
 21
302.875000
  0
LINE
  8
CSLAYER1
  6
CONTINUOUS
 62
     7
 10
75.250002
 20
302.500000
 11
76.875002
 21
302.500000
  0
LINE
  8
CSLAYER1
  6
CONTINUOUS
 62
     7
 10
75.250002
 20
302.750000
 11
77.125002
 21
302.750000
  0
LINE
  8
CSLAYER1
  6
CONTINUOUS
 62
     7
 10
76.875002
 20
302.500000
 11
76.875002
 21
304.500000
  0
LINE
  8
CSLAYER1
  6
CONTINUOUS
 62
     7
 10
76.875002
 20
306.500000
 11
76.875002
 21
304.500000
  0
LINE
  8
CSLAYER1
  6
CONTINUOUS
 62
     7
 10
75.250002
 20
306.250000
 11
77.125002
 21
306.250000
  0
LINE
  8
CSLAYER1
  6
CONTINUOUS
 62
     7
 10
75.250002
 20
307.500000
 11
75.250002
 21
304.500000
  0
LINE
  8
CSLAYER1
  6
CONTINUOUS
 62
     7
 10
75.250002
 20
307.500000
 11
74.982053
 21
307.964102
  0
ARC
  8
CSLAYER1
  6
CONTINUOUS
 62
     7
 10
73.259509
 20
307.098076
 40
1.927993
 50
-26.691396
 51
26.691396
  0
ARC
  8
CSLAYER1
  6
CONTINUOUS
 62
     7
 10
67.783703
 20
304.500000
 40
7.403800
 50
0.000000
 51
13.529195
  0
LINE
  8
CSLAYER1
  6
CONTINUOUS
 62
     7
 10
75.250002
 20
301.500000
 11
75.250002
 21
304.500000
  0
LINE
  8
CSLAYER1
  6
CONTINUOUS
 62
     7
 10
75.250002
 20
301.500000
 11
74.982053
 21
301.035899
  0
ARC
  8
CSLAYER1
  6
CONTINUOUS
 62
     7
 10
73.259509
 20
301.901924
 40
1.927993
 50
-26.691396
 51
26.691396
  0
ARC
  8
CSLAYER1
  6
CONTINUOUS
 62
     7
 10
67.783703
 20
304.500000
 40
7.403800
 50
346.470805
 51
360.000000
  0
LINE
  8
CSLAYER1
  6
CONTINUOUS
 62
     7
 10
72.000002
 20
301.035899
 11
74.982053
 21
301.035899
  0
LINE
  8
CSLAYER1
  6
CONTINUOUS
 62
     7
 10
72.000002
 20
302.767949
 11
74.982053
 21
302.767949
  0
LINE
  8
CSLAYER1
  6
CONTINUOUS
 62
     7
 10
72.000002
 20
306.232051
 11
74.982053
 21
306.232051
  0
LINE
  8
CSLAYER1
  6
CONTINUOUS
 62
     7
 10
72.000002
 20
307.964102
 11
74.982053
 21
307.964102
  0
LINE
  8
CSLAYER1
  6
CONTINUOUS
 62
     7
 10
66.138199
 20
313.055902
 11
66.500002
 21
312.875000
  0
ARC
  8
CSLAYER1
  6
CONTINUOUS
 62
     7
 10
66.250002
 20
313.279509
 40
0.250000
 50
180.000000
 51
243.434949
  0
LINE
  8
CSLAYER1
  6
CONTINUOUS
 62
     7
 10
71.500002
 20
288.750000
 11
67.250002
 21
288.750000
  0
ARC
  8
CSLAYER1
  6
CONTINUOUS
 62
     7
 10
71.500002
 20
289.250000
 40
0.500000
 50
270.000000
 51
360.000000
  0
LINE
  8
CSLAYER1
  6
CONTINUOUS
 62
     7
 10
67.000002
 20
289.000000
 11
67.000002
 21
293.250000
  0
LINE
  8
CSLAYER1
  6
CONTINUOUS
 62
     7
 10
67.250002
 20
288.750000
 11
67.000002
 21
289.000000
  0
LINE
  8
CSLAYER1
  6
CONTINUOUS
 62
     7
 10
66.000002
 20
288.875000
 11
66.000002
 21
293.250000
  0
ARC
  8
CSLAYER1
  6
CONTINUOUS
 62
     7
 10
65.750002
 20
288.875000
 40
0.250000
 50
270.000000
 51
360.000000
  0
LINE
  8
CSLAYER1
  6
CONTINUOUS
 62
     7
 10
67.000002
 20
288.875000
 11
66.500002
 21
288.875000
  0
LINE
  8
CSLAYER1
  6
CONTINUOUS
 62
     7
 10
67.000002
 20
290.875000
 11
67.000002
 21
288.875000
  0
LINE
  8
CSLAYER1
  6
CONTINUOUS
 62
     7
 10
66.500002
 20
293.250000
 11
66.500002
 21
288.875000
  0
CIRCLE
  8
CSLAYER1
  6
CONTINUOUS
 62
     7
 10
136.250002
 20
304.500000
 40
57.250000
  0
LINE
  8
CSLAYER1
  6
CONTINUOUS
 62
     7
 10
75.250002
 20
291.250000
 11
76.875002
 21
291.250000
  0
LINE
  8
CSLAYER1
  6
CONTINUOUS
 62
     7
 10
76.875002
 20
291.250000
 11
77.250002
 21
291.625000
  0
LINE
  8
CSLAYER1
  6
CONTINUOUS
 62
     7
 10
75.250002
 20
291.500000
 11
77.125002
 21
291.500000
  0
LINE
  8
CSLAYER1
  6
CONTINUOUS
 62
     7
 10
75.250002
 20
290.250000
 11
74.982053
 21
289.785899
  0
ARC
  8
CSLAYER1
  6
CONTINUOUS
 62
     7
 10
73.259509
 20
290.651924
 40
1.927993
 50
-26.691396
 51
26.691396
  0
LINE
  8
CSLAYER1
  6
CONTINUOUS
 62
     7
 10
72.000002
 20
291.517949
 11
74.982053
 21
291.517949
  0
LINE
  8
CSLAYER1
  6
CONTINUOUS
 62
     7
 10
72.000002
 20
289.785899
 11
74.982053
 21
289.785899
  0
LINE
  8
CSLAYER1
  6
CONTINUOUS
 62
     7
 10
41.125002
 20
299.875000
 11
41.125002
 21
309.125000
  0
LINE
  8
CSLAYER1
  6
CONTINUOUS
 62
     7
 10
58.875002
 20
308.731203
 11
59.552076
 21
308.340295
  0
LINE
  8
CSLAYER1
  6
CONTINUOUS
 62
     7
 10
59.552076
 20
304.500000
 11
59.552076
 21
308.710045
  0
LINE
  8
CSLAYER1
  6
CONTINUOUS
 62
     7
 10
58.875002
 20
308.750000
 11
58.250002
 21
308.750000
  0
LINE
  8
CSLAYER1
  6
CONTINUOUS
 62
     7
 10
57.625002
 20
308.731203
 11
55.750002
 21
308.672610
  0
LINE
  8
CSLAYER1
  6
CONTINUOUS
 62
     7
 10
55.750002
 20
308.302860
 11
56.947929
 21
308.340295
  0
LINE
  8
CSLAYER1
  6
CONTINUOUS
 62
     7
 10
57.625002
 20
308.731203
 11
56.947929
 21
308.340295
  0
LINE
  8
CSLAYER1
  6
CONTINUOUS
 62
     7
 10
57.625002
 20
308.750000
 11
58.250002
 21
308.750000
  0
LINE
  8
CSLAYER1
  6
CONTINUOUS
 62
     7
 10
56.947929
 20
304.500000
 11
56.947929
 21
308.710045
  0
LINE
  8
CSLAYER1
  6
CONTINUOUS
 62
     7
 10
58.875002
 20
308.731203
 11
58.875002
 21
308.750000
  0
LINE
  8
CSLAYER1
  6
CONTINUOUS
 62
     7
 10
57.625002
 20
308.731203
 11
57.625002
 21
308.750000
  0
LINE
  8
CSLAYER1
  6
CONTINUOUS
 62
     7
 10
59.552076
 20
304.500000
 11
59.552076
 21
300.289956
  0
LINE
  8
CSLAYER1
  6
CONTINUOUS
 62
     7
 10
58.875002
 20
300.250000
 11
58.250002
 21
300.250000
  0
LINE
  8
CSLAYER1
  6
CONTINUOUS
 62
     7
 10
57.625002
 20
300.268797
 11
55.750002
 21
300.327391
  0
LINE
  8
CSLAYER1
  6
CONTINUOUS
 62
     7
 10
57.625002
 20
300.250000
 11
58.250002
 21
300.250000
  0
LINE
  8
CSLAYER1
  6
CONTINUOUS
 62
     7
 10
56.947929
 20
304.500000
 11
56.947929
 21
300.289956
  0
LINE
  8
CSLAYER1
  6
CONTINUOUS
 62
     7
 10
55.250002
 20
299.375000
 11
41.625002
 21
299.375000
  0
LINE
  8
CSLAYER1
  6
CONTINUOUS
 62
     7
 10
55.750002
 20
309.125000
 11
55.750002
 21
299.875000
  0
ARC
  8
CSLAYER1
  6
CONTINUOUS
 62
     7
 10
55.250002
 20
299.875000
 40
0.500000
 50
270.000000
 51
360.000000
  0
ARC
  8
CSLAYER1
  6
CONTINUOUS
 62
     7
 10
55.250002
 20
309.125000
 40
0.500000
 50
0.000000
 51
90.000000
  0
LINE
  8
CSLAYER1
  6
CONTINUOUS
 62
     7
 10
55.750002
 20
308.672610
 11
55.750002
 21
300.327391
  0
LINE
  8
CSLAYER1
  6
CONTINUOUS
 62
     7
 10
59.705002
 20
307.500000
 11
59.705002
 21
304.500000
  0
LINE
  8
CSLAYER1
  6
CONTINUOUS
 62
     7
 10
59.705002
 20
307.500000
 11
59.972952
 21
307.964102
  0
ARC
  8
CSLAYER1
  6
CONTINUOUS
 62
     7
 10
61.695496
 20
307.098076
 40
1.927993
 50
153.308604
 51
206.691396
  0
ARC
  8
CSLAYER1
  6
CONTINUOUS
 62
     7
 10
67.171302
 20
304.500000
 40
7.403800
 50
166.470805
 51
180.000000
  0
LINE
  8
CSLAYER1
  6
CONTINUOUS
 62
     7
 10
59.705002
 20
301.500000
 11
59.705002
 21
304.500000
  0
LINE
  8
CSLAYER1
  6
CONTINUOUS
 62
     7
 10
59.705002
 20
301.500000
 11
59.972952
 21
301.035899
  0
ARC
  8
CSLAYER1
  6
CONTINUOUS
 62
     7
 10
61.695496
 20
301.901924
 40
1.927993
 50
153.308604
 51
206.691396
  0
ARC
  8
CSLAYER1
  6
CONTINUOUS
 62
     7
 10
67.171302
 20
304.500000
 40
7.403800
 50
180.000000
 51
193.529195
  0
LINE
  8
CSLAYER1
  6
CONTINUOUS
 62
     7
 10
41.625002
 20
309.625000
 11
55.250002
 21
309.625000
  0
LINE
  8
CSLAYER1
  6
CONTINUOUS
 62
     7
 10
51.125002
 20
299.375000
 11
51.125002
 21
309.487097
  0
LINE
  8
CSLAYER1
  6
CONTINUOUS
 62
     7
 10
41.000002
 20
295.767767
 11
41.000002
 21
297.249147
  0
LINE
  8
CSLAYER1
  6
CONTINUOUS
 62
     7
 10
51.500002
 20
295.767767
 11
51.500002
 21
297.249147
  0
LINE
  8
CSLAYER1
  6
CONTINUOUS
 62
     7
 10
51.500002
 20
296.499147
 11
41.000002
 21
296.499147
  0
LINE
  8
CSLAYER1
  6
CONTINUOUS
 62
     7
 10
51.500002
 20
297.249147
 11
41.000002
 21
297.249147
  0
LINE
  8
CSLAYER1
  6
CONTINUOUS
 62
     7
 10
41.250002
 20
297.249147
 11
41.250002
 21
299.544281
  0
LINE
  8
CSLAYER1
  6
CONTINUOUS
 62
     7
 10
51.250002
 20
297.249147
 11
51.250002
 21
298.166876
  0
LINE
  8
CSLAYER1
  6
CONTINUOUS
 62
     7
 10
49.858442
 20
293.901396
 11
49.858442
 21
295.624147
  0
LINE
  8
CSLAYER1
  6
CONTINUOUS
 62
     7
 10
48.054222
 20
293.901396
 11
48.054222
 21
295.624147
  0
LINE
  8
CSLAYER1
  6
CONTINUOUS
 62
     7
 10
44.445783
 20
293.901396
 11
44.445783
 21
295.624147
  0
LINE
  8
CSLAYER1
  6
CONTINUOUS
 62
     7
 10
42.641563
 20
293.901396
 11
42.641563
 21
295.624147
  0
LINE
  8
CSLAYER1
  6
CONTINUOUS
 62
     7
 10
51.500003
 20
295.767766
 11
49.858442
 21
295.624148
  0
LINE
  8
CSLAYER1
  6
CONTINUOUS
 62
     7
 10
42.641563
 20
295.624148
 11
41.000002
 21
295.767766
  0
LINE
  8
CSLAYER1
  6
CONTINUOUS
 62
     7
 10
43.375002
 20
288.374147
 11
43.375002
 21
292.612062
  0
LINE
  8
CSLAYER1
  6
CONTINUOUS
 62
     7
 10
49.125002
 20
288.374147
 11
49.125002
 21
292.612062
  0
LINE
  8
CSLAYER1
  6
CONTINUOUS
 62
     7
 10
50.248155
 20
282.824148
 11
42.251850
 21
282.824148
  0
LINE
  8
CSLAYER1
  6
CONTINUOUS
 62
     7
 10
50.248155
 20
286.949148
 11
42.251850
 21
286.949148
  0
LINE
  8
CSLAYER1
  6
CONTINUOUS
 62
     7
 10
50.248155
 20
282.824148
 11
50.248155
 21
286.949148
  0
LINE
  8
CSLAYER1
  6
CONTINUOUS
 62
     7
 10
48.249078
 20
282.824148
 11
48.249078
 21
286.949148
  0
LINE
  8
CSLAYER1
  6
CONTINUOUS
 62
     7
 10
44.250926
 20
282.824148
 11
44.250926
 21
286.949148
  0
LINE
  8
CSLAYER1
  6
CONTINUOUS
 62
     7
 10
42.251850
 20
282.824148
 11
42.251850
 21
286.949148
  0
LINE
  8
CSLAYER1
  6
CONTINUOUS
 62
     7
 10
49.250002
 20
288.374147
 11
43.250002
 21
288.374147
  0
LINE
  8
CSLAYER1
  6
CONTINUOUS
 62
     7
 10
43.250002
 20
286.949148
 11
43.250002
 21
288.374147
  0
LINE
  8
CSLAYER1
  6
CONTINUOUS
 62
     7
 10
49.250002
 20
286.949148
 11
49.250002
 21
288.374147
  0
LINE
  8
CSLAYER1
  6
CONTINUOUS
 62
     7
 10
49.000002
 20
286.949148
 11
49.000002
 21
288.374147
  0
LINE
  8
CSLAYER1
  6
CONTINUOUS
 62
     7
 10
43.500002
 20
286.949148
 11
43.500002
 21
288.374147
  0
LINE
  8
CSLAYER1
  6
CONTINUOUS
 62
     7
 10
48.500003
 20
279.390895
 11
44.000002
 21
279.390895
  0
LINE
  8
CSLAYER1
  6
CONTINUOUS
 62
     7
 10
44.812502
 20
279.390895
 11
44.812502
 21
282.824148
  0
LINE
  8
CSLAYER1
  6
CONTINUOUS
 62
     7
 10
47.687502
 20
279.390895
 11
47.687502
 21
282.824148
  0
LINE
  8
CSLAYER1
  6
CONTINUOUS
 62
     7
 10
57.211867
 20
277.515895
 11
35.288138
 21
277.515895
  0
LINE
  8
CSLAYER1
  6
CONTINUOUS
 62
     7
 10
57.500002
 20
276.840895
 11
35.000002
 21
276.840895
  0
LINE
  8
CSLAYER1
  6
CONTINUOUS
 62
     7
 10
57.500003
 20
276.840900
 11
57.460915
 21
277.287682
  0
LINE
  8
CSLAYER1
  6
CONTINUOUS
 62
     7
 10
54.612498
 20
276.840895
 11
54.573410
 21
277.287675
  0
LINE
  8
CSLAYER1
  6
CONTINUOUS
 62
     7
 10
51.240695
 20
276.040895
 11
48.550002
 21
276.040895
  0
LINE
  8
CSLAYER1
  6
CONTINUOUS
 62
     7
 10
51.240695
 20
274.815892
 11
47.992845
 21
274.815892
  0
LINE
  8
CSLAYER1
  6
CONTINUOUS
 62
     7
 10
50.788252
 20
274.215895
 11
47.712022
 21
274.215895
  0
LINE
  8
CSLAYER1
  6
CONTINUOUS
 62
     7
 10
48.050002
 20
275.265895
 11
48.050002
 21
275.540895
  0
LINE
  8
CSLAYER1
  6
CONTINUOUS
 62
     7
 10
51.490695
 20
275.065892
 11
51.490695
 21
275.790895
  0
LINE
  8
CSLAYER1
  6
CONTINUOUS
 62
     7
 10
55.323958
 20
275.065892
 11
55.323958
 21
275.790895
  0
LINE
  8
CSLAYER1
  6
CONTINUOUS
 62
     7
 10
55.073958
 20
274.815892
 11
54.202734
 21
274.815892
  0
LINE
  8
CSLAYER1
  6
CONTINUOUS
 62
     7
 10
55.073958
 20
276.040895
 11
54.506686
 21
276.040895
  0
LINE
  8
CSLAYER1
  6
CONTINUOUS
 62
     7
 10
43.835961
 20
277.515892
 11
44.000002
 21
279.390895
  0
LINE
  8
CSLAYER1
  6
CONTINUOUS
 62
     7
 10
48.664044
 20
277.515892
 11
48.500003
 21
279.390895
  0
LINE
  8
CSLAYER1
  6
CONTINUOUS
 62
     7
 10
43.989065
 20
279.265892
 11
40.957979
 21
277.515895
  0
LINE
  8
CSLAYER1
  6
CONTINUOUS
 62
     7
 10
51.542026
 20
277.515895
 11
48.510940
 21
279.265892
  0
LINE
  8
CSLAYER1
  6
CONTINUOUS
 62
     7
 10
35.000001
 20
276.840900
 11
35.039090
 21
277.287682
  0
LINE
  8
CSLAYER1
  6
CONTINUOUS
 62
     7
 10
37.887507
 20
276.840895
 11
37.926595
 21
277.287675
  0
LINE
  8
CSLAYER1
  6
CONTINUOUS
 62
     7
 10
41.259310
 20
276.040895
 11
43.950002
 21
276.040895
  0
LINE
  8
CSLAYER1
  6
CONTINUOUS
 62
     7
 10
41.259310
 20
274.815892
 11
44.507160
 21
274.815892
  0
LINE
  8
CSLAYER1
  6
CONTINUOUS
 62
     7
 10
41.711752
 20
274.215895
 11
44.787983
 21
274.215895
  0
LINE
  8
CSLAYER1
  6
CONTINUOUS
 62
     7
 10
44.450002
 20
275.265895
 11
44.450002
 21
275.540895
  0
LINE
  8
CSLAYER1
  6
CONTINUOUS
 62
     7
 10
41.009310
 20
275.065892
 11
41.009310
 21
275.790895
  0
LINE
  8
CSLAYER1
  6
CONTINUOUS
 62
     7
 10
37.176047
 20
275.065892
 11
37.176047
 21
275.790895
  0
LINE
  8
CSLAYER1
  6
CONTINUOUS
 62
     7
 10
37.426047
 20
274.815892
 11
38.297270
 21
274.815892
  0
LINE
  8
CSLAYER1
  6
CONTINUOUS
 62
     7
 10
37.426047
 20
276.040895
 11
37.993319
 21
276.040895
  0
LINE
  8
CSLAYER1
  6
CONTINUOUS
 62
     7
 10
49.858442
 20
293.901396
 11
42.641563
 21
293.901396
  0
LINE
  8
CSLAYER1
  6
CONTINUOUS
 62
     7
 10
49.858442
 20
295.624147
 11
42.641563
 21
295.624147
  0
LINE
  8
CSLAYER1
  6
CONTINUOUS
 62
     7
 10
51.500002
 20
295.767767
 11
41.000002
 21
295.767767
  0
ARC
  8
CSLAYER1
  6
CONTINUOUS
 62
     7
 10
52.000002
 20
298.166876
 40
0.750000
 50
105.699240
 51
179.999930
  0
ARC
  8
CSLAYER1
  6
CONTINUOUS
 62
     7
 10
50.625002
 20
292.612062
 40
1.500000
 50
120.733140
 51
179.999990
  0
ARC
  8
CSLAYER1
  6
CONTINUOUS
 62
     7
 10
41.875002
 20
292.612062
 40
1.500000
 50
0.000040
 51
59.266840
  0
ARC
  8
CSLAYER1
  6
CONTINUOUS
 62
     7
 10
45.185474
 20
278.062780
 40
12.375000
 50
347.029820
 51
354.333530
  0
ARC
  8
CSLAYER1
  6
CONTINUOUS
 62
     7
 10
54.613635
 20
275.891287
 40
2.700000
 50
315.982290
 51
347.029820
  0
ARC
  8
CSLAYER1
  6
CONTINUOUS
 62
     7
 10
55.260848
 20
275.265895
 40
1.800000
 50
216.832454
 51
315.982290
  0
ARC
  8
CSLAYER1
  6
CONTINUOUS
 62
     7
 10
57.211867
 20
277.265895
 40
0.250000
 50
4.999950
 51
89.999740
  0
ARC
  8
CSLAYER1
  6
CONTINUOUS
 62
     7
 10
42.297973
 20
278.062772
 40
12.375000
 50
347.029820
 51
354.333530
  0
ARC
  8
CSLAYER1
  6
CONTINUOUS
 62
     7
 10
51.726134
 20
275.891280
 40
2.700000
 50
315.982290
 51
347.029820
  0
ARC
  8
CSLAYER1
  6
CONTINUOUS
 62
     7
 10
52.373347
 20
275.265887
 40
1.800000
 50
219.356380
 51
315.982290
  0
ARC
  8
CSLAYER1
  6
CONTINUOUS
 62
     7
 10
54.324366
 20
277.265887
 40
0.250000
 50
4.999950
 51
89.999740
  0
ARC
  8
CSLAYER1
  6
CONTINUOUS
 62
     7
 10
46.250002
 20
275.265895
 40
1.800000
 50
-180.000000
 51
0.000020
  0
ARC
  8
CSLAYER1
  6
CONTINUOUS
 62
     7
 10
48.550002
 20
275.540895
 40
0.500000
 50
90.000020
 51
180.000000
  0
ARC
  8
CSLAYER1
  6
CONTINUOUS
 62
     7
 10
51.240695
 20
275.065892
 40
0.250000
 50
-90.000018
 51
0.000020
  0
ARC
  8
CSLAYER1
  6
CONTINUOUS
 62
     7
 10
51.240695
 20
275.790895
 40
0.250000
 50
0.000020
 51
90.000000
  0
ARC
  8
CSLAYER1
  6
CONTINUOUS
 62
     7
 10
50.788252
 20
273.965895
 40
0.250000
 50
39.356510
 51
90.000180
  0
ARC
  8
CSLAYER1
  6
CONTINUOUS
 62
     7
 10
55.073958
 20
275.790895
 40
0.250000
 50
0.000020
 51
90.000000
  0
ARC
  8
CSLAYER1
  6
CONTINUOUS
 62
     7
 10
55.073958
 20
275.065892
 40
0.250000
 50
-90.000018
 51
0.000020
  0
ARC
  8
CSLAYER1
  6
CONTINUOUS
 62
     7
 10
47.314531
 20
278.062780
 40
12.375000
 50
185.666472
 51
192.970184
  0
ARC
  8
CSLAYER1
  6
CONTINUOUS
 62
     7
 10
37.886370
 20
275.891287
 40
2.700000
 50
192.970184
 51
224.017711
  0
ARC
  8
CSLAYER1
  6
CONTINUOUS
 62
     7
 10
37.239157
 20
275.265895
 40
1.800000
 50
224.017711
 51
323.167540
  0
ARC
  8
CSLAYER1
  6
CONTINUOUS
 62
     7
 10
35.288138
 20
277.265895
 40
0.250000
 50
90.000240
 51
175.000050
  0
ARC
  8
CSLAYER1
  6
CONTINUOUS
 62
     7
 10
50.202032
 20
278.062772
 40
12.375000
 50
185.666472
 51
192.970184
  0
ARC
  8
CSLAYER1
  6
CONTINUOUS
 62
     7
 10
40.773871
 20
275.891280
 40
2.700000
 50
192.970184
 51
224.017711
  0
ARC
  8
CSLAYER1
  6
CONTINUOUS
 62
     7
 10
40.126658
 20
275.265887
 40
1.800000
 50
224.017711
 51
320.643590
  0
ARC
  8
CSLAYER1
  6
CONTINUOUS
 62
     7
 10
38.175639
 20
277.265887
 40
0.250000
 50
90.000240
 51
175.000050
  0
ARC
  8
CSLAYER1
  6
CONTINUOUS
 62
     7
 10
43.950002
 20
275.540895
 40
0.500000
 50
0.000020
 51
90.000000
  0
ARC
  8
CSLAYER1
  6
CONTINUOUS
 62
     7
 10
41.259310
 20
275.065892
 40
0.250000
 50
179.999980
 51
270.000037
  0
ARC
  8
CSLAYER1
  6
CONTINUOUS
 62
     7
 10
41.259310
 20
275.790895
 40
0.250000
 50
90.000020
 51
179.999980
  0
ARC
  8
CSLAYER1
  6
CONTINUOUS
 62
     7
 10
41.711752
 20
273.965895
 40
0.250000
 50
89.999800
 51
140.643480
  0
ARC
  8
CSLAYER1
  6
CONTINUOUS
 62
     7
 10
37.426047
 20
275.790895
 40
0.250000
 50
90.000020
 51
179.999980
  0
ARC
  8
CSLAYER1
  6
CONTINUOUS
 62
     7
 10
37.426047
 20
275.065892
 40
0.250000
 50
179.999980
 51
270.000037
  0
ARC
  8
CSLAYER1
  6
CONTINUOUS
 62
     7
 10
46.250002
 20
292.703474
 40
7.840851
 50
50.380490
 51
58.306166
  0
LINE
  8
CSLAYER1
  6
CENTER
 62
     2
 10
46.250002
 20
269.499147
 11
46.250002
 21
312.124147
  0
ARC
  8
CSLAYER1
  6
CONTINUOUS
 62
     7
 10
46.250002
 20
292.703474
 40
7.840851
 50
121.693834
 51
129.619470
  0
ARC
  8
CSLAYER1
  6
CONTINUOUS
 62
     7
 10
41.625002
 20
309.125000
 40
0.500000
 50
90.000000
 51
180.000000
  0
ARC
  8
CSLAYER1
  6
CONTINUOUS
 62
     7
 10
41.625002
 20
299.875000
 40
0.500000
 50
180.000000
 51
270.000000
  0
LINE
  8
CSLAYER1
  6
CONTINUOUS
 62
     7
 10
58.875002
 20
300.250000
 11
58.250002
 21
300.250000
  0
LINE
  8
CSLAYER1
  6
CONTINUOUS
 62
     7
 10
58.875002
 20
300.250000
 11
58.250002
 21
300.250000
  0
LINE
  8
CSLAYER1
  6
CONTINUOUS
 62
     7
 10
57.625002
 20
300.250000
 11
58.250002
 21
300.250000
  0
LINE
  8
CSLAYER1
  6
CONTINUOUS
 62
     7
 10
58.875002
 20
300.268797
 11
60.750002
 21
300.327391
  0
LINE
  8
CSLAYER1
  6
CONTINUOUS
 62
     7
 10
60.750002
 20
300.697141
 11
59.552076
 21
300.659706
  0
LINE
  8
CSLAYER1
  6
CONTINUOUS
 62
     7
 10
58.875002
 20
300.250000
 11
58.250002
 21
300.250000
  0
LINE
  8
CSLAYER1
  6
CONTINUOUS
 62
     7
 10
58.875002
 20
300.268797
 11
59.552076
 21
300.659706
  0
LINE
  8
CSLAYER1
  6
CONTINUOUS
 62
     7
 10
58.875002
 20
300.250000
 11
58.250002
 21
300.250000
  0
LINE
  8
CSLAYER1
  6
CONTINUOUS
 62
     7
 10
57.625002
 20
300.268797
 11
55.750002
 21
300.327391
  0
LINE
  8
CSLAYER1
  6
CONTINUOUS
 62
     7
 10
55.750002
 20
300.697141
 11
56.947929
 21
300.659706
  0
LINE
  8
CSLAYER1
  6
CONTINUOUS
 62
     7
 10
57.625002
 20
300.268797
 11
56.947929
 21
300.659706
  0
LINE
  8
CSLAYER1
  6
CONTINUOUS
 62
     7
 10
57.625002
 20
300.250000
 11
58.250002
 21
300.250000
  0
LINE
  8
CSLAYER1
  6
CONTINUOUS
 62
     7
 10
58.875002
 20
300.268797
 11
58.875002
 21
300.250000
  0
ARC
  8
CSLAYER1
  6
CONTINUOUS
 62
     7
 10
55.250002
 20
299.875000
 40
0.500000
 50
270.000000
 51
360.000000
  0
LINE
  8
CSLAYER1
  6
CONTINUOUS
 62
     7
 10
66.302176
 20
99.678261
 11
71.875002
 21
99.678261
  0
LINE
  8
CSLAYER1
  6
CONTINUOUS
 62
     7
 10
67.625002
 20
94.828261
 11
71.875002
 21
94.828261
  0
LINE
  8
CSLAYER1
  6
CONTINUOUS
 62
     7
 10
66.967525
 20
95.207856
 11
66.967525
 21
99.678261
  0
LINE
  8
CSLAYER1
  6
CONTINUOUS
 62
     7
 10
69.421264
 20
99.678261
 11
69.421264
 21
95.207856
  0
LINE
  8
CSLAYER1
  6
CONTINUOUS
 62
     7
 10
67.625002
 20
94.828261
 11
66.967525
 21
95.207856
  0
ARC
  8
CSLAYER1
  6
CONTINUOUS
 62
     7
 10
68.194394
 20
97.000710
 40
2.172449
 50
235.615753
 51
304.384247
  0
ARC
  8
CSLAYER1
  6
CONTINUOUS
 62
     7
 10
71.875002
 20
102.948666
 40
8.120405
 50
252.412046
 51
270.000000
  0
LINE
  8
CSLAYER1
  6
CONTINUOUS
 62
     7
 10
76.125002
 20
94.828261
 11
71.875002
 21
94.828261
  0
LINE
  8
CSLAYER1
  6
CONTINUOUS
 62
     7
 10
76.782480
 20
95.207856
 11
76.782480
 21
99.678261
  0
LINE
  8
CSLAYER1
  6
CONTINUOUS
 62
     7
 10
74.328741
 20
99.678261
 11
74.328741
 21
95.207856
  0
LINE
  8
CSLAYER1
  6
CONTINUOUS
 62
     7
 10
76.125002
 20
94.828261
 11
76.782480
 21
95.207856
  0
ARC
  8
CSLAYER1
  6
CONTINUOUS
 62
     7
 10
75.555610
 20
97.000710
 40
2.172449
 50
235.615753
 51
304.384247
  0
ARC
  8
CSLAYER1
  6
CONTINUOUS
 62
     7
 10
71.875002
 20
102.948666
 40
8.120405
 50
270.000000
 51
287.587954
  0
LINE
  8
CSLAYER1
  6
CONTINUOUS
 62
     7
 10
66.301726
 20
115.573276
 11
74.328741
 21
115.573276
  0
LINE
  8
CSLAYER1
  6
CONTINUOUS
 62
     7
 10
67.625002
 20
119.298276
 11
71.875002
 21
119.298276
  0
LINE
  8
CSLAYER1
  6
CONTINUOUS
 62
     7
 10
66.967525
 20
118.918681
 11
66.967525
 21
115.573276
  0
LINE
  8
CSLAYER1
  6
CONTINUOUS
 62
     7
 10
69.421264
 20
115.573276
 11
69.421264
 21
118.918681
  0
LINE
  8
CSLAYER1
  6
CONTINUOUS
 62
     7
 10
67.625002
 20
119.298276
 11
66.967525
 21
118.918681
  0
ARC
  8
CSLAYER1
  6
CONTINUOUS
 62
     7
 10
68.194394
 20
117.125827
 40
2.172449
 50
55.615753
 51
124.384247
  0
ARC
  8
CSLAYER1
  6
CONTINUOUS
 62
     7
 10
71.875002
 20
111.177871
 40
8.120405
 50
90.000000
 51
107.587954
  0
LINE
  8
CSLAYER1
  6
CONTINUOUS
 62
     7
 10
76.125002
 20
119.298276
 11
71.875002
 21
119.298276
  0
LINE
  8
CSLAYER1
  6
CONTINUOUS
 62
     7
 10
76.782480
 20
118.918681
 11
76.782480
 21
115.573276
  0
LINE
  8
CSLAYER1
  6
CONTINUOUS
 62
     7
 10
74.328741
 20
115.573276
 11
74.328741
 21
118.918681
  0
LINE
  8
CSLAYER1
  6
CONTINUOUS
 62
     7
 10
76.125002
 20
119.298276
 11
76.782480
 21
118.918681
  0
ARC
  8
CSLAYER1
  6
CONTINUOUS
 62
     7
 10
75.555610
 20
117.125827
 40
2.172449
 50
55.615753
 51
124.384247
  0
ARC
  8
CSLAYER1
  6
CONTINUOUS
 62
     7
 10
71.875002
 20
111.177871
 40
8.120405
 50
72.412046
 51
90.000000
  0
LINE
  8
CSLAYER1
  6
CONTINUOUS
 62
     7
 10
69.125002
 20
93.448276
 11
69.125002
 21
94.828261
  0
LINE
  8
CSLAYER1
  6
CONTINUOUS
 62
     7
 10
74.625002
 20
93.448276
 11
74.625002
 21
94.828261
  0
LINE
  8
CSLAYER1
  6
CONTINUOUS
 62
     7
 10
69.500002
 20
93.073276
 11
74.250002
 21
93.073276
  0
LINE
  8
CSLAYER1
  6
CONTINUOUS
 62
     7
 10
69.125002
 20
93.448276
 11
69.500002
 21
93.073276
  0
LINE
  8
CSLAYER1
  6
CONTINUOUS
 62
     7
 10
74.625002
 20
93.448276
 11
74.250002
 21
93.073276
  0
LINE
  8
CSLAYER1
  6
CONTINUOUS
 62
     7
 10
69.125002
 20
93.448276
 11
74.625002
 21
93.448276
  0
LINE
  8
CSLAYER1
  6
CONTINUOUS
 62
     7
 10
69.437502
 20
94.828261
 11
69.437502
 21
93.135776
  0
LINE
  8
CSLAYER1
  6
CONTINUOUS
 62
     7
 10
74.312502
 20
94.828261
 11
74.312502
 21
93.135776
  0
LINE
  8
CSLAYER1
  6
CONTINUOUS
 62
     7
 10
77.733669
 20
94.828261
 11
81.983669
 21
94.828261
  0
LINE
  8
CSLAYER1
  6
CONTINUOUS
 62
     7
 10
77.076191
 20
95.207856
 11
77.076191
 21
99.678261
  0
LINE
  8
CSLAYER1
  6
CONTINUOUS
 62
     7
 10
79.529930
 20
99.678261
 11
79.529930
 21
95.207856
  0
LINE
  8
CSLAYER1
  6
CONTINUOUS
 62
     7
 10
77.733669
 20
94.828261
 11
77.076191
 21
95.207856
  0
ARC
  8
CSLAYER1
  6
CONTINUOUS
 62
     7
 10
78.303061
 20
97.000710
 40
2.172449
 50
235.615753
 51
304.384247
  0
ARC
  8
CSLAYER1
  6
CONTINUOUS
 62
     7
 10
81.983669
 20
102.948666
 40
8.120405
 50
252.412046
 51
270.000000
  0
LINE
  8
CSLAYER1
  6
CONTINUOUS
 62
     7
 10
86.233669
 20
94.828261
 11
81.983669
 21
94.828261
  0
LINE
  8
CSLAYER1
  6
CONTINUOUS
 62
     7
 10
86.891146
 20
95.207856
 11
86.891146
 21
99.678261
  0
LINE
  8
CSLAYER1
  6
CONTINUOUS
 62
     7
 10
84.437407
 20
99.678261
 11
84.437407
 21
95.207856
  0
LINE
  8
CSLAYER1
  6
CONTINUOUS
 62
     7
 10
86.233669
 20
94.828261
 11
86.891146
 21
95.207856
  0
ARC
  8
CSLAYER1
  6
CONTINUOUS
 62
     7
 10
85.664277
 20
97.000710
 40
2.172449
 50
235.615753
 51
304.384247
  0
ARC
  8
CSLAYER1
  6
CONTINUOUS
 62
     7
 10
81.983669
 20
102.948666
 40
8.120405
 50
270.000000
 51
287.587954
  0
LINE
  8
CSLAYER1
  6
CONTINUOUS
 62
     7
 10
77.733669
 20
119.298276
 11
81.983669
 21
119.298276
  0
LINE
  8
CSLAYER1
  6
CONTINUOUS
 62
     7
 10
77.076191
 20
118.918681
 11
77.076191
 21
115.573276
  0
LINE
  8
CSLAYER1
  6
CONTINUOUS
 62
     7
 10
79.529930
 20
115.573276
 11
79.529930
 21
118.918681
  0
LINE
  8
CSLAYER1
  6
CONTINUOUS
 62
     7
 10
77.733669
 20
119.298276
 11
77.076191
 21
118.918681
  0
ARC
  8
CSLAYER1
  6
CONTINUOUS
 62
     7
 10
78.303061
 20
117.125827
 40
2.172449
 50
55.615753
 51
124.384247
  0
ARC
  8
CSLAYER1
  6
CONTINUOUS
 62
     7
 10
81.983669
 20
111.177871
 40
8.120405
 50
90.000000
 51
107.587954
  0
LINE
  8
CSLAYER1
  6
CONTINUOUS
 62
     7
 10
86.233669
 20
119.298276
 11
81.983669
 21
119.298276
  0
LINE
  8
CSLAYER1
  6
CONTINUOUS
 62
     7
 10
86.891146
 20
118.918681
 11
86.891146
 21
115.573276
  0
LINE
  8
CSLAYER1
  6
CONTINUOUS
 62
     7
 10
84.437407
 20
115.573276
 11
84.437407
 21
118.918681
  0
LINE
  8
CSLAYER1
  6
CONTINUOUS
 62
     7
 10
86.233669
 20
119.298276
 11
86.891146
 21
118.918681
  0
ARC
  8
CSLAYER1
  6
CONTINUOUS
 62
     7
 10
85.664277
 20
117.125827
 40
2.172449
 50
55.615753
 51
124.384247
  0
ARC
  8
CSLAYER1
  6
CONTINUOUS
 62
     7
 10
81.983669
 20
111.177871
 40
8.120405
 50
72.412046
 51
90.000000
  0
LINE
  8
CSLAYER1
  6
CONTINUOUS
 62
     7
 10
79.233669
 20
93.448276
 11
79.233669
 21
94.828261
  0
LINE
  8
CSLAYER1
  6
CONTINUOUS
 62
     7
 10
84.733669
 20
93.448276
 11
84.733669
 21
94.828261
  0
LINE
  8
CSLAYER1
  6
CONTINUOUS
 62
     7
 10
79.608669
 20
93.073276
 11
84.358669
 21
93.073276
  0
LINE
  8
CSLAYER1
  6
CONTINUOUS
 62
     7
 10
79.233669
 20
93.448276
 11
79.608669
 21
93.073276
  0
LINE
  8
CSLAYER1
  6
CONTINUOUS
 62
     7
 10
84.733669
 20
93.448276
 11
84.358669
 21
93.073276
  0
LINE
  8
CSLAYER1
  6
CONTINUOUS
 62
     7
 10
79.233669
 20
93.448276
 11
84.733669
 21
93.448276
  0
LINE
  8
CSLAYER1
  6
CONTINUOUS
 62
     7
 10
79.546169
 20
94.828261
 11
79.546169
 21
93.135776
  0
LINE
  8
CSLAYER1
  6
CONTINUOUS
 62
     7
 10
84.421169
 20
94.828261
 11
84.421169
 21
93.135776
  0
LINE
  8
CSLAYER1
  6
CONTINUOUS
 62
     7
 10
95.494691
 20
94.828261
 11
99.744691
 21
94.828261
  0
LINE
  8
CSLAYER1
  6
CONTINUOUS
 62
     7
 10
94.837214
 20
95.207856
 11
94.837214
 21
99.678261
  0
LINE
  8
CSLAYER1
  6
CONTINUOUS
 62
     7
 10
97.290953
 20
99.678261
 11
97.290953
 21
95.207856
  0
LINE
  8
CSLAYER1
  6
CONTINUOUS
 62
     7
 10
95.494691
 20
94.828261
 11
94.837214
 21
95.207856
  0
ARC
  8
CSLAYER1
  6
CONTINUOUS
 62
     7
 10
96.064083
 20
97.000710
 40
2.172449
 50
235.615753
 51
304.384247
  0
ARC
  8
CSLAYER1
  6
CONTINUOUS
 62
     7
 10
99.744691
 20
102.948666
 40
8.120405
 50
252.412046
 51
270.000000
  0
LINE
  8
CSLAYER1
  6
CONTINUOUS
 62
     7
 10
103.994691
 20
94.828261
 11
99.744691
 21
94.828261
  0
LINE
  8
CSLAYER1
  6
CONTINUOUS
 62
     7
 10
104.652169
 20
95.207856
 11
104.652169
 21
99.678261
  0
LINE
  8
CSLAYER1
  6
CONTINUOUS
 62
     7
 10
102.198430
 20
99.678261
 11
102.198430
 21
95.207856
  0
LINE
  8
CSLAYER1
  6
CONTINUOUS
 62
     7
 10
103.994691
 20
94.828261
 11
104.652169
 21
95.207856
  0
ARC
  8
CSLAYER1
  6
CONTINUOUS
 62
     7
 10
103.425299
 20
97.000710
 40
2.172449
 50
235.615753
 51
304.384247
  0
ARC
  8
CSLAYER1
  6
CONTINUOUS
 62
     7
 10
99.744691
 20
102.948666
 40
8.120405
 50
270.000000
 51
287.587954
  0
LINE
  8
CSLAYER1
  6
CONTINUOUS
 62
     7
 10
95.494691
 20
119.298276
 11
99.744691
 21
119.298276
  0
LINE
  8
CSLAYER1
  6
CONTINUOUS
 62
     7
 10
94.837214
 20
118.918681
 11
94.837214
 21
115.573276
  0
LINE
  8
CSLAYER1
  6
CONTINUOUS
 62
     7
 10
97.290953
 20
115.573276
 11
97.290953
 21
118.918681
  0
LINE
  8
CSLAYER1
  6
CONTINUOUS
 62
     7
 10
95.494691
 20
119.298276
 11
94.837214
 21
118.918681
  0
ARC
  8
CSLAYER1
  6
CONTINUOUS
 62
     7
 10
96.064083
 20
117.125827
 40
2.172449
 50
55.615753
 51
124.384247
  0
ARC
  8
CSLAYER1
  6
CONTINUOUS
 62
     7
 10
99.744691
 20
111.177871
 40
8.120405
 50
90.000000
 51
107.587954
  0
LINE
  8
CSLAYER1
  6
CONTINUOUS
 62
     7
 10
103.994691
 20
119.298276
 11
99.744691
 21
119.298276
  0
LINE
  8
CSLAYER1
  6
CONTINUOUS
 62
     7
 10
104.652169
 20
118.918681
 11
104.652169
 21
115.573276
  0
LINE
  8
CSLAYER1
  6
CONTINUOUS
 62
     7
 10
102.198430
 20
115.573276
 11
102.198430
 21
118.918681
  0
LINE
  8
CSLAYER1
  6
CONTINUOUS
 62
     7
 10
103.994691
 20
119.298276
 11
104.652169
 21
118.918681
  0
ARC
  8
CSLAYER1
  6
CONTINUOUS
 62
     7
 10
103.425299
 20
117.125827
 40
2.172449
 50
55.615753
 51
124.384247
  0
ARC
  8
CSLAYER1
  6
CONTINUOUS
 62
     7
 10
99.744691
 20
111.177871
 40
8.120405
 50
72.412046
 51
90.000000
  0
LINE
  8
CSLAYER1
  6
CONTINUOUS
 62
     7
 10
96.994691
 20
93.448276
 11
96.994691
 21
94.828261
  0
LINE
  8
CSLAYER1
  6
CONTINUOUS
 62
     7
 10
102.494691
 20
93.448276
 11
102.494691
 21
94.828261
  0
LINE
  8
CSLAYER1
  6
CONTINUOUS
 62
     7
 10
97.369691
 20
93.073276
 11
102.119691
 21
93.073276
  0
LINE
  8
CSLAYER1
  6
CONTINUOUS
 62
     7
 10
96.994691
 20
93.448276
 11
97.369691
 21
93.073276
  0
LINE
  8
CSLAYER1
  6
CONTINUOUS
 62
     7
 10
102.494691
 20
93.448276
 11
102.119691
 21
93.073276
  0
LINE
  8
CSLAYER1
  6
CONTINUOUS
 62
     7
 10
96.994691
 20
93.448276
 11
102.494691
 21
93.448276
  0
LINE
  8
CSLAYER1
  6
CONTINUOUS
 62
     7
 10
97.307191
 20
94.828261
 11
97.307191
 21
93.135776
  0
LINE
  8
CSLAYER1
  6
CONTINUOUS
 62
     7
 10
102.182191
 20
94.828261
 11
102.182191
 21
93.135776
  0
LINE
  8
CSLAYER1
  6
CONTINUOUS
 62
     7
 10
118.043108
 20
99.678261
 11
122.950586
 21
99.678261
  0
LINE
  8
CSLAYER1
  6
CONTINUOUS
 62
     7
 10
118.700586
 20
94.828261
 11
122.950586
 21
94.828261
  0
LINE
  8
CSLAYER1
  6
CONTINUOUS
 62
     7
 10
118.043108
 20
95.207856
 11
118.043108
 21
99.678261
  0
LINE
  8
CSLAYER1
  6
CONTINUOUS
 62
     7
 10
120.496847
 20
99.678261
 11
120.496847
 21
95.207856
  0
LINE
  8
CSLAYER1
  6
CONTINUOUS
 62
     7
 10
118.700586
 20
94.828261
 11
118.043108
 21
95.207856
  0
ARC
  8
CSLAYER1
  6
CONTINUOUS
 62
     7
 10
119.269978
 20
97.000710
 40
2.172449
 50
235.615753
 51
304.384247
  0
ARC
  8
CSLAYER1
  6
CONTINUOUS
 62
     7
 10
122.950586
 20
102.948666
 40
8.120405
 50
252.412046
 51
270.000000
  0
LINE
  8
CSLAYER1
  6
CONTINUOUS
 62
     7
 10
127.200586
 20
94.828261
 11
122.950586
 21
94.828261
  0
LINE
  8
CSLAYER1
  6
CONTINUOUS
 62
     7
 10
127.858063
 20
95.207856
 11
127.858063
 21
99.678261
  0
LINE
  8
CSLAYER1
  6
CONTINUOUS
 62
     7
 10
125.404324
 20
99.678261
 11
125.404324
 21
95.207856
  0
LINE
  8
CSLAYER1
  6
CONTINUOUS
 62
     7
 10
127.200586
 20
94.828261
 11
127.858063
 21
95.207856
  0
ARC
  8
CSLAYER1
  6
CONTINUOUS
 62
     7
 10
126.631194
 20
97.000710
 40
2.172449
 50
235.615753
 51
304.384247
  0
ARC
  8
CSLAYER1
  6
CONTINUOUS
 62
     7
 10
122.950586
 20
102.948666
 40
8.120405
 50
270.000000
 51
287.587954
  0
LINE
  8
CSLAYER1
  6
CONTINUOUS
 62
     7
 10
118.700586
 20
119.298276
 11
122.950586
 21
119.298276
  0
LINE
  8
CSLAYER1
  6
CONTINUOUS
 62
     7
 10
118.043108
 20
118.918681
 11
118.043108
 21
115.573276
  0
LINE
  8
CSLAYER1
  6
CONTINUOUS
 62
     7
 10
120.496847
 20
115.573276
 11
120.496847
 21
118.918681
  0
LINE
  8
CSLAYER1
  6
CONTINUOUS
 62
     7
 10
118.700586
 20
119.298276
 11
118.043108
 21
118.918681
  0
ARC
  8
CSLAYER1
  6
CONTINUOUS
 62
     7
 10
119.269978
 20
117.125827
 40
2.172449
 50
55.615753
 51
124.384247
  0
ARC
  8
CSLAYER1
  6
CONTINUOUS
 62
     7
 10
122.950586
 20
111.177871
 40
8.120405
 50
90.000000
 51
107.587954
  0
LINE
  8
CSLAYER1
  6
CONTINUOUS
 62
     7
 10
127.200586
 20
119.298276
 11
122.950586
 21
119.298276
  0
LINE
  8
CSLAYER1
  6
CONTINUOUS
 62
     7
 10
127.858063
 20
118.918681
 11
127.858063
 21
115.573276
  0
LINE
  8
CSLAYER1
  6
CONTINUOUS
 62
     7
 10
125.404324
 20
115.573276
 11
125.404324
 21
118.918681
  0
LINE
  8
CSLAYER1
  6
CONTINUOUS
 62
     7
 10
127.200586
 20
119.298276
 11
127.858063
 21
118.918681
  0
ARC
  8
CSLAYER1
  6
CONTINUOUS
 62
     7
 10
126.631194
 20
117.125827
 40
2.172449
 50
55.615753
 51
124.384247
  0
ARC
  8
CSLAYER1
  6
CONTINUOUS
 62
     7
 10
122.950586
 20
111.177871
 40
8.120405
 50
72.412046
 51
90.000000
  0
LINE
  8
CSLAYER1
  6
CONTINUOUS
 62
     7
 10
120.200586
 20
93.448276
 11
120.200586
 21
94.828261
  0
LINE
  8
CSLAYER1
  6
CONTINUOUS
 62
     7
 10
125.700586
 20
93.448276
 11
125.700586
 21
94.828261
  0
LINE
  8
CSLAYER1
  6
CONTINUOUS
 62
     7
 10
120.575586
 20
93.073276
 11
125.325586
 21
93.073276
  0
LINE
  8
CSLAYER1
  6
CONTINUOUS
 62
     7
 10
120.200586
 20
93.448276
 11
120.575586
 21
93.073276
  0
LINE
  8
CSLAYER1
  6
CONTINUOUS
 62
     7
 10
125.700586
 20
93.448276
 11
125.325586
 21
93.073276
  0
LINE
  8
CSLAYER1
  6
CONTINUOUS
 62
     7
 10
120.200586
 20
93.448276
 11
125.700586
 21
93.448276
  0
LINE
  8
CSLAYER1
  6
CONTINUOUS
 62
     7
 10
120.513086
 20
94.828261
 11
120.513086
 21
93.135776
  0
LINE
  8
CSLAYER1
  6
CONTINUOUS
 62
     7
 10
125.388086
 20
94.828261
 11
125.388086
 21
93.135776
  0
LINE
  8
CSLAYER1
  6
CONTINUOUS
 62
     7
 10
383.151043
 20
94.828261
 11
378.901043
 21
94.828261
  0
LINE
  8
CSLAYER1
  6
CONTINUOUS
 62
     7
 10
383.808520
 20
95.207856
 11
383.808520
 21
99.678261
  0
LINE
  8
CSLAYER1
  6
CONTINUOUS
 62
     7
 10
381.354782
 20
99.678261
 11
381.354782
 21
95.207856
  0
LINE
  8
CSLAYER1
  6
CONTINUOUS
 62
     7
 10
383.151043
 20
94.828261
 11
383.808520
 21
95.207856
  0
ARC
  8
CSLAYER1
  6
CONTINUOUS
 62
     7
 10
382.581651
 20
97.000710
 40
2.172449
 50
235.615753
 51
304.384247
  0
ARC
  8
CSLAYER1
  6
CONTINUOUS
 62
     7
 10
378.901043
 20
102.948666
 40
8.120405
 50
270.000000
 51
287.587954
  0
LINE
  8
CSLAYER1
  6
CONTINUOUS
 62
     7
 10
374.651043
 20
94.828261
 11
378.901043
 21
94.828261
  0
LINE
  8
CSLAYER1
  6
CONTINUOUS
 62
     7
 10
373.993566
 20
95.207856
 11
373.993566
 21
99.678261
  0
LINE
  8
CSLAYER1
  6
CONTINUOUS
 62
     7
 10
376.447304
 20
99.678261
 11
376.447304
 21
95.207856
  0
LINE
  8
CSLAYER1
  6
CONTINUOUS
 62
     7
 10
374.651043
 20
94.828261
 11
373.993566
 21
95.207856
  0
ARC
  8
CSLAYER1
  6
CONTINUOUS
 62
     7
 10
375.220435
 20
97.000710
 40
2.172449
 50
235.615753
 51
304.384247
  0
ARC
  8
CSLAYER1
  6
CONTINUOUS
 62
     7
 10
378.901043
 20
102.948666
 40
8.120405
 50
252.412046
 51
270.000000
  0
LINE
  8
CSLAYER1
  6
CONTINUOUS
 62
     7
 10
383.151043
 20
119.298276
 11
378.901043
 21
119.298276
  0
LINE
  8
CSLAYER1
  6
CONTINUOUS
 62
     7
 10
383.808520
 20
118.918681
 11
383.808520
 21
115.573276
  0
LINE
  8
CSLAYER1
  6
CONTINUOUS
 62
     7
 10
381.354782
 20
115.573276
 11
381.354782
 21
118.918681
  0
LINE
  8
CSLAYER1
  6
CONTINUOUS
 62
     7
 10
383.151043
 20
119.298276
 11
383.808520
 21
118.918681
  0
ARC
  8
CSLAYER1
  6
CONTINUOUS
 62
     7
 10
382.581651
 20
117.125827
 40
2.172449
 50
55.615753
 51
124.384247
  0
ARC
  8
CSLAYER1
  6
CONTINUOUS
 62
     7
 10
378.901043
 20
111.177871
 40
8.120405
 50
72.412046
 51
90.000000
  0
LINE
  8
CSLAYER1
  6
CONTINUOUS
 62
     7
 10
374.651043
 20
119.298276
 11
378.901043
 21
119.298276
  0
LINE
  8
CSLAYER1
  6
CONTINUOUS
 62
     7
 10
373.993566
 20
118.918681
 11
373.993566
 21
115.573276
  0
LINE
  8
CSLAYER1
  6
CONTINUOUS
 62
     7
 10
376.447304
 20
115.573276
 11
376.447304
 21
118.918681
  0
LINE
  8
CSLAYER1
  6
CONTINUOUS
 62
     7
 10
374.651043
 20
119.298276
 11
373.993566
 21
118.918681
  0
ARC
  8
CSLAYER1
  6
CONTINUOUS
 62
     7
 10
375.220435
 20
117.125827
 40
2.172449
 50
55.615753
 51
124.384247
  0
ARC
  8
CSLAYER1
  6
CONTINUOUS
 62
     7
 10
378.901043
 20
111.177871
 40
8.120405
 50
90.000000
 51
107.587954
  0
LINE
  8
CSLAYER1
  6
CONTINUOUS
 62
     7
 10
381.651043
 20
93.448276
 11
381.651043
 21
94.828261
  0
LINE
  8
CSLAYER1
  6
CONTINUOUS
 62
     7
 10
376.151043
 20
93.448276
 11
376.151043
 21
94.828261
  0
LINE
  8
CSLAYER1
  6
CONTINUOUS
 62
     7
 10
381.276043
 20
93.073276
 11
376.526043
 21
93.073276
  0
LINE
  8
CSLAYER1
  6
CONTINUOUS
 62
     7
 10
381.651043
 20
93.448276
 11
381.276043
 21
93.073276
  0
LINE
  8
CSLAYER1
  6
CONTINUOUS
 62
     7
 10
376.151043
 20
93.448276
 11
376.526043
 21
93.073276
  0
LINE
  8
CSLAYER1
  6
CONTINUOUS
 62
     7
 10
381.651043
 20
93.448276
 11
376.151043
 21
93.448276
  0
LINE
  8
CSLAYER1
  6
CONTINUOUS
 62
     7
 10
381.338543
 20
94.828261
 11
381.338543
 21
93.135776
  0
LINE
  8
CSLAYER1
  6
CONTINUOUS
 62
     7
 10
376.463543
 20
94.828261
 11
376.463543
 21
93.135776
  0
LINE
  8
CSLAYER1
  6
CONTINUOUS
 62
     7
 10
305.951293
 20
119.298276
 11
310.201293
 21
119.298276
  0
LINE
  8
CSLAYER1
  6
CONTINUOUS
 62
     7
 10
305.293815
 20
118.918681
 11
305.293815
 21
115.573276
  0
LINE
  8
CSLAYER1
  6
CONTINUOUS
 62
     7
 10
307.747554
 20
115.573276
 11
307.747554
 21
118.918681
  0
LINE
  8
CSLAYER1
  6
CONTINUOUS
 62
     7
 10
305.951293
 20
119.298276
 11
305.293815
 21
118.918681
  0
ARC
  8
CSLAYER1
  6
CONTINUOUS
 62
     7
 10
306.520685
 20
117.125827
 40
2.172449
 50
55.615753
 51
124.384247
  0
ARC
  8
CSLAYER1
  6
CONTINUOUS
 62
     7
 10
310.201293
 20
111.177871
 40
8.120405
 50
90.000000
 51
107.587954
  0
LINE
  8
CSLAYER1
  6
CONTINUOUS
 62
     7
 10
314.451293
 20
119.298276
 11
310.201293
 21
119.298276
  0
LINE
  8
CSLAYER1
  6
CONTINUOUS
 62
     7
 10
315.108770
 20
118.918681
 11
315.108770
 21
115.573276
  0
LINE
  8
CSLAYER1
  6
CONTINUOUS
 62
     7
 10
312.655031
 20
115.573276
 11
312.655031
 21
118.918681
  0
LINE
  8
CSLAYER1
  6
CONTINUOUS
 62
     7
 10
314.451293
 20
119.298276
 11
315.108770
 21
118.918681
  0
ARC
  8
CSLAYER1
  6
CONTINUOUS
 62
     7
 10
313.881901
 20
117.125827
 40
2.172449
 50
55.615753
 51
124.384247
  0
ARC
  8
CSLAYER1
  6
CONTINUOUS
 62
     7
 10
310.201293
 20
111.177871
 40
8.120405
 50
72.412046
 51
90.000000
  0
LINE
  8
CSLAYER1
  6
CONTINUOUS
 62
     7
 10
305.951293
 20
94.828261
 11
310.201293
 21
94.828261
  0
LINE
  8
CSLAYER1
  6
CONTINUOUS
 62
     7
 10
305.293815
 20
95.207856
 11
305.293815
 21
99.678261
  0
LINE
  8
CSLAYER1
  6
CONTINUOUS
 62
     7
 10
307.747554
 20
99.678261
 11
307.747554
 21
95.207856
  0
LINE
  8
CSLAYER1
  6
CONTINUOUS
 62
     7
 10
305.951293
 20
94.828261
 11
305.293815
 21
95.207856
  0
ARC
  8
CSLAYER1
  6
CONTINUOUS
 62
     7
 10
306.520685
 20
97.000710
 40
2.172449
 50
235.615753
 51
304.384247
  0
ARC
  8
CSLAYER1
  6
CONTINUOUS
 62
     7
 10
310.201293
 20
102.948666
 40
8.120405
 50
252.412046
 51
270.000000
  0
LINE
  8
CSLAYER1
  6
CONTINUOUS
 62
     7
 10
314.451293
 20
94.828261
 11
310.201293
 21
94.828261
  0
LINE
  8
CSLAYER1
  6
CONTINUOUS
 62
     7
 10
315.108770
 20
95.207856
 11
315.108770
 21
99.678261
  0
LINE
  8
CSLAYER1
  6
CONTINUOUS
 62
     7
 10
312.655031
 20
99.678261
 11
312.655031
 21
95.207856
  0
LINE
  8
CSLAYER1
  6
CONTINUOUS
 62
     7
 10
314.451293
 20
94.828261
 11
315.108770
 21
95.207856
  0
ARC
  8
CSLAYER1
  6
CONTINUOUS
 62
     7
 10
313.881901
 20
97.000710
 40
2.172449
 50
235.615753
 51
304.384247
  0
ARC
  8
CSLAYER1
  6
CONTINUOUS
 62
     7
 10
310.201293
 20
102.948666
 40
8.120405
 50
270.000000
 51
287.587954
  0
LINE
  8
CSLAYER1
  6
CONTINUOUS
 62
     7
 10
307.451293
 20
93.448276
 11
307.451293
 21
94.828261
  0
LINE
  8
CSLAYER1
  6
CONTINUOUS
 62
     7
 10
312.951293
 20
93.448276
 11
312.951293
 21
94.828261
  0
LINE
  8
CSLAYER1
  6
CONTINUOUS
 62
     7
 10
307.826293
 20
93.073276
 11
312.576293
 21
93.073276
  0
LINE
  8
CSLAYER1
  6
CONTINUOUS
 62
     7
 10
307.451293
 20
93.448276
 11
307.826293
 21
93.073276
  0
LINE
  8
CSLAYER1
  6
CONTINUOUS
 62
     7
 10
312.951293
 20
93.448276
 11
312.576293
 21
93.073276
  0
LINE
  8
CSLAYER1
  6
CONTINUOUS
 62
     7
 10
307.451293
 20
93.448276
 11
312.951293
 21
93.448276
  0
LINE
  8
CSLAYER1
  6
CONTINUOUS
 62
     7
 10
307.763793
 20
94.828261
 11
307.763793
 21
93.135776
  0
LINE
  8
CSLAYER1
  6
CONTINUOUS
 62
     7
 10
312.638793
 20
94.828261
 11
312.638793
 21
93.135776
  0
LINE
  8
CSLAYER1
  6
CONTINUOUS
 62
     7
 10
254.119883
 20
99.678261
 11
259.692709
 21
99.678261
  0
LINE
  8
CSLAYER1
  6
CONTINUOUS
 62
     7
 10
255.442709
 20
94.828261
 11
259.692709
 21
94.828261
  0
LINE
  8
CSLAYER1
  6
CONTINUOUS
 62
     7
 10
254.785232
 20
95.207856
 11
254.785232
 21
99.678261
  0
LINE
  8
CSLAYER1
  6
CONTINUOUS
 62
     7
 10
257.238971
 20
99.678261
 11
257.238971
 21
95.207856
  0
LINE
  8
CSLAYER1
  6
CONTINUOUS
 62
     7
 10
255.442709
 20
94.828261
 11
254.785232
 21
95.207856
  0
ARC
  8
CSLAYER1
  6
CONTINUOUS
 62
     7
 10
256.012101
 20
97.000710
 40
2.172449
 50
235.615753
 51
304.384247
  0
ARC
  8
CSLAYER1
  6
CONTINUOUS
 62
     7
 10
259.692709
 20
102.948666
 40
8.120405
 50
252.412046
 51
270.000000
  0
LINE
  8
CSLAYER1
  6
CONTINUOUS
 62
     7
 10
263.942709
 20
94.828261
 11
259.692709
 21
94.828261
  0
LINE
  8
CSLAYER1
  6
CONTINUOUS
 62
     7
 10
262.146448
 20
99.678261
 11
262.146448
 21
95.207856
  0
LINE
  8
CSLAYER1
  6
CONTINUOUS
 62
     7
 10
263.942709
 20
94.828261
 11
264.457218
 21
95.125313
  0
ARC
  8
CSLAYER1
  6
CONTINUOUS
 62
     7
 10
263.373317
 20
97.000710
 40
2.172449
 50
235.615753
 51
304.384247
  0
ARC
  8
CSLAYER1
  6
CONTINUOUS
 62
     7
 10
259.692709
 20
102.948666
 40
8.120405
 50
270.000000
 51
287.587954
  0
LINE
  8
CSLAYER1
  6
CONTINUOUS
 62
     7
 10
255.442709
 20
119.298276
 11
259.692709
 21
119.298276
  0
LINE
  8
CSLAYER1
  6
CONTINUOUS
 62
     7
 10
254.785232
 20
118.918681
 11
254.785232
 21
115.573276
  0
LINE
  8
CSLAYER1
  6
CONTINUOUS
 62
     7
 10
257.238971
 20
115.573276
 11
257.238971
 21
118.918681
  0
LINE
  8
CSLAYER1
  6
CONTINUOUS
 62
     7
 10
255.442709
 20
119.298276
 11
254.785232
 21
118.918681
  0
ARC
  8
CSLAYER1
  6
CONTINUOUS
 62
     7
 10
256.012101
 20
117.125827
 40
2.172449
 50
55.615753
 51
124.384247
  0
ARC
  8
CSLAYER1
  6
CONTINUOUS
 62
     7
 10
259.692709
 20
111.177871
 40
8.120405
 50
90.000000
 51
107.587954
  0
LINE
  8
CSLAYER1
  6
CONTINUOUS
 62
     7
 10
263.942709
 20
119.298276
 11
259.692709
 21
119.298276
  0
LINE
  8
CSLAYER1
  6
CONTINUOUS
 62
     7
 10
262.146448
 20
115.573276
 11
262.146448
 21
118.918681
  0
LINE
  8
CSLAYER1
  6
CONTINUOUS
 62
     7
 10
263.942709
 20
119.298276
 11
264.463543
 21
118.997573
  0
ARC
  8
CSLAYER1
  6
CONTINUOUS
 62
     7
 10
263.373317
 20
117.125827
 40
2.172449
 50
59.685070
 51
124.384247
  0
ARC
  8
CSLAYER1
  6
CONTINUOUS
 62
     7
 10
259.692709
 20
111.177871
 40
8.120405
 50
72.412046
 51
90.000000
  0
LINE
  8
CSLAYER1
  6
CONTINUOUS
 62
     7
 10
256.942709
 20
93.448276
 11
256.942709
 21
94.828261
  0
LINE
  8
CSLAYER1
  6
CONTINUOUS
 62
     7
 10
262.442709
 20
93.448276
 11
262.442709
 21
94.828261
  0
LINE
  8
CSLAYER1
  6
CONTINUOUS
 62
     7
 10
257.317709
 20
93.073276
 11
262.067709
 21
93.073276
  0
LINE
  8
CSLAYER1
  6
CONTINUOUS
 62
     7
 10
256.942709
 20
93.448276
 11
257.317709
 21
93.073276
  0
LINE
  8
CSLAYER1
  6
CONTINUOUS
 62
     7
 10
262.442709
 20
93.448276
 11
262.067709
 21
93.073276
  0
LINE
  8
CSLAYER1
  6
CONTINUOUS
 62
     7
 10
256.942709
 20
93.448276
 11
262.442709
 21
93.448276
  0
LINE
  8
CSLAYER1
  6
CONTINUOUS
 62
     7
 10
257.255209
 20
94.828261
 11
257.255209
 21
93.135776
  0
LINE
  8
CSLAYER1
  6
CONTINUOUS
 62
     7
 10
262.130209
 20
94.828261
 11
262.130209
 21
93.135776
  0
LINE
  8
CSLAYER1
  6
CONTINUOUS
 62
     7
 10
282.598997
 20
94.828261
 11
286.848997
 21
94.828261
  0
LINE
  8
CSLAYER1
  6
CONTINUOUS
 62
     7
 10
281.941520
 20
95.207856
 11
281.941520
 21
99.678261
  0
LINE
  8
CSLAYER1
  6
CONTINUOUS
 62
     7
 10
284.395259
 20
99.678261
 11
284.395259
 21
95.207856
  0
LINE
  8
CSLAYER1
  6
CONTINUOUS
 62
     7
 10
282.598997
 20
94.828261
 11
281.941520
 21
95.207856
  0
ARC
  8
CSLAYER1
  6
CONTINUOUS
 62
     7
 10
283.168390
 20
97.000710
 40
2.172449
 50
235.615753
 51
304.384247
  0
ARC
  8
CSLAYER1
  6
CONTINUOUS
 62
     7
 10
286.848997
 20
102.948666
 40
8.120405
 50
252.412046
 51
270.000000
  0
LINE
  8
CSLAYER1
  6
CONTINUOUS
 62
     7
 10
291.098997
 20
94.828261
 11
286.848997
 21
94.828261
  0
LINE
  8
CSLAYER1
  6
CONTINUOUS
 62
     7
 10
291.756475
 20
95.207856
 11
291.756475
 21
99.678261
  0
LINE
  8
CSLAYER1
  6
CONTINUOUS
 62
     7
 10
289.302736
 20
99.678261
 11
289.302736
 21
95.207856
  0
LINE
  8
CSLAYER1
  6
CONTINUOUS
 62
     7
 10
291.098997
 20
94.828261
 11
291.756475
 21
95.207856
  0
ARC
  8
CSLAYER1
  6
CONTINUOUS
 62
     7
 10
290.529605
 20
97.000710
 40
2.172449
 50
235.615753
 51
304.384247
  0
ARC
  8
CSLAYER1
  6
CONTINUOUS
 62
     7
 10
286.848997
 20
102.948666
 40
8.120405
 50
270.000000
 51
287.587954
  0
LINE
  8
CSLAYER1
  6
CONTINUOUS
 62
     7
 10
282.598997
 20
119.298276
 11
286.848997
 21
119.298276
  0
LINE
  8
CSLAYER1
  6
CONTINUOUS
 62
     7
 10
281.941520
 20
118.918681
 11
281.941520
 21
115.573276
  0
LINE
  8
CSLAYER1
  6
CONTINUOUS
 62
     7
 10
284.395259
 20
115.573276
 11
284.395259
 21
118.918681
  0
LINE
  8
CSLAYER1
  6
CONTINUOUS
 62
     7
 10
282.598997
 20
119.298276
 11
281.941520
 21
118.918681
  0
ARC
  8
CSLAYER1
  6
CONTINUOUS
 62
     7
 10
283.168390
 20
117.125827
 40
2.172449
 50
55.615753
 51
124.384247
  0
ARC
  8
CSLAYER1
  6
CONTINUOUS
 62
     7
 10
286.848997
 20
111.177871
 40
8.120405
 50
90.000000
 51
107.587954
  0
LINE
  8
CSLAYER1
  6
CONTINUOUS
 62
     7
 10
291.098997
 20
119.298276
 11
286.848997
 21
119.298276
  0
LINE
  8
CSLAYER1
  6
CONTINUOUS
 62
     7
 10
291.756475
 20
118.918681
 11
291.756475
 21
115.573276
  0
LINE
  8
CSLAYER1
  6
CONTINUOUS
 62
     7
 10
289.302736
 20
115.573276
 11
289.302736
 21
118.918681
  0
LINE
  8
CSLAYER1
  6
CONTINUOUS
 62
     7
 10
291.098997
 20
119.298276
 11
291.756475
 21
118.918681
  0
ARC
  8
CSLAYER1
  6
CONTINUOUS
 62
     7
 10
290.529605
 20
117.125827
 40
2.172449
 50
55.615753
 51
124.384247
  0
ARC
  8
CSLAYER1
  6
CONTINUOUS
 62
     7
 10
286.848997
 20
111.177871
 40
8.120405
 50
72.412046
 51
90.000000
  0
LINE
  8
CSLAYER1
  6
CONTINUOUS
 62
     7
 10
284.098997
 20
93.448276
 11
284.098997
 21
94.828261
  0
LINE
  8
CSLAYER1
  6
CONTINUOUS
 62
     7
 10
289.598997
 20
93.448276
 11
289.598997
 21
94.828261
  0
LINE
  8
CSLAYER1
  6
CONTINUOUS
 62
     7
 10
284.473997
 20
93.073276
 11
289.223997
 21
93.073276
  0
LINE
  8
CSLAYER1
  6
CONTINUOUS
 62
     7
 10
284.098997
 20
93.448276
 11
284.473997
 21
93.073276
  0
LINE
  8
CSLAYER1
  6
CONTINUOUS
 62
     7
 10
289.598997
 20
93.448276
 11
289.223997
 21
93.073276
  0
LINE
  8
CSLAYER1
  6
CONTINUOUS
 62
     7
 10
284.098997
 20
93.448276
 11
289.598997
 21
93.448276
  0
LINE
  8
CSLAYER1
  6
CONTINUOUS
 62
     7
 10
284.411497
 20
94.828261
 11
284.411497
 21
93.135776
  0
LINE
  8
CSLAYER1
  6
CONTINUOUS
 62
     7
 10
289.286497
 20
94.828261
 11
289.286497
 21
93.135776
  0
LINE
  8
CSLAYER1
  6
CONTINUOUS
 62
     7
 10
317.716856
 20
99.678261
 11
259.692709
 21
99.678261
  0
LINE
  8
CSLAYER1
  6
CONTINUOUS
 62
     7
 10
264.984376
 20
94.828261
 11
269.234376
 21
94.828261
  0
LINE
  8
CSLAYER1
  6
CONTINUOUS
 62
     7
 10
264.326899
 20
95.207856
 11
264.326899
 21
99.678261
  0
LINE
  8
CSLAYER1
  6
CONTINUOUS
 62
     7
 10
266.780637
 20
99.678261
 11
266.780637
 21
95.207856
  0
LINE
  8
CSLAYER1
  6
CONTINUOUS
 62
     7
 10
264.984376
 20
94.828261
 11
264.326899
 21
95.207856
  0
ARC
  8
CSLAYER1
  6
CONTINUOUS
 62
     7
 10
265.553768
 20
97.000710
 40
2.172449
 50
235.615753
 51
304.384247
  0
ARC
  8
CSLAYER1
  6
CONTINUOUS
 62
     7
 10
269.234376
 20
102.948666
 40
8.120405
 50
252.412046
 51
270.000000
  0
LINE
  8
CSLAYER1
  6
CONTINUOUS
 62
     7
 10
273.484376
 20
94.828261
 11
269.234376
 21
94.828261
  0
LINE
  8
CSLAYER1
  6
CONTINUOUS
 62
     7
 10
274.141853
 20
95.207856
 11
274.141853
 21
99.678261
  0
LINE
  8
CSLAYER1
  6
CONTINUOUS
 62
     7
 10
271.688115
 20
99.678261
 11
271.688115
 21
95.207856
  0
LINE
  8
CSLAYER1
  6
CONTINUOUS
 62
     7
 10
273.484376
 20
94.828261
 11
274.141853
 21
95.207856
  0
ARC
  8
CSLAYER1
  6
CONTINUOUS
 62
     7
 10
272.914984
 20
97.000710
 40
2.172449
 50
235.615753
 51
304.384247
  0
ARC
  8
CSLAYER1
  6
CONTINUOUS
 62
     7
 10
269.234376
 20
102.948666
 40
8.120405
 50
270.000000
 51
287.587954
  0
LINE
  8
CSLAYER1
  6
CONTINUOUS
 62
     7
 10
264.984376
 20
119.298276
 11
269.234376
 21
119.298276
  0
LINE
  8
CSLAYER1
  6
CONTINUOUS
 62
     7
 10
264.326899
 20
118.918681
 11
264.326899
 21
115.573276
  0
LINE
  8
CSLAYER1
  6
CONTINUOUS
 62
     7
 10
266.780637
 20
115.573276
 11
266.780637
 21
118.918681
  0
LINE
  8
CSLAYER1
  6
CONTINUOUS
 62
     7
 10
264.984376
 20
119.298276
 11
264.326899
 21
118.918681
  0
ARC
  8
CSLAYER1
  6
CONTINUOUS
 62
     7
 10
265.553768
 20
117.125827
 40
2.172449
 50
55.615753
 51
124.384247
  0
ARC
  8
CSLAYER1
  6
CONTINUOUS
 62
     7
 10
269.234376
 20
111.177871
 40
8.120405
 50
90.000000
 51
107.587954
  0
LINE
  8
CSLAYER1
  6
CONTINUOUS
 62
     7
 10
273.484376
 20
119.298276
 11
269.234376
 21
119.298276
  0
LINE
  8
CSLAYER1
  6
CONTINUOUS
 62
     7
 10
274.141853
 20
118.918681
 11
274.141853
 21
115.573276
  0
LINE
  8
CSLAYER1
  6
CONTINUOUS
 62
     7
 10
271.688115
 20
115.573276
 11
271.688115
 21
118.918681
  0
LINE
  8
CSLAYER1
  6
CONTINUOUS
 62
     7
 10
273.484376
 20
119.298276
 11
274.141853
 21
118.918681
  0
ARC
  8
CSLAYER1
  6
CONTINUOUS
 62
     7
 10
272.914984
 20
117.125827
 40
2.172449
 50
55.615753
 51
124.384247
  0
ARC
  8
CSLAYER1
  6
CONTINUOUS
 62
     7
 10
269.234376
 20
111.177871
 40
8.120405
 50
72.412046
 51
90.000000
  0
LINE
  8
CSLAYER1
  6
CONTINUOUS
 62
     7
 10
266.484376
 20
93.448276
 11
266.484376
 21
94.828261
  0
LINE
  8
CSLAYER1
  6
CONTINUOUS
 62
     7
 10
271.984376
 20
93.448276
 11
271.984376
 21
94.828261
  0
LINE
  8
CSLAYER1
  6
CONTINUOUS
 62
     7
 10
266.859376
 20
93.073276
 11
271.609376
 21
93.073276
  0
LINE
  8
CSLAYER1
  6
CONTINUOUS
 62
     7
 10
266.484376
 20
93.448276
 11
266.859376
 21
93.073276
  0
LINE
  8
CSLAYER1
  6
CONTINUOUS
 62
     7
 10
271.984376
 20
93.448276
 11
271.609376
 21
93.073276
  0
LINE
  8
CSLAYER1
  6
CONTINUOUS
 62
     7
 10
266.484376
 20
93.448276
 11
271.984376
 21
93.448276
  0
LINE
  8
CSLAYER1
  6
CONTINUOUS
 62
     7
 10
266.796876
 20
94.828261
 11
266.796876
 21
93.135776
  0
LINE
  8
CSLAYER1
  6
CONTINUOUS
 62
     7
 10
271.671876
 20
94.828261
 11
271.671876
 21
93.135776
  0
ARC
  8
CSLAYER1
  6
CONTINUOUS
 62
     7
 10
89.000002
 20
84.750000
 40
10.000000
 50
230.394348
 51
270.000000
  0
LINE
  8
CSLAYER1
  6
CENTER
 62
     2
 10
46.250002
 20
140.926323
 11
46.250002
 21
60.688728
  0
LINE
  8
CSLAYER1
  6
CENTER
 62
     2
 10
34.133766
 20
108.000000
 11
58.488868
 21
108.000000
  0
LINE
  8
CSLAYER1
  6
CENTER
 62
     2
 10
315.234455
 20
108.000000
 11
357.391262
 21
108.000000
  0
LINE
  8
CSLAYER1
  6
CENTER
 62
     2
 10
189.702800
 20
315.132423
 11
180.385340
 21
313.279065
  0
LINE
  8
CSLAYER1
  6
CENTER
 62
     2
 10
181.565096
 20
334.778578
 11
173.666135
 21
329.500661
  0
LINE
  8
CSLAYER1
  6
CENTER
 62
     2
 10
167.166942
 20
350.770470
 11
161.250663
 21
341.916133
  0
LINE
  8
CSLAYER1
  6
CENTER
 62
     2
 10
146.983063
 20
358.458741
 11
145.029067
 21
348.635338
  0
LINE
  8
CSLAYER1
  6
CENTER
 62
     2
 10
82.797205
 20
315.132423
 11
92.114665
 21
313.279065
  0
LINE
  8
CSLAYER1
  6
CENTER
 62
     2
 10
90.934908
 20
334.778578
 11
98.833870
 21
329.500661
  0
LINE
  8
CSLAYER1
  6
CENTER
 62
     2
 10
105.971425
 20
349.815094
 11
111.249342
 21
341.916133
  0
LINE
  8
CSLAYER1
  6
CENTER
 62
     2
 10
125.617580
 20
357.952798
 11
127.470938
 21
348.635338
  0
LINE
  8
CSLAYER1
  6
CENTER
 62
     2
 10
111.249342
 20
267.083868
 11
105.971425
 21
259.184906
  0
LINE
  8
CSLAYER1
  6
CENTER
 62
     2
 10
98.833870
 20
279.499340
 11
90.934908
 21
274.221423
  0
LINE
  8
CSLAYER1
  6
CENTER
 62
     2
 10
92.114665
 20
295.720936
 11
82.797205
 21
293.867578
  0
LINE
  8
CSLAYER1
  6
CENTER
 62
     2
 10
127.470938
 20
260.364663
 11
125.617580
 21
251.047202
  0
LINE
  8
CSLAYER1
  6
CENTER
 62
     2
 10
145.029067
 20
260.364663
 11
146.882425
 21
251.047202
  0
LINE
  8
CSLAYER1
  6
CENTER
 62
     2
 10
161.250663
 20
267.083868
 11
166.528580
 21
259.184906
  0
LINE
  8
CSLAYER1
  6
CENTER
 62
     2
 10
173.666135
 20
279.499340
 11
181.565096
 21
274.221423
  0
LINE
  8
CSLAYER1
  6
CENTER
 62
     2
 10
180.385340
 20
295.720936
 11
189.702800
 21
293.867578
  0
ARC
  8
CSLAYER1
  6
CONTINUOUS
 62
     7
 10
61.875002
 20
141.355560
 40
0.375000
 50
296.565051
 51
360.000000
  0
LINE
  8
CSLAYER1
  6
CONTINUOUS
 62
     7
 10
266.817709
 20
84.750000
 11
266.817709
 21
93.223037
  0
ARC
  8
CSLAYER1
  6
CONTINUOUS
 62
     7
 10
61.875002
 20
312.106763
 40
0.375000
 50
296.565051
 51
360.000000
  0
LINE
  8
CSLAYER1
  6
CONTINUOUS
 62
     7
 10
51.797062
 20
298.888897
 11
51.797062
 21
299.375000
  0
LINE
  8
CSLAYER1
  6
CENTER
 62
     2
 10
39.073680
 20
133.750000
 11
79.000002
 21
133.750000
  0
LINE
  8
CSLAYER1
  6
CENTER
 62
     2
 10
94.500002
 20
64.500000
 11
42.438731
 21
64.500000
  0
LINE
  8
CSLAYER1
  6
CONTINUOUS
 62
     7
 10
57.625002
 20
300.268797
 11
57.625002
 21
300.250000
  0
INSERT
  8
CSLAYER1
  2
BLKF0002
 10
0.0
 20
0.0
 30
0.0
  0
INSERT
  8
CSLAYER1
  2
BLKF0003
 10
0.0
 20
0.0
 30
0.0
  0
LINE
  8
CSLAYER1
  6
CONTINUOUS
 62
     7
 10
414.567709
 20
100.230435
 11
414.567709
 21
107.250000
  0
INSERT
  8
CSLAYER1
  2
BLKF0004
 10
0.0
 20
0.0
 30
0.0
  0
INSERT
  8
CSLAYER1
  2
BLKF0005
 10
0.0
 20
0.0
 30
0.0
  0
TEXT
  8
CSLAYER1
 62
     7
 10
309.563782
 20
368.617279
 40
6.000000
 41
0.846774
  1
SMOLENSKY CHECK VALVE
 50
0.000000
 51
0.000000
  7
EASYDRAW_FONT
 72
     5
 11
414.563782
 21
368.617279
  0
TEXT
  8
CSLAYER1
 62
     7
 10
309.646912
 20
348.617279
 40
6.000000
 41
0.865385
  1
株式会社　イシザキ
 50
0.000000
 51
0.000000
  7
EASYDRAW_FONT
 72
     5
 11
354.646912
 21
348.617279
  0
TEXT
  8
CSLAYER1
 62
     7
 10
309.354248
 20
358.617279
 40
6.000000
 41
0.850000
  1
SM ・ SMC 10K 300A
 50
0.000000
 51
0.000000
  7
EASYDRAW_FONT
 72
     5
 11
394.354248
 21
358.617279
  0
TEXT
  8
CSLAYER1
 62
     7
 10
381.666443
 20
338.557892
 40
6.000000
 41
0.882353
  1
縮尺　１／４
 50
0.000000
 51
0.000000
  7
EASYDRAW_FONT
 72
     5
 11
411.666443
 21
338.557892
  0
ENDSEC
  0
EOF
