  0
SECTION
  2
HEADER
  9
$ACADVER
  1
AC1006
  9
$INSBASE
 10
-10.890924
 20
4.464387
 30
0.0
  9
$EXTMIN
 10
-10.890924
 20
4.464387
  9
$EXTMAX
 10
292.117645
 20
328.696900
  9
$LIMMIN
 10
-10.890924
 20
4.464387
  9
$LIMMAX
 10
292.117645
 20
328.696900
  9
$VIEWCTR
 10
140.613360
 20
166.580644
  9
$VIEWSIZE
 40
324.232513
  9
$SNAPMODE
 70
     0
  9
$SNAPUNIT
 10
1.0
 20
1.0
  9
$SNAPBASE
 10
0.0
 20
0.0
  9
$SNAPANG
 50
0.0
  9
$SNAPSTYLE
 70
     0
  9
$SNAPISOPAIR
 70
     0
  9
$GRIDMODE
 70
     0
  9
$GRIDUNIT
 10
0.0
 20
0.0
  9
$ORTHOMODE
 70
     0
  9
$REGENMODE
 70
     1
  9
$FILLMODE
 70
     1
  9
$QTEXTMODE
 70
     0
  9
$DRAGMODE
 70
     2
  9
$LTSCALE
 40
15.000000
  9
$OSMODE
 70
     0
  9
$ATTMODE
 70
     1
  9
$TEXTSIZE
 40
0.2
  9
$TRACEWID
 40
0.05
  9
$TEXTSTYLE
  7
STANDARD
  9
$CLAYER
  8
CSLAYER1
  9
$CELTYPE
  6
BYLAYER
  9
$CECOLOR
 62
   256
  9
$DIMSCALE
 40
1.0
  9
$DIMASZ
 40
0.18
  9
$DIMEXO
 40
0.0625
  9
$DIMDLI
 40
0.38
  9
$DIMRND
 40
0.0
  9
$DIMDLE
 40
0.0
  9
$DIMEXE
 40
0.18
  9
$DIMTP
 40
0.0
  9
$DIMTM
 40
0.0
  9
$DIMTXT
 40
0.18
  9
$DIMCEN
 40
0.09
  9
$DIMTSZ
 40
0.0
  9
$DIMTOL
 70
     0
  9
$DIMLIM
 70
     0
  9
$DIMTIH
 70
     1
  9
$DIMTOH
 70
     1
  9
$DIMSE1
 70
     0
  9
$DIMSE2
 70
     0
  9
$DIMTAD
 70
     0
  9
$DIMZIN
 70
     0
  9
$DIMBLK
  1

  9
$LUNITS
 70
     2
  9
$LUPREC
 70
     4
  9
$AXISMODE
 70
     0
  9
$AXISUNIT
 10
0.0
 20
0.0
  9
$SKETCHINC
 40
0.1
  9
$FILLETRAD
 40
0.0
  9
$AUNITS
 70
     0
  9
$AUPREC
 70
     0
  9
$MENU
  1
ACAD
  9
$ELEVATION
 40
0.0
  9
$THICKNESS
 40
0.0
  9
$VIEWDIR
 10
0.0
 20
0.0
 30
1.0
  9
$LIMCHECK
 70
     0
  9
$BLIPMODE
 70
     1
  9
$CHAMFERA
 40
0.0
  9
$CHAMFERB
 40
0.0
  9
$FASTZOOM
 70
     1
  9
$SKPOLY
 70
     0
  9
$TDCREATE
 40
2456637.000000
  9
$TDUPDATE
 40
2456637.000000
  9
$TDINDWG
 40
0.0
  9
$TDUSRTIMER
 40
0.0
  9
$USRTIMER
 70
     1
  9
$ANGBASE
 50
0.0
  9
$ANGDIR
 70
     0
  9
$PDMODE
 70
     0
  9
$PDSIZE
 40
0.0
  9
$PLINEWID
 40
0.0
  9
$COORDS
 70
     0
  9
$USERI1
 70
     0
  9
$USERI2
 70
     0
  9
$USERI3
 70
     0
  9
$USERI4
 70
     0
  9
$USERI5
 70
     0
  9
$USERR1
 40
0.0
  9
$USERR2
 40
0.0
  9
$USERR3
 40
0.0
  9
$USERR4
 40
0.0
  9
$USERR5
 40
0.0
  0
ENDSEC
  0
SECTION
  2
TABLES
  0
TABLE
  2
LTYPE
 70
     9
  0
LTYPE
  2
CONTINUOUS
 70
    64
  3
Solid line
 72
    65
 73
     0
 40
0.0
  0
LTYPE
  2
DASHED
 70
    64
  3
__ __ __ __ __ __ __ __ __ __ __ __ __ __ __
 72
    65
 73
     2
 40
0.75
 49
0.5
 49
-0.25
  0
LTYPE
  2
HIDDEN
 70
    64
  3
_ _ _ _ _ _ _ _ _ _ _ _ _ _ _ _ _ _ _ _ _ _ _
 72
    65
 73
     2
 40
0.375
 49
0.25
 49
-0.125
  0
LTYPE
  2
DOT
 70
    64
  3
...............................................
 72
    65
 73
     2
 40
0.25
 49
0.0
 49
-0.25
  0
LTYPE
  2
DASHDOT
 70
    64
  3
__ . __ . __ . __ . __ . __ . __ . __ . __ . __
 72
    65
 73
     4
 40
1.0
 49
0.5
 49
-0.25
 49
0.0
 49
-0.25
  0
LTYPE
  2
DIVIDE
 70
    64
  3
__ . . __ . . __ . . __ . . __ . . __ . . __
 72
    65
 73
     6
 40
1.25
 49
0.5
 49
-0.25
 49
0.0
 49
-0.25
 49
0.0
 49
-0.25
  0
LTYPE
  2
CENTER
 70
    64
  3
____ _ ____ _ ____ _ ____ _ ____ _ ____ _ ____ 
 72
    65
 73
     4
 40
2.0
 49
1.25
 49
-0.25
 49
0.25
 49
-0.25
  0
LTYPE
  2
PHANTOM
 70
    64
  3
______  __  __  ______  __  __  ______  __  __ 
 72
    65
 73
     6
 40
2.5
 49
1.25
 49
-0.25
 49
0.25
 49
-0.25
 49
0.25
 49
-0.25
  0
LTYPE
  2
BORDER
 70
    64
  3
__ __ . __ __ . __ __ . __ __ . __ __ . __ __ .
 72
    65
 73
     6
 40
1.75
 49
0.5
 49
-0.25
 49
0.5
 49
-0.25
 49
0.0
 49
-0.25
  0
ENDTAB
  0
TABLE
  2
LAYER
 70
    16
  0
LAYER
  2
CSLAYER1
 70
    64
 62
     7
  6
CONTINUOUS
  0
LAYER
  2
CSLAYER2
 70
    64
 62
     7
  6
CONTINUOUS
  0
LAYER
  2
CSLAYER3
 70
    64
 62
     7
  6
CONTINUOUS
  0
LAYER
  2
CSLAYER4
 70
    64
 62
     7
  6
CONTINUOUS
  0
LAYER
  2
CSLAYER5
 70
    64
 62
     7
  6
CONTINUOUS
  0
LAYER
  2
CSLAYER6
 70
    64
 62
     7
  6
CONTINUOUS
  0
LAYER
  2
CSLAYER7
 70
    64
 62
     7
  6
CONTINUOUS
  0
LAYER
  2
CSLAYER8
 70
    64
 62
     7
  6
CONTINUOUS
  0
LAYER
  2
CSLAYER9
 70
    64
 62
     7
  6
CONTINUOUS
  0
LAYER
  2
CSLAYER10
 70
    64
 62
     7
  6
CONTINUOUS
  0
LAYER
  2
CSLAYER11
 70
    64
 62
     7
  6
CONTINUOUS
  0
LAYER
  2
CSLAYER12
 70
    64
 62
     7
  6
CONTINUOUS
  0
LAYER
  2
CSLAYER13
 70
    64
 62
     7
  6
CONTINUOUS
  0
LAYER
  2
CSLAYER14
 70
    64
 62
     7
  6
CONTINUOUS
  0
LAYER
  2
CSLAYER15
 70
    64
 62
     7
  6
CONTINUOUS
  0
LAYER
  2
CSLAYER16
 70
    64
 62
     7
  6
CONTINUOUS
  0
ENDTAB
  0
TABLE
  2
STYLE
 70
     1
  0
STYLE
  2
EASYDRAW_FONT
 70
     0
 40
1.0
 41
1.0
 50
0.0
 71
     0
 42
1.0
  3
monotxt
  4
bigfont
  0
ENDTAB
  0
TABLE
  2
VIEW
 70
     0
  0
ENDTAB
  0
ENDSEC
  0
SECTION
  2
BLOCKS
  0
BLOCK
  8
CSLAYER1
  2
BLKF0000
 70
   64
 10
0.0
 20
0.0
 30
0.0
  0
TEXT
  8
CSLAYER1
 62
     7
 10
24.000000
 20
88.000000
 40
4.000000
 41
0.843750
  1
１３５
 50
90.000000
 51
0.000000
  7
EASYDRAW_FONT
 72
     5
 11
24.000000
 21
97.000000
  0
LINE
  8
CSLAYER1
  6
CONTINUOUS
 62
     7
 10
55.200005
 20
25.000000
 11
24.000005
 21
25.000000
  0
LINE
  8
CSLAYER1
  6
CONTINUOUS
 62
     7
 10
55.200005
 20
160.000000
 11
24.000005
 21
160.000000
  0
LINE
  8
CSLAYER1
  6
CONTINUOUS
 62
     7
 10
25.000005
 20
25.000000
 11
25.000005
 21
160.000000
  0
LINE
  8
CSLAYER1
  6
CONTINUOUS
 62
     7
 10
25.000005
 20
25.000000
 11
24.223548
 21
27.897777
  0
LINE
  8
CSLAYER1
  6
CONTINUOUS
 62
     7
 10
25.000005
 20
25.000000
 11
25.776462
 21
27.897777
  0
LINE
  8
CSLAYER1
  6
CONTINUOUS
 62
     7
 10
25.000005
 20
160.000000
 11
24.223548
 21
157.102222
  0
LINE
  8
CSLAYER1
  6
CONTINUOUS
 62
     7
 10
25.000005
 20
160.000000
 11
25.776462
 21
157.102222
  0
ENDBLK
  8
0
  0
BLOCK
  8
CSLAYER4
  2
BLKF0001
 70
   64
 10
0.0
 20
0.0
 30
0.0
  0
LINE
  8
CSLAYER4
  6
CONTINUOUS
 62
     7
 10
125.195916
 20
107.158614
 11
125.061143
 21
106.250402
  0
LINE
  8
CSLAYER4
  6
CONTINUOUS
 62
     7
 10
125.061143
 20
106.250402
 11
124.811643
 21
105.351115
  0
LINE
  8
CSLAYER4
  6
CONTINUOUS
 62
     7
 10
124.811643
 20
105.351115
 11
124.446996
 21
104.487373
  0
LINE
  8
CSLAYER4
  6
CONTINUOUS
 62
     7
 10
124.446996
 20
104.487373
 11
123.977159
 21
103.681394
  0
LINE
  8
CSLAYER4
  6
CONTINUOUS
 62
     7
 10
123.977159
 20
103.681394
 11
123.421968
 21
102.951194
  0
LINE
  8
CSLAYER4
  6
CONTINUOUS
 62
     7
 10
123.421968
 20
102.951194
 11
122.798684
 21
102.311679
  0
LINE
  8
CSLAYER4
  6
CONTINUOUS
 62
     7
 10
122.798684
 20
102.311679
 11
122.088464
 21
101.743366
  0
LINE
  8
CSLAYER4
  6
CONTINUOUS
 62
     7
 10
122.088464
 20
101.743366
 11
121.297849
 21
101.253892
  0
LINE
  8
CSLAYER4
  6
CONTINUOUS
 62
     7
 10
121.297849
 20
101.253892
 11
120.445035
 21
100.862561
  0
LINE
  8
CSLAYER4
  6
CONTINUOUS
 62
     7
 10
120.445035
 20
100.862561
 11
119.550451
 21
100.583249
  0
LINE
  8
CSLAYER4
  6
CONTINUOUS
 62
     7
 10
119.550451
 20
100.583249
 11
118.639997
 21
100.416633
  0
LINE
  8
CSLAYER4
  6
CONTINUOUS
 62
     7
 10
118.639997
 20
100.416633
 11
117.740415
 21
100.361387
  0
LINE
  8
CSLAYER4
  6
CONTINUOUS
 62
     7
 10
117.740415
 20
100.361387
 11
116.840814
 21
100.416633
  0
LINE
  8
CSLAYER4
  6
CONTINUOUS
 62
     7
 10
116.840814
 20
100.416633
 11
115.930360
 21
100.583249
  0
LINE
  8
CSLAYER4
  6
CONTINUOUS
 62
     7
 10
115.930360
 20
100.583249
 11
115.035795
 21
100.862561
  0
LINE
  8
CSLAYER4
  6
CONTINUOUS
 62
     7
 10
115.035795
 20
100.862561
 11
114.182981
 21
101.253892
  0
LINE
  8
CSLAYER4
  6
CONTINUOUS
 62
     7
 10
114.182981
 20
101.253892
 11
113.392366
 21
101.743366
  0
LINE
  8
CSLAYER4
  6
CONTINUOUS
 62
     7
 10
113.392366
 20
101.743366
 11
112.682145
 21
102.311679
  0
LINE
  8
CSLAYER4
  6
CONTINUOUS
 62
     7
 10
112.682145
 20
102.311679
 11
112.058862
 21
102.951194
  0
LINE
  8
CSLAYER4
  6
CONTINUOUS
 62
     7
 10
112.058862
 20
102.951194
 11
111.503671
 21
103.681394
  0
LINE
  8
CSLAYER4
  6
CONTINUOUS
 62
     7
 10
111.503671
 20
103.681394
 11
111.033834
 21
104.487373
  0
LINE
  8
CSLAYER4
  6
CONTINUOUS
 62
     7
 10
111.033834
 20
104.487373
 11
110.669187
 21
105.351115
  0
LINE
  8
CSLAYER4
  6
CONTINUOUS
 62
     7
 10
110.669187
 20
105.351115
 11
110.419668
 21
106.250402
  0
LINE
  8
CSLAYER4
  6
CONTINUOUS
 62
     7
 10
110.419668
 20
106.250402
 11
110.284913
 21
107.158614
  0
ENDBLK
  8
0
  0
BLOCK
  8
CSLAYER4
  2
BLKF0002
 70
   64
 10
0.0
 20
0.0
 30
0.0
  0
LINE
  8
CSLAYER4
  6
CONTINUOUS
 62
     7
 10
110.282281
 20
107.179118
 11
110.265992
 21
108.181249
  0
LINE
  8
CSLAYER4
  6
CONTINUOUS
 62
     7
 10
110.265992
 20
108.181249
 11
110.378717
 21
109.175521
  0
LINE
  8
CSLAYER4
  6
CONTINUOUS
 62
     7
 10
110.378717
 20
109.175521
 11
110.618776
 21
110.147649
  0
LINE
  8
CSLAYER4
  6
CONTINUOUS
 62
     7
 10
110.618776
 20
110.147649
 11
110.980638
 21
111.076766
  0
LINE
  8
CSLAYER4
  6
CONTINUOUS
 62
     7
 10
110.980638
 20
111.076766
 11
111.458791
 21
111.950094
  0
LINE
  8
CSLAYER4
  6
CONTINUOUS
 62
     7
 10
111.458791
 20
111.950094
 11
112.047056
 21
112.754976
  0
LINE
  8
CSLAYER4
  6
CONTINUOUS
 62
     7
 10
112.047056
 20
112.754976
 11
112.733854
 21
113.474437
  0
LINE
  8
CSLAYER4
  6
CONTINUOUS
 62
     7
 10
112.733854
 20
113.474437
 11
113.509725
 21
114.097654
  0
LINE
  8
CSLAYER4
  6
CONTINUOUS
 62
     7
 10
113.509725
 20
114.097654
 11
114.364160
 21
114.613925
  0
LINE
  8
CSLAYER4
  6
CONTINUOUS
 62
     7
 10
114.364160
 20
114.613925
 11
115.280412
 21
115.011150
  0
LINE
  8
CSLAYER4
  6
CONTINUOUS
 62
     7
 10
115.280412
 20
115.011150
 11
116.245340
 21
115.281841
  0
LINE
  8
CSLAYER4
  6
CONTINUOUS
 62
     7
 10
116.245340
 20
115.281841
 11
117.239698
 21
115.418817
  0
LINE
  8
CSLAYER4
  6
CONTINUOUS
 62
     7
 10
117.239698
 20
115.418817
 11
118.244165
 21
115.418607
  0
LINE
  8
CSLAYER4
  6
CONTINUOUS
 62
     7
 10
118.244165
 20
115.418607
 11
119.238466
 21
115.281211
  0
LINE
  8
CSLAYER4
  6
CONTINUOUS
 62
     7
 10
119.238466
 20
115.281211
 11
120.202535
 21
115.010396
  0
LINE
  8
CSLAYER4
  6
CONTINUOUS
 62
     7
 10
120.202535
 20
115.010396
 11
121.119855
 21
114.612275
  0
LINE
  8
CSLAYER4
  6
CONTINUOUS
 62
     7
 10
121.119855
 20
114.612275
 11
121.971982
 21
114.097043
  0
LINE
  8
CSLAYER4
  6
CONTINUOUS
 62
     7
 10
121.971982
 20
114.097043
 11
122.747072
 21
113.474351
  0
LINE
  8
CSLAYER4
  6
CONTINUOUS
 62
     7
 10
122.747072
 20
113.474351
 11
123.434881
 21
112.753660
  0
LINE
  8
CSLAYER4
  6
CONTINUOUS
 62
     7
 10
123.434881
 20
112.753660
 11
124.022039
 21
111.950094
  0
LINE
  8
CSLAYER4
  6
CONTINUOUS
 62
     7
 10
124.022039
 20
111.950094
 11
124.500516
 21
111.076032
  0
LINE
  8
CSLAYER4
  6
CONTINUOUS
 62
     7
 10
124.500516
 20
111.076032
 11
124.862951
 21
110.144893
  0
LINE
  8
CSLAYER4
  6
CONTINUOUS
 62
     7
 10
124.862951
 20
110.144893
 11
125.102075
 21
109.175864
  0
LINE
  8
CSLAYER4
  6
CONTINUOUS
 62
     7
 10
125.102075
 20
109.175864
 11
125.214799
 21
108.181707
  0
LINE
  8
CSLAYER4
  6
CONTINUOUS
 62
     7
 10
125.214799
 20
108.181707
 11
125.198549
 21
107.179118
  0
ENDBLK
  8
0
  0
BLOCK
  8
CSLAYER1
  2
BLKF0003
 70
   64
 10
0.0
 20
0.0
 30
0.0
  0
LINE
  8
CSLAYER4
  6
CONTINUOUS
 62
     7
 10
95.194027
 20
87.407975
 11
95.283346
 21
87.382308
  0
LINE
  8
CSLAYER4
  6
CONTINUOUS
 62
     7
 10
95.283346
 20
87.382308
 11
95.373214
 21
87.359333
  0
LINE
  8
CSLAYER4
  6
CONTINUOUS
 62
     7
 10
95.373214
 20
87.359333
 11
95.463604
 21
87.339159
  0
LINE
  8
CSLAYER4
  6
CONTINUOUS
 62
     7
 10
95.463604
 20
87.339159
 11
95.554495
 21
87.321897
  0
LINE
  8
CSLAYER4
  6
CONTINUOUS
 62
     7
 10
95.554495
 20
87.321897
 11
95.645854
 21
87.307670
  0
LINE
  8
CSLAYER4
  6
CONTINUOUS
 62
     7
 10
95.645854
 20
87.307670
 11
95.737644
 21
87.296574
  0
LINE
  8
CSLAYER4
  6
CONTINUOUS
 62
     7
 10
95.737644
 20
87.296574
 11
95.829847
 21
87.288732
  0
LINE
  8
CSLAYER4
  6
CONTINUOUS
 62
     7
 10
95.829847
 20
87.288732
 11
95.922427
 21
87.284249
  0
LINE
  8
CSLAYER4
  6
CONTINUOUS
 62
     7
 10
95.922427
 20
87.284249
 11
96.015365
 21
87.283232
  0
LINE
  8
CSLAYER4
  6
CONTINUOUS
 62
     7
 10
96.015365
 20
87.283232
 11
96.108179
 21
87.285780
  0
LINE
  8
CSLAYER4
  6
CONTINUOUS
 62
     7
 10
96.108179
 20
87.285780
 11
96.200375
 21
87.291905
  0
LINE
  8
CSLAYER4
  6
CONTINUOUS
 62
     7
 10
96.200375
 20
87.291905
 11
96.291960
 21
87.301607
  0
LINE
  8
CSLAYER4
  6
CONTINUOUS
 62
     7
 10
96.291960
 20
87.301607
 11
96.382926
 21
87.314900
  0
LINE
  8
CSLAYER4
  6
CONTINUOUS
 62
     7
 10
96.382926
 20
87.314900
 11
96.473289
 21
87.331778
  0
LINE
  8
CSLAYER4
  6
CONTINUOUS
 62
     7
 10
96.473289
 20
87.331778
 11
96.563034
 21
87.352247
  0
LINE
  8
CSLAYER4
  6
CONTINUOUS
 62
     7
 10
96.563034
 20
87.352247
 11
96.652146
 21
87.376307
  0
LINE
  8
CSLAYER4
  6
CONTINUOUS
 62
     7
 10
96.652146
 20
87.376307
 11
96.740655
 21
87.403965
  0
LINE
  8
CSLAYER4
  6
CONTINUOUS
 62
     7
 10
96.740655
 20
87.403965
 11
96.828477
 21
87.435194
  0
LINE
  8
CSLAYER4
  6
CONTINUOUS
 62
     7
 10
96.828477
 20
87.435194
 11
96.914994
 21
87.469725
  0
LINE
  8
CSLAYER4
  6
CONTINUOUS
 62
     7
 10
96.914994
 20
87.469725
 11
97.000056
 21
87.507415
  0
LINE
  8
CSLAYER4
  6
CONTINUOUS
 62
     7
 10
97.000056
 20
87.507415
 11
97.083689
 21
87.548147
  0
LINE
  8
CSLAYER4
  6
CONTINUOUS
 62
     7
 10
97.083689
 20
87.548147
 11
97.165881
 21
87.591818
  0
LINE
  8
CSLAYER4
  6
CONTINUOUS
 62
     7
 10
97.165881
 20
87.591818
 11
97.246671
 21
87.638338
  0
LINE
  8
CSLAYER4
  6
CONTINUOUS
 62
     7
 10
97.246671
 20
87.638338
 11
97.326061
 21
87.687591
  0
LINE
  8
CSLAYER4
  6
CONTINUOUS
 62
     7
 10
97.326061
 20
87.687591
 11
97.360105
 21
87.709914
  0
LINE
  8
CSLAYER4
  6
CONTINUOUS
 62
     7
 10
97.360105
 20
87.709914
 11
97.393462
 21
87.733122
  0
LINE
  8
CSLAYER4
  6
CONTINUOUS
 62
     7
 10
97.393462
 20
87.733122
 11
97.426133
 21
87.757203
  0
LINE
  8
CSLAYER4
  6
CONTINUOUS
 62
     7
 10
97.426133
 20
87.757203
 11
97.458131
 21
87.782142
  0
LINE
  8
CSLAYER4
  6
CONTINUOUS
 62
     7
 10
97.458131
 20
87.782142
 11
97.489456
 21
87.807926
  0
LINE
  8
CSLAYER4
  6
CONTINUOUS
 62
     7
 10
97.489456
 20
87.807926
 11
97.520135
 21
87.834547
  0
LINE
  8
CSLAYER4
  6
CONTINUOUS
 62
     7
 10
97.520135
 20
87.834547
 11
97.550142
 21
87.861985
  0
LINE
  8
CSLAYER4
  6
CONTINUOUS
 62
     7
 10
97.550142
 20
87.861985
 11
97.579502
 21
87.890241
  0
LINE
  8
CSLAYER4
  6
CONTINUOUS
 62
     7
 10
97.579502
 20
87.890241
 11
97.608190
 21
87.919272
  0
LINE
  8
CSLAYER4
  6
CONTINUOUS
 62
     7
 10
97.608190
 20
87.919272
 11
97.636150
 21
87.948976
  0
LINE
  8
CSLAYER4
  6
CONTINUOUS
 62
     7
 10
97.636150
 20
87.948976
 11
97.663369
 21
87.979333
  0
LINE
  8
CSLAYER4
  6
CONTINUOUS
 62
     7
 10
97.663369
 20
87.979333
 11
97.689874
 21
88.010307
  0
LINE
  8
CSLAYER4
  6
CONTINUOUS
 62
     7
 10
97.689874
 20
88.010307
 11
97.715664
 21
88.041886
  0
LINE
  8
CSLAYER4
  6
CONTINUOUS
 62
     7
 10
97.715664
 20
88.041886
 11
97.740754
 21
88.074042
  0
LINE
  8
CSLAYER4
  6
CONTINUOUS
 62
     7
 10
97.740754
 20
88.074042
 11
97.765158
 21
88.106754
  0
LINE
  8
CSLAYER4
  6
CONTINUOUS
 62
     7
 10
97.765158
 20
88.106754
 11
97.788874
 21
88.139994
  0
LINE
  8
CSLAYER4
  6
CONTINUOUS
 62
     7
 10
97.788874
 20
88.139994
 11
97.811918
 21
88.173743
  0
LINE
  8
CSLAYER4
  6
CONTINUOUS
 62
     7
 10
97.811918
 20
88.173743
 11
97.834317
 21
88.207965
  0
LINE
  8
CSLAYER4
  6
CONTINUOUS
 62
     7
 10
97.834317
 20
88.207965
 11
97.856042
 21
88.242620
  0
LINE
  8
CSLAYER4
  6
CONTINUOUS
 62
     7
 10
97.856042
 20
88.242620
 11
97.877122
 21
88.277694
  0
LINE
  8
CSLAYER4
  6
CONTINUOUS
 62
     7
 10
97.877122
 20
88.277694
 11
97.897570
 21
88.313145
  0
LINE
  8
CSLAYER4
  6
CONTINUOUS
 62
     7
 10
97.897570
 20
88.313145
 11
97.917387
 21
88.348961
  0
LINE
  8
CSLAYER4
  6
CONTINUOUS
 62
     7
 10
97.917387
 20
88.348961
 11
97.936585
 21
88.385113
  0
LINE
  8
CSLAYER4
  6
CONTINUOUS
 62
     7
 10
97.936585
 20
88.385113
 11
97.955193
 21
88.421567
  0
LINE
  8
CSLAYER4
  6
CONTINUOUS
 62
     7
 10
97.955193
 20
88.421567
 11
97.974667
 21
88.461956
  0
LINE
  8
CSLAYER4
  6
CONTINUOUS
 62
     7
 10
97.974667
 20
88.461956
 11
97.993014
 21
88.502859
  0
LINE
  8
CSLAYER4
  6
CONTINUOUS
 62
     7
 10
97.993014
 20
88.502859
 11
98.010249
 21
88.544250
  0
LINE
  8
CSLAYER4
  6
CONTINUOUS
 62
     7
 10
98.010249
 20
88.544250
 11
98.026399
 21
88.586094
  0
LINE
  8
CSLAYER4
  6
CONTINUOUS
 62
     7
 10
98.026399
 20
88.586094
 11
98.041505
 21
88.628364
  0
LINE
  8
CSLAYER4
  6
CONTINUOUS
 62
     7
 10
98.041505
 20
88.628364
 11
98.055581
 21
88.671011
  0
LINE
  8
CSLAYER4
  6
CONTINUOUS
 62
     7
 10
98.055581
 20
88.671011
 11
98.068669
 21
88.714016
  0
LINE
  8
CSLAYER4
  6
CONTINUOUS
 62
     7
 10
98.068669
 20
88.714016
 11
98.080781
 21
88.757336
  0
LINE
  8
CSLAYER4
  6
CONTINUOUS
 62
     7
 10
98.080781
 20
88.757336
 11
98.091946
 21
88.800938
  0
LINE
  8
CSLAYER4
  6
CONTINUOUS
 62
     7
 10
98.091946
 20
88.800938
 11
98.102191
 21
88.844795
  0
LINE
  8
CSLAYER4
  6
CONTINUOUS
 62
     7
 10
98.102191
 20
88.844795
 11
98.111556
 21
88.888871
  0
LINE
  8
CSLAYER4
  6
CONTINUOUS
 62
     7
 10
98.111556
 20
88.888871
 11
98.120057
 21
88.933125
  0
LINE
  8
CSLAYER4
  6
CONTINUOUS
 62
     7
 10
98.120057
 20
88.933125
 11
98.127720
 21
88.977523
  0
LINE
  8
CSLAYER4
  6
CONTINUOUS
 62
     7
 10
98.127720
 20
88.977523
 11
98.134587
 21
89.022045
  0
LINE
  8
CSLAYER4
  6
CONTINUOUS
 62
     7
 10
98.134587
 20
89.022045
 11
98.140670
 21
89.066643
  0
LINE
  8
CSLAYER4
  6
CONTINUOUS
 62
     7
 10
98.140670
 20
89.066643
 11
98.145999
 21
89.111289
  0
LINE
  8
CSLAYER4
  6
CONTINUOUS
 62
     7
 10
98.145999
 20
89.111289
 11
98.150613
 21
89.155948
  0
LINE
  8
CSLAYER4
  6
CONTINUOUS
 62
     7
 10
98.150613
 20
89.155948
 11
98.154526
 21
89.200676
  0
LINE
  8
CSLAYER4
  6
CONTINUOUS
 62
     7
 10
98.154526
 20
89.200676
 11
98.157781
 21
89.245500
  0
LINE
  8
CSLAYER4
  6
CONTINUOUS
 62
     7
 10
98.157781
 20
89.245500
 11
98.160405
 21
89.290393
  0
LINE
  8
CSLAYER4
  6
CONTINUOUS
 62
     7
 10
98.160405
 20
89.290393
 11
98.162395
 21
89.335334
  0
LINE
  8
CSLAYER4
  6
CONTINUOUS
 62
     7
 10
98.162395
 20
89.335334
 11
98.163796
 21
89.380282
  0
LINE
  8
CSLAYER4
  6
CONTINUOUS
 62
     7
 10
98.163796
 20
89.380282
 11
98.164634
 21
89.425216
  0
LINE
  8
CSLAYER4
  6
CONTINUOUS
 62
     7
 10
98.164634
 20
89.425216
 11
98.164895
 21
89.470116
  0
LINE
  8
CSLAYER4
  6
CONTINUOUS
 62
     7
 10
98.164895
 20
89.470116
 11
98.164291
 21
89.526235
  0
LINE
  8
CSLAYER4
  6
CONTINUOUS
 62
     7
 10
98.164291
 20
89.526235
 11
98.162409
 21
89.582355
  0
LINE
  8
CSLAYER4
  6
CONTINUOUS
 62
     7
 10
98.162409
 20
89.582355
 11
98.159196
 21
89.638419
  0
LINE
  8
CSLAYER4
  6
CONTINUOUS
 62
     7
 10
98.159196
 20
89.638419
 11
98.154609
 21
89.694374
  0
LINE
  8
CSLAYER4
  6
CONTINUOUS
 62
     7
 10
98.154609
 20
89.694374
 11
98.148594
 21
89.750178
  0
LINE
  8
CSLAYER4
  6
CONTINUOUS
 62
     7
 10
98.148594
 20
89.750178
 11
98.141068
 21
89.805782
  0
LINE
  8
CSLAYER4
  6
CONTINUOUS
 62
     7
 10
98.141068
 20
89.805782
 11
98.132005
 21
89.861133
  0
LINE
  8
CSLAYER4
  6
CONTINUOUS
 62
     7
 10
98.132005
 20
89.861133
 11
98.121321
 21
89.916188
  0
LINE
  8
CSLAYER4
  6
CONTINUOUS
 62
     7
 10
98.121321
 20
89.916188
 11
98.108974
 21
89.970893
  0
LINE
  8
CSLAYER4
  6
CONTINUOUS
 62
     7
 10
98.108974
 20
89.970893
 11
98.094926
 21
90.025159
  0
LINE
  8
CSLAYER4
  6
CONTINUOUS
 62
     7
 10
98.094926
 20
90.025159
 11
98.079174
 21
90.078758
  0
LINE
  8
CSLAYER4
  6
CONTINUOUS
 62
     7
 10
98.079174
 20
90.078758
 11
98.061678
 21
90.131637
  0
LINE
  8
CSLAYER4
  6
CONTINUOUS
 62
     7
 10
98.061678
 20
90.131637
 11
98.042411
 21
90.183774
  0
LINE
  8
CSLAYER4
  6
CONTINUOUS
 62
     7
 10
98.042411
 20
90.183774
 11
98.021345
 21
90.235142
  0
LINE
  8
CSLAYER4
  6
CONTINUOUS
 62
     7
 10
98.021345
 20
90.235142
 11
97.998438
 21
90.285707
  0
LINE
  8
CSLAYER4
  6
CONTINUOUS
 62
     7
 10
97.998438
 20
90.285707
 11
97.973650
 21
90.335447
  0
LINE
  8
CSLAYER4
  6
CONTINUOUS
 62
     7
 10
97.973650
 20
90.335447
 11
97.946940
 21
90.384336
  0
LINE
  8
CSLAYER4
  6
CONTINUOUS
 62
     7
 10
97.946940
 20
90.384336
 11
97.918293
 21
90.432347
  0
LINE
  8
CSLAYER4
  6
CONTINUOUS
 62
     7
 10
97.918293
 20
90.432347
 11
97.887834
 21
90.479203
  0
LINE
  8
CSLAYER4
  6
CONTINUOUS
 62
     7
 10
97.887834
 20
90.479203
 11
97.855671
 21
90.524707
  0
LINE
  8
CSLAYER4
  6
CONTINUOUS
 62
     7
 10
97.855671
 20
90.524707
 11
97.821861
 21
90.568872
  0
LINE
  8
CSLAYER4
  6
CONTINUOUS
 62
     7
 10
97.821861
 20
90.568872
 11
97.786389
 21
90.611705
  0
LINE
  8
CSLAYER4
  6
CONTINUOUS
 62
     7
 10
97.786389
 20
90.611705
 11
97.749268
 21
90.653213
  0
LINE
  8
CSLAYER4
  6
CONTINUOUS
 62
     7
 10
97.749268
 20
90.653213
 11
97.710528
 21
90.693416
  0
LINE
  8
CSLAYER4
  6
CONTINUOUS
 62
     7
 10
97.710528
 20
90.693416
 11
97.683543
 21
90.720023
  0
LINE
  8
CSLAYER4
  6
CONTINUOUS
 62
     7
 10
97.683543
 20
90.720023
 11
97.656214
 21
90.746205
  0
LINE
  8
CSLAYER4
  6
CONTINUOUS
 62
     7
 10
97.656214
 20
90.746205
 11
97.628556
 21
90.771968
  0
LINE
  8
CSLAYER4
  6
CONTINUOUS
 62
     7
 10
97.628556
 20
90.771968
 11
97.600582
 21
90.797306
  0
LINE
  8
CSLAYER4
  6
CONTINUOUS
 62
     7
 10
97.600582
 20
90.797306
 11
97.572279
 21
90.822224
  0
LINE
  8
CSLAYER4
  6
CONTINUOUS
 62
     7
 10
97.572279
 20
90.822224
 11
97.543645
 21
90.846723
  0
LINE
  8
CSLAYER4
  6
CONTINUOUS
 62
     7
 10
97.543645
 20
90.846723
 11
97.514683
 21
90.870804
  0
LINE
  8
CSLAYER4
  6
CONTINUOUS
 62
     7
 10
97.514683
 20
90.870804
 11
97.485418
 21
90.894473
  0
LINE
  8
CSLAYER4
  6
CONTINUOUS
 62
     7
 10
97.485418
 20
90.894473
 11
97.455823
 21
90.917729
  0
LINE
  8
CSLAYER4
  6
CONTINUOUS
 62
     7
 10
97.455823
 20
90.917729
 11
97.425913
 21
90.940574
  0
LINE
  8
CSLAYER4
  6
CONTINUOUS
 62
     7
 10
97.425913
 20
90.940574
 11
97.395687
 21
90.963006
  0
LINE
  8
CSLAYER4
  6
CONTINUOUS
 62
     7
 10
97.395687
 20
90.963006
 11
97.365159
 21
90.985034
  0
LINE
  8
CSLAYER4
  6
CONTINUOUS
 62
     7
 10
97.365159
 20
90.985034
 11
97.334315
 21
91.006664
  0
LINE
  8
CSLAYER4
  6
CONTINUOUS
 62
     7
 10
97.334315
 20
91.006664
 11
97.303168
 21
91.027881
  0
LINE
  8
CSLAYER4
  6
CONTINUOUS
 62
     7
 10
97.303168
 20
91.027881
 11
97.271707
 21
91.048707
  0
LINE
  8
CSLAYER4
  6
CONTINUOUS
 62
     7
 10
97.271707
 20
91.048707
 11
97.239956
 21
91.069128
  0
LINE
  8
CSLAYER4
  6
CONTINUOUS
 62
     7
 10
97.239956
 20
91.069128
 11
97.207890
 21
91.089150
  0
LINE
  8
CSLAYER4
  6
CONTINUOUS
 62
     7
 10
97.207890
 20
91.089150
 11
97.175535
 21
91.108775
  0
LINE
  8
CSLAYER4
  6
CONTINUOUS
 62
     7
 10
97.175535
 20
91.108775
 11
97.142933
 21
91.127973
  0
LINE
  8
CSLAYER4
  6
CONTINUOUS
 62
     7
 10
97.142933
 20
91.127973
 11
97.110111
 21
91.146753
  0
LINE
  8
CSLAYER4
  6
CONTINUOUS
 62
     7
 10
97.110111
 20
91.146753
 11
97.077056
 21
91.165107
  0
LINE
  8
CSLAYER4
  6
CONTINUOUS
 62
     7
 10
97.077056
 20
91.165107
 11
97.043768
 21
91.183049
  0
LINE
  8
CSLAYER4
  6
CONTINUOUS
 62
     7
 10
97.043768
 20
91.183049
 11
97.010273
 21
91.200572
  0
LINE
  8
CSLAYER4
  6
CONTINUOUS
 62
     7
 10
97.010273
 20
91.200572
 11
96.976545
 21
91.217684
  0
LINE
  8
CSLAYER4
  6
CONTINUOUS
 62
     7
 10
95.788200
 20
91.741958
 11
96.976549
 21
91.217687
  0
LINE
  8
CSLAYER4
  6
CONTINUOUS
 62
     7
 10
95.788202
 20
91.741958
 11
95.762679
 21
91.752340
  0
LINE
  8
CSLAYER4
  6
CONTINUOUS
 62
     7
 10
95.762679
 20
91.752340
 11
95.737233
 21
91.763038
  0
LINE
  8
CSLAYER4
  6
CONTINUOUS
 62
     7
 10
95.737233
 20
91.763038
 11
95.711875
 21
91.774059
  0
LINE
  8
CSLAYER4
  6
CONTINUOUS
 62
     7
 10
95.711875
 20
91.774059
 11
95.686620
 21
91.785416
  0
LINE
  8
CSLAYER4
  6
CONTINUOUS
 62
     7
 10
95.686620
 20
91.785416
 11
95.661495
 21
91.797102
  0
LINE
  8
CSLAYER4
  6
CONTINUOUS
 62
     7
 10
95.661495
 20
91.797102
 11
95.636508
 21
91.809140
  0
LINE
  8
CSLAYER4
  6
CONTINUOUS
 62
     7
 10
95.636508
 20
91.809140
 11
95.611672
 21
91.821527
  0
LINE
  8
CSLAYER4
  6
CONTINUOUS
 62
     7
 10
95.611672
 20
91.821527
 11
95.587015
 21
91.834263
  0
LINE
  8
CSLAYER4
  6
CONTINUOUS
 62
     7
 10
95.587015
 20
91.834263
 11
95.562543
 21
91.847365
  0
LINE
  8
CSLAYER4
  6
CONTINUOUS
 62
     7
 10
95.562543
 20
91.847365
 11
95.538277
 21
91.860830
  0
LINE
  8
CSLAYER4
  6
CONTINUOUS
 62
     7
 10
95.538277
 20
91.860830
 11
95.514231
 21
91.874673
  0
LINE
  8
CSLAYER4
  6
CONTINUOUS
 62
     7
 10
95.514231
 20
91.874673
 11
95.490424
 21
91.888893
  0
LINE
  8
CSLAYER4
  6
CONTINUOUS
 62
     7
 10
95.490424
 20
91.888893
 11
95.466873
 21
91.903491
  0
LINE
  8
CSLAYER4
  6
CONTINUOUS
 62
     7
 10
95.466873
 20
91.903491
 11
95.443588
 21
91.918488
  0
LINE
  8
CSLAYER4
  6
CONTINUOUS
 62
     7
 10
95.443588
 20
91.918488
 11
95.420586
 21
91.933882
  0
LINE
  8
CSLAYER4
  6
CONTINUOUS
 62
     7
 10
95.420586
 20
91.933882
 11
95.397892
 21
91.949682
  0
LINE
  8
CSLAYER4
  6
CONTINUOUS
 62
     7
 10
95.397892
 20
91.949682
 11
95.375514
 21
91.965887
  0
LINE
  8
CSLAYER4
  6
CONTINUOUS
 62
     7
 10
95.375514
 20
91.965887
 11
95.353480
 21
91.982504
  0
LINE
  8
CSLAYER4
  6
CONTINUOUS
 62
     7
 10
95.353480
 20
91.982504
 11
95.331782
 21
91.999546
  0
LINE
  8
CSLAYER4
  6
CONTINUOUS
 62
     7
 10
95.331782
 20
91.999546
 11
95.310448
 21
92.017035
  0
LINE
  8
CSLAYER4
  6
CONTINUOUS
 62
     7
 10
95.310448
 20
92.017035
 11
95.289478
 21
92.034956
  0
LINE
  8
CSLAYER4
  6
CONTINUOUS
 62
     7
 10
95.289478
 20
92.034956
 11
95.268899
 21
92.053338
  0
LINE
  8
CSLAYER4
  6
CONTINUOUS
 62
     7
 10
95.268899
 20
92.053338
 11
95.248725
 21
92.072172
  0
LINE
  8
CSLAYER4
  6
CONTINUOUS
 62
     7
 10
95.248725
 20
92.072172
 11
95.228977
 21
92.091474
  0
LINE
  8
CSLAYER4
  6
CONTINUOUS
 62
     7
 10
95.228977
 20
92.091474
 11
95.213054
 21
92.107809
  0
LINE
  8
CSLAYER4
  6
CONTINUOUS
 62
     7
 10
95.213054
 20
92.107809
 11
95.197597
 21
92.124550
  0
LINE
  8
CSLAYER4
  6
CONTINUOUS
 62
     7
 10
95.197597
 20
92.124550
 11
95.182615
 21
92.141688
  0
LINE
  8
CSLAYER4
  6
CONTINUOUS
 62
     7
 10
95.182615
 20
92.141688
 11
95.168140
 21
92.159239
  0
LINE
  8
CSLAYER4
  6
CONTINUOUS
 62
     7
 10
95.168140
 20
92.159239
 11
95.154188
 21
92.177209
  0
LINE
  8
CSLAYER4
  6
CONTINUOUS
 62
     7
 10
95.154188
 20
92.177209
 11
95.140791
 21
92.195597
  0
LINE
  8
CSLAYER4
  6
CONTINUOUS
 62
     7
 10
95.140791
 20
92.195597
 11
95.127965
 21
92.214418
  0
LINE
  8
CSLAYER4
  6
CONTINUOUS
 62
     7
 10
95.127965
 20
92.214418
 11
95.115736
 21
92.233665
  0
LINE
  8
CSLAYER4
  6
CONTINUOUS
 62
     7
 10
95.115736
 20
92.233665
 11
95.104118
 21
92.253358
  0
LINE
  8
CSLAYER4
  6
CONTINUOUS
 62
     7
 10
95.104118
 20
92.253358
 11
95.093187
 21
92.273421
  0
LINE
  8
CSLAYER4
  6
CONTINUOUS
 62
     7
 10
95.093187
 20
92.273421
 11
95.082990
 21
92.293774
  0
LINE
  8
CSLAYER4
  6
CONTINUOUS
 62
     7
 10
95.082990
 20
92.293774
 11
95.073528
 21
92.314414
  0
LINE
  8
CSLAYER4
  6
CONTINUOUS
 62
     7
 10
95.073528
 20
92.314414
 11
95.064821
 21
92.335343
  0
LINE
  8
CSLAYER4
  6
CONTINUOUS
 62
     7
 10
95.064821
 20
92.335343
 11
95.056856
 21
92.356560
  0
LINE
  8
CSLAYER4
  6
CONTINUOUS
 62
     7
 10
95.056856
 20
92.356560
 11
95.049646
 21
92.378073
  0
LINE
  8
CSLAYER4
  6
CONTINUOUS
 62
     7
 10
95.049646
 20
92.378073
 11
95.043192
 21
92.399874
  0
LINE
  8
CSLAYER4
  6
CONTINUOUS
 62
     7
 10
95.043192
 20
92.399874
 11
95.037499
 21
92.421963
  0
LINE
  8
CSLAYER4
  6
CONTINUOUS
 62
     7
 10
95.037499
 20
92.421963
 11
95.032576
 21
92.444348
  0
LINE
  8
CSLAYER4
  6
CONTINUOUS
 62
     7
 10
95.032576
 20
92.444348
 11
95.028442
 21
92.466877
  0
LINE
  8
CSLAYER4
  6
CONTINUOUS
 62
     7
 10
95.028442
 20
92.466877
 11
95.025099
 21
92.489502
  0
LINE
  8
CSLAYER4
  6
CONTINUOUS
 62
     7
 10
95.025099
 20
92.489502
 11
95.022523
 21
92.512209
  0
LINE
  8
CSLAYER4
  6
CONTINUOUS
 62
     7
 10
95.022523
 20
92.512209
 11
95.020704
 21
92.534999
  0
LINE
  8
CSLAYER4
  6
CONTINUOUS
 62
     7
 10
95.020704
 20
92.534999
 11
95.019626
 21
92.557865
  0
LINE
  8
CSLAYER4
  6
CONTINUOUS
 62
     7
 10
95.019626
 20
92.557865
 11
95.019269
 21
92.580792
  0
LINE
  8
CSLAYER4
  6
CONTINUOUS
 62
     7
 10
95.019269
 20
92.580792
 11
95.019688
 21
92.619093
  0
LINE
  8
CSLAYER4
  6
CONTINUOUS
 62
     7
 10
95.019688
 20
92.619093
 11
95.020979
 21
92.657490
  0
LINE
  8
CSLAYER4
  6
CONTINUOUS
 62
     7
 10
95.020979
 20
92.657490
 11
95.023203
 21
92.695914
  0
LINE
  8
CSLAYER4
  6
CONTINUOUS
 62
     7
 10
95.023203
 20
92.695914
 11
95.026417
 21
92.734305
  0
LINE
  8
CSLAYER4
  6
CONTINUOUS
 62
     7
 10
95.026417
 20
92.734305
 11
95.030681
 21
92.772599
  0
LINE
  8
CSLAYER4
  6
CONTINUOUS
 62
     7
 10
95.030681
 20
92.772599
 11
95.036044
 21
92.810721
  0
LINE
  8
CSLAYER4
  6
CONTINUOUS
 62
     7
 10
95.036044
 20
92.810721
 11
95.042574
 21
92.848625
  0
LINE
  8
CSLAYER4
  6
CONTINUOUS
 62
     7
 10
95.042574
 20
92.848625
 11
95.050326
 21
92.886239
  0
LINE
  8
CSLAYER4
  6
CONTINUOUS
 62
     7
 10
95.050326
 20
92.886239
 11
95.059356
 21
92.923490
  0
LINE
  8
CSLAYER4
  6
CONTINUOUS
 62
     7
 10
95.059356
 20
92.923490
 11
95.069717
 21
92.960321
  0
LINE
  8
CSLAYER4
  6
CONTINUOUS
 62
     7
 10
95.069717
 20
92.960321
 11
95.081466
 21
92.996624
  0
LINE
  8
CSLAYER4
  6
CONTINUOUS
 62
     7
 10
95.081466
 20
92.996624
 11
95.094601
 21
93.032247
  0
LINE
  8
CSLAYER4
  6
CONTINUOUS
 62
     7
 10
95.094601
 20
93.032247
 11
95.109178
 21
93.067143
  0
LINE
  8
CSLAYER4
  6
CONTINUOUS
 62
     7
 10
95.109178
 20
93.067143
 11
95.125239
 21
93.101269
  0
LINE
  8
CSLAYER4
  6
CONTINUOUS
 62
     7
 10
95.125239
 20
93.101269
 11
95.142824
 21
93.134585
  0
LINE
  8
CSLAYER4
  6
CONTINUOUS
 62
     7
 10
95.142824
 20
93.134585
 11
95.161981
 21
93.167029
  0
LINE
  8
CSLAYER4
  6
CONTINUOUS
 62
     7
 10
95.161981
 20
93.167029
 11
95.182746
 21
93.198580
  0
LINE
  8
CSLAYER4
  6
CONTINUOUS
 62
     7
 10
95.182746
 20
93.198580
 11
95.205171
 21
93.229177
  0
LINE
  8
CSLAYER4
  6
CONTINUOUS
 62
     7
 10
95.205171
 20
93.229177
 11
95.229163
 21
93.258614
  0
LINE
  8
CSLAYER4
  6
CONTINUOUS
 62
     7
 10
95.229163
 20
93.258614
 11
95.254486
 21
93.286629
  0
LINE
  8
CSLAYER4
  6
CONTINUOUS
 62
     7
 10
95.254486
 20
93.286629
 11
95.281135
 21
93.313223
  0
LINE
  8
CSLAYER4
  6
CONTINUOUS
 62
     7
 10
95.281135
 20
93.313223
 11
95.309082
 21
93.338415
  0
LINE
  8
CSLAYER4
  6
CONTINUOUS
 62
     7
 10
95.309082
 20
93.338415
 11
95.338305
 21
93.362228
  0
LINE
  8
CSLAYER4
  6
CONTINUOUS
 62
     7
 10
95.338305
 20
93.362228
 11
95.368785
 21
93.384675
  0
LINE
  8
CSLAYER4
  6
CONTINUOUS
 62
     7
 10
95.368785
 20
93.384675
 11
95.396856
 21
93.403633
  0
LINE
  8
CSLAYER4
  6
CONTINUOUS
 62
     7
 10
95.396856
 20
93.403633
 11
95.425461
 21
93.421548
  0
LINE
  8
CSLAYER4
  6
CONTINUOUS
 62
     7
 10
95.425461
 20
93.421548
 11
95.454602
 21
93.438371
  0
LINE
  8
CSLAYER4
  6
CONTINUOUS
 62
     7
 10
95.454602
 20
93.438371
 11
95.484279
 21
93.454067
  0
LINE
  8
CSLAYER4
  6
CONTINUOUS
 62
     7
 10
95.484279
 20
93.454067
 11
95.514512
 21
93.468597
  0
LINE
  8
CSLAYER4
  6
CONTINUOUS
 62
     7
 10
95.514512
 20
93.468597
 11
95.545294
 21
93.481911
  0
LINE
  8
CSLAYER4
  6
CONTINUOUS
 62
     7
 10
95.545294
 20
93.481911
 11
95.576633
 21
93.493975
  0
LINE
  8
CSLAYER4
  6
CONTINUOUS
 62
     7
 10
95.576633
 20
93.493975
 11
95.608528
 21
93.504742
  0
LINE
  8
CSLAYER4
  6
CONTINUOUS
 62
     7
 10
95.608528
 20
93.504742
 11
95.640985
 21
93.514169
  0
LINE
  8
CSLAYER4
  6
CONTINUOUS
 62
     7
 10
95.640985
 20
93.514169
 11
95.673732
 21
93.522155
  0
LINE
  8
CSLAYER4
  6
CONTINUOUS
 62
     7
 10
95.673732
 20
93.522155
 11
95.706608
 21
93.528671
  0
LINE
  8
CSLAYER4
  6
CONTINUOUS
 62
     7
 10
95.706608
 20
93.528671
 11
95.739615
 21
93.533732
  0
LINE
  8
CSLAYER4
  6
CONTINUOUS
 62
     7
 10
95.739615
 20
93.533732
 11
95.772745
 21
93.537357
  0
LINE
  8
CSLAYER4
  6
CONTINUOUS
 62
     7
 10
95.772745
 20
93.537357
 11
95.806007
 21
93.539562
  0
LINE
  8
CSLAYER4
  6
CONTINUOUS
 62
     7
 10
95.806007
 20
93.539562
 11
95.839384
 21
93.540365
  0
LINE
  8
CSLAYER4
  6
CONTINUOUS
 62
     7
 10
95.839384
 20
93.540365
 11
95.872886
 21
93.539781
  0
LINE
  8
CSLAYER4
  6
CONTINUOUS
 62
     7
 10
95.872886
 20
93.539781
 11
95.906497
 21
93.537824
  0
LINE
  8
CSLAYER4
  6
CONTINUOUS
 62
     7
 10
95.906497
 20
93.537824
 11
95.940163
 21
93.534522
  0
LINE
  8
CSLAYER4
  6
CONTINUOUS
 62
     7
 10
95.940163
 20
93.534522
 11
95.973665
 21
93.529935
  0
LINE
  8
CSLAYER4
  6
CONTINUOUS
 62
     7
 10
95.973665
 20
93.529935
 11
96.006954
 21
93.524105
  0
LINE
  8
CSLAYER4
  6
CONTINUOUS
 62
     7
 10
96.006954
 20
93.524105
 11
96.040015
 21
93.517101
  0
LINE
  8
CSLAYER4
  6
CONTINUOUS
 62
     7
 10
96.040015
 20
93.517101
 11
96.072837
 21
93.508965
  0
LINE
  8
CSLAYER4
  6
CONTINUOUS
 62
     7
 10
96.072837
 20
93.508965
 11
96.105412
 21
93.499757
  0
LINE
  8
CSLAYER4
  6
CONTINUOUS
 62
     7
 10
96.105412
 20
93.499757
 11
96.137712
 21
93.489533
  0
LINE
  8
CSLAYER4
  6
CONTINUOUS
 62
     7
 10
96.137712
 20
93.489533
 11
96.195960
 21
93.469345
  0
LINE
  8
CSLAYER4
  6
CONTINUOUS
 62
     7
 10
96.195960
 20
93.469345
 11
96.252786
 21
93.445937
  0
LINE
  8
CSLAYER4
  6
CONTINUOUS
 62
     7
 10
96.252786
 20
93.445937
 11
96.308109
 21
93.419193
  0
LINE
  8
CSLAYER4
  6
CONTINUOUS
 62
     7
 10
96.308109
 20
93.419193
 11
96.361860
 21
93.389015
  0
LINE
  8
CSLAYER4
  6
CONTINUOUS
 62
     7
 10
96.361860
 20
93.389015
 11
96.413729
 21
93.355437
  0
LINE
  8
CSLAYER4
  6
CONTINUOUS
 62
     7
 10
96.413729
 20
93.355437
 11
96.463182
 21
93.318791
  0
LINE
  8
CSLAYER4
  6
CONTINUOUS
 62
     7
 10
96.463182
 20
93.318791
 11
96.510175
 21
93.279137
  0
LINE
  8
CSLAYER4
  6
CONTINUOUS
 62
     7
 10
96.510175
 20
93.279137
 11
96.554766
 21
93.236517
  0
LINE
  8
CSLAYER4
  6
CONTINUOUS
 62
     7
 10
96.554766
 20
93.236517
 11
96.596885
 21
93.191041
  0
LINE
  8
CSLAYER4
  6
CONTINUOUS
 62
     7
 10
96.596885
 20
93.191041
 11
96.636189
 21
93.143285
  0
LINE
  8
CSLAYER4
  6
CONTINUOUS
 62
     7
 10
96.636189
 20
93.143285
 11
96.672691
 21
93.093496
  0
LINE
  8
CSLAYER4
  6
CONTINUOUS
 62
     7
 10
96.672691
 20
93.093496
 11
96.706515
 21
93.041847
  0
LINE
  8
CSLAYER4
  6
CONTINUOUS
 62
     7
 10
96.706515
 20
93.041847
 11
96.737743
 21
92.988528
  0
LINE
  8
CSLAYER4
  6
CONTINUOUS
 62
     7
 10
96.737743
 20
92.988528
 11
96.766500
 21
92.933707
  0
LINE
  8
CSLAYER4
  6
CONTINUOUS
 62
     7
 10
96.766500
 20
92.933707
 11
96.792881
 21
92.877567
  0
LINE
  8
CSLAYER4
  6
CONTINUOUS
 62
     7
 10
96.792881
 20
92.877567
 11
96.816996
 21
92.820280
  0
LINE
  8
CSLAYER4
  6
CONTINUOUS
 62
     7
 10
96.816996
 20
92.820280
 11
96.838955
 21
92.762018
  0
LINE
  8
CSLAYER4
  6
CONTINUOUS
 62
     7
 10
96.838955
 20
92.762018
 11
96.858909
 21
92.702808
  0
LINE
  8
CSLAYER4
  6
CONTINUOUS
 62
     7
 10
96.858909
 20
92.702808
 11
96.876940
 21
92.642789
  0
LINE
  8
CSLAYER4
  6
CONTINUOUS
 62
     7
 10
96.876940
 20
92.642789
 11
96.893145
 21
92.582110
  0
LINE
  8
CSLAYER4
  6
CONTINUOUS
 62
     7
 10
96.893145
 20
92.582110
 11
96.907633
 21
92.520950
  0
LINE
  8
CSLAYER4
  6
CONTINUOUS
 62
     7
 10
96.907633
 20
92.520950
 11
96.920473
 21
92.459454
  0
LINE
  8
CSLAYER4
  6
CONTINUOUS
 62
     7
 10
96.920473
 20
92.459454
 11
96.931762
 21
92.397794
  0
LINE
  8
CSLAYER4
  6
CONTINUOUS
 62
     7
 10
96.931762
 20
92.397794
 11
96.941595
 21
92.336133
  0
LINE
  8
CSLAYER4
  6
CONTINUOUS
 62
     7
 10
97.990141
 20
92.336133
 11
96.941598
 21
92.336133
  0
LINE
  8
CSLAYER4
  6
CONTINUOUS
 62
     7
 10
97.990144
 20
92.336133
 11
97.986903
 21
92.409371
  0
LINE
  8
CSLAYER4
  6
CONTINUOUS
 62
     7
 10
97.986903
 20
92.409371
 11
97.982193
 21
92.482587
  0
LINE
  8
CSLAYER4
  6
CONTINUOUS
 62
     7
 10
97.982193
 20
92.482587
 11
97.975944
 21
92.555722
  0
LINE
  8
CSLAYER4
  6
CONTINUOUS
 62
     7
 10
97.975944
 20
92.555722
 11
97.968102
 21
92.628713
  0
LINE
  8
CSLAYER4
  6
CONTINUOUS
 62
     7
 10
97.968102
 20
92.628713
 11
97.958599
 21
92.701497
  0
LINE
  8
CSLAYER4
  6
CONTINUOUS
 62
     7
 10
97.958599
 20
92.701497
 11
97.947366
 21
92.774007
  0
LINE
  8
CSLAYER4
  6
CONTINUOUS
 62
     7
 10
97.947366
 20
92.774007
 11
97.934347
 21
92.846187
  0
LINE
  8
CSLAYER4
  6
CONTINUOUS
 62
     7
 10
97.934347
 20
92.846187
 11
97.919488
 21
92.917976
  0
LINE
  8
CSLAYER4
  6
CONTINUOUS
 62
     7
 10
97.919488
 20
92.917976
 11
97.902693
 21
92.989298
  0
LINE
  8
CSLAYER4
  6
CONTINUOUS
 62
     7
 10
97.902693
 20
92.989298
 11
97.883947
 21
93.060077
  0
LINE
  8
CSLAYER4
  6
CONTINUOUS
 62
     7
 10
97.883947
 20
93.060077
 11
97.863183
 21
93.130128
  0
LINE
  8
CSLAYER4
  6
CONTINUOUS
 62
     7
 10
97.863183
 20
93.130128
 11
97.840400
 21
93.199377
  0
LINE
  8
CSLAYER4
  6
CONTINUOUS
 62
     7
 10
97.840400
 20
93.199377
 11
97.815516
 21
93.267787
  0
LINE
  8
CSLAYER4
  6
CONTINUOUS
 62
     7
 10
97.815516
 20
93.267787
 11
97.788490
 21
93.335298
  0
LINE
  8
CSLAYER4
  6
CONTINUOUS
 62
     7
 10
97.788490
 20
93.335298
 11
97.759266
 21
93.401868
  0
LINE
  8
CSLAYER4
  6
CONTINUOUS
 62
     7
 10
97.759266
 20
93.401868
 11
97.727804
 21
93.467450
  0
LINE
  8
CSLAYER4
  6
CONTINUOUS
 62
     7
 10
97.727804
 20
93.467450
 11
97.694049
 21
93.532002
  0
LINE
  8
CSLAYER4
  6
CONTINUOUS
 62
     7
 10
97.694049
 20
93.532002
 11
97.657945
 21
93.595475
  0
LINE
  8
CSLAYER4
  6
CONTINUOUS
 62
     7
 10
97.657945
 20
93.595475
 11
97.619589
 21
93.657603
  0
LINE
  8
CSLAYER4
  6
CONTINUOUS
 62
     7
 10
97.619589
 20
93.657603
 11
97.579118
 21
93.718117
  0
LINE
  8
CSLAYER4
  6
CONTINUOUS
 62
     7
 10
97.579118
 20
93.718117
 11
97.536518
 21
93.777011
  0
LINE
  8
CSLAYER4
  6
CONTINUOUS
 62
     7
 10
97.536518
 20
93.777011
 11
97.491790
 21
93.834270
  0
LINE
  8
CSLAYER4
  6
CONTINUOUS
 62
     7
 10
97.491790
 20
93.834270
 11
97.444947
 21
93.889902
  0
LINE
  8
CSLAYER4
  6
CONTINUOUS
 62
     7
 10
97.444947
 20
93.889902
 11
97.395962
 21
93.943899
  0
LINE
  8
CSLAYER4
  6
CONTINUOUS
 62
     7
 10
97.395962
 20
93.943899
 11
97.346427
 21
93.997355
  0
LINE
  8
CSLAYER4
  6
CONTINUOUS
 62
     7
 10
97.346427
 20
93.997355
 11
97.295423
 21
94.049169
  0
LINE
  8
CSLAYER4
  6
CONTINUOUS
 62
     7
 10
97.295423
 20
94.049169
 11
97.242936
 21
94.099267
  0
LINE
  8
CSLAYER4
  6
CONTINUOUS
 62
     7
 10
97.242936
 20
94.099267
 11
97.188925
 21
94.147552
  0
LINE
  8
CSLAYER4
  6
CONTINUOUS
 62
     7
 10
97.188925
 20
94.147552
 11
97.133389
 21
94.193942
  0
LINE
  8
CSLAYER4
  6
CONTINUOUS
 62
     7
 10
97.133389
 20
94.193942
 11
97.076287
 21
94.238354
  0
LINE
  8
CSLAYER4
  6
CONTINUOUS
 62
     7
 10
97.076287
 20
94.238354
 11
97.017579
 21
94.280699
  0
LINE
  8
CSLAYER4
  6
CONTINUOUS
 62
     7
 10
97.017579
 20
94.280699
 11
96.957278
 21
94.320888
  0
LINE
  8
CSLAYER4
  6
CONTINUOUS
 62
     7
 10
96.957278
 20
94.320888
 11
96.895315
 21
94.358840
  0
LINE
  8
CSLAYER4
  6
CONTINUOUS
 62
     7
 10
96.895315
 20
94.358840
 11
96.832033
 21
94.394277
  0
LINE
  8
CSLAYER4
  6
CONTINUOUS
 62
     7
 10
96.832033
 20
94.394277
 11
96.767764
 21
94.427003
  0
LINE
  8
CSLAYER4
  6
CONTINUOUS
 62
     7
 10
96.767764
 20
94.427003
 11
96.702505
 21
94.457023
  0
LINE
  8
CSLAYER4
  6
CONTINUOUS
 62
     7
 10
96.702505
 20
94.457023
 11
96.636244
 21
94.484331
  0
LINE
  8
CSLAYER4
  6
CONTINUOUS
 62
     7
 10
96.636244
 20
94.484331
 11
96.568993
 21
94.508940
  0
LINE
  8
CSLAYER4
  6
CONTINUOUS
 62
     7
 10
96.568993
 20
94.508940
 11
96.500755
 21
94.530851
  0
LINE
  8
CSLAYER4
  6
CONTINUOUS
 62
     7
 10
96.500755
 20
94.530851
 11
96.431541
 21
94.550063
  0
LINE
  8
CSLAYER4
  6
CONTINUOUS
 62
     7
 10
96.431541
 20
94.550063
 11
96.361324
 21
94.566591
  0
LINE
  8
CSLAYER4
  6
CONTINUOUS
 62
     7
 10
96.361324
 20
94.566591
 11
96.290195
 21
94.580420
  0
LINE
  8
CSLAYER4
  6
CONTINUOUS
 62
     7
 10
96.290195
 20
94.580420
 11
96.218667
 21
94.591496
  0
LINE
  8
CSLAYER4
  6
CONTINUOUS
 62
     7
 10
96.218667
 20
94.591496
 11
96.146899
 21
94.599873
  0
LINE
  8
CSLAYER4
  6
CONTINUOUS
 62
     7
 10
96.146899
 20
94.599873
 11
96.074918
 21
94.605627
  0
LINE
  8
CSLAYER4
  6
CONTINUOUS
 62
     7
 10
96.074918
 20
94.605627
 11
96.002765
 21
94.608847
  0
LINE
  8
CSLAYER4
  6
CONTINUOUS
 62
     7
 10
96.002765
 20
94.608847
 11
95.930482
 21
94.609602
  0
LINE
  8
CSLAYER4
  6
CONTINUOUS
 62
     7
 10
95.930482
 20
94.609602
 11
95.858103
 21
94.607975
  0
LINE
  8
CSLAYER4
  6
CONTINUOUS
 62
     7
 10
95.858103
 20
94.607975
 11
95.781988
 21
94.603931
  0
LINE
  8
CSLAYER4
  6
CONTINUOUS
 62
     7
 10
95.781988
 20
94.603931
 11
95.706313
 21
94.597401
  0
LINE
  8
CSLAYER4
  6
CONTINUOUS
 62
     7
 10
95.706313
 20
94.597401
 11
95.631091
 21
94.588330
  0
LINE
  8
CSLAYER4
  6
CONTINUOUS
 62
     7
 10
95.631091
 20
94.588330
 11
95.556363
 21
94.576657
  0
LINE
  8
CSLAYER4
  6
CONTINUOUS
 62
     7
 10
95.556363
 20
94.576657
 11
95.482150
 21
94.562327
  0
LINE
  8
CSLAYER4
  6
CONTINUOUS
 62
     7
 10
95.482150
 20
94.562327
 11
95.408487
 21
94.545278
  0
LINE
  8
CSLAYER4
  6
CONTINUOUS
 62
     7
 10
95.408487
 20
94.545278
 11
95.335401
 21
94.525447
  0
LINE
  8
CSLAYER4
  6
CONTINUOUS
 62
     7
 10
95.335401
 20
94.525447
 11
95.262918
 21
94.502788
  0
LINE
  8
CSLAYER4
  6
CONTINUOUS
 62
     7
 10
95.262918
 20
94.502788
 11
95.191088
 21
94.477238
  0
LINE
  8
CSLAYER4
  6
CONTINUOUS
 62
     7
 10
95.191088
 20
94.477238
 11
95.120453
 21
94.448962
  0
LINE
  8
CSLAYER4
  6
CONTINUOUS
 62
     7
 10
95.120453
 20
94.448962
 11
95.051266
 21
94.418076
  0
LINE
  8
CSLAYER4
  6
CONTINUOUS
 62
     7
 10
95.051266
 20
94.418076
 11
94.983502
 21
94.384616
  0
LINE
  8
CSLAYER4
  6
CONTINUOUS
 62
     7
 10
94.983502
 20
94.384616
 11
94.917144
 21
94.348608
  0
LINE
  8
CSLAYER4
  6
CONTINUOUS
 62
     7
 10
94.917144
 20
94.348608
 11
94.852194
 21
94.310088
  0
LINE
  8
CSLAYER4
  6
CONTINUOUS
 62
     7
 10
94.852194
 20
94.310088
 11
94.788631
 21
94.269095
  0
LINE
  8
CSLAYER4
  6
CONTINUOUS
 62
     7
 10
94.788631
 20
94.269095
 11
94.726442
 21
94.225644
  0
LINE
  8
CSLAYER4
  6
CONTINUOUS
 62
     7
 10
94.726442
 20
94.225644
 11
94.665612
 21
94.179783
  0
LINE
  8
CSLAYER4
  6
CONTINUOUS
 62
     7
 10
94.665612
 20
94.179783
 11
94.606204
 21
94.131594
  0
LINE
  8
CSLAYER4
  6
CONTINUOUS
 62
     7
 10
94.606204
 20
94.131594
 11
94.548511
 21
94.081400
  0
LINE
  8
CSLAYER4
  6
CONTINUOUS
 62
     7
 10
94.548511
 20
94.081400
 11
94.492536
 21
94.029325
  0
LINE
  8
CSLAYER4
  6
CONTINUOUS
 62
     7
 10
94.492536
 20
94.029325
 11
94.438264
 21
93.975465
  0
LINE
  8
CSLAYER4
  6
CONTINUOUS
 62
     7
 10
94.438264
 20
93.975465
 11
94.385646
 21
93.919915
  0
LINE
  8
CSLAYER4
  6
CONTINUOUS
 62
     7
 10
94.385646
 20
93.919915
 11
94.334670
 21
93.862759
  0
LINE
  8
CSLAYER4
  6
CONTINUOUS
 62
     7
 10
94.334670
 20
93.862759
 11
94.285286
 21
93.804092
  0
LINE
  8
CSLAYER4
  6
CONTINUOUS
 62
     7
 10
94.285286
 20
93.804092
 11
94.250542
 21
93.756390
  0
LINE
  8
CSLAYER4
  6
CONTINUOUS
 62
     7
 10
94.250542
 20
93.756390
 11
94.217233
 21
93.707831
  0
LINE
  8
CSLAYER4
  6
CONTINUOUS
 62
     7
 10
94.217233
 20
93.707831
 11
94.185366
 21
93.658427
  0
LINE
  8
CSLAYER4
  6
CONTINUOUS
 62
     7
 10
94.185366
 20
93.658427
 11
94.154961
 21
93.608164
  0
LINE
  8
CSLAYER4
  6
CONTINUOUS
 62
     7
 10
94.154961
 20
93.608164
 11
94.126026
 21
93.557043
  0
LINE
  8
CSLAYER4
  6
CONTINUOUS
 62
     7
 10
94.126026
 20
93.557043
 11
94.098560
 21
93.505058
  0
LINE
  8
CSLAYER4
  6
CONTINUOUS
 62
     7
 10
94.098560
 20
93.505058
 11
94.072577
 21
93.452207
  0
LINE
  8
CSLAYER4
  6
CONTINUOUS
 62
     7
 10
94.072577
 20
93.452207
 11
94.048084
 21
93.398477
  0
LINE
  8
CSLAYER4
  6
CONTINUOUS
 62
     7
 10
94.048084
 20
93.398477
 11
94.025103
 21
93.343902
  0
LINE
  8
CSLAYER4
  6
CONTINUOUS
 62
     7
 10
94.025103
 20
93.343902
 11
94.003748
 21
93.288744
  0
LINE
  8
CSLAYER4
  6
CONTINUOUS
 62
     7
 10
94.003748
 20
93.288744
 11
93.984021
 21
93.233098
  0
LINE
  8
CSLAYER4
  6
CONTINUOUS
 62
     7
 10
93.984021
 20
93.233098
 11
93.965907
 21
93.176978
  0
LINE
  8
CSLAYER4
  6
CONTINUOUS
 62
     7
 10
93.965907
 20
93.176978
 11
93.949372
 21
93.120392
  0
LINE
  8
CSLAYER4
  6
CONTINUOUS
 62
     7
 10
93.949372
 20
93.120392
 11
93.934410
 21
93.063345
  0
LINE
  8
CSLAYER4
  6
CONTINUOUS
 62
     7
 10
93.934410
 20
93.063345
 11
93.920986
 21
93.005867
  0
LINE
  8
CSLAYER4
  6
CONTINUOUS
 62
     7
 10
93.920986
 20
93.005867
 11
93.909080
 21
92.947955
  0
LINE
  8
CSLAYER4
  6
CONTINUOUS
 62
     7
 10
93.909080
 20
92.947955
 11
93.898677
 21
92.889631
  0
LINE
  8
CSLAYER4
  6
CONTINUOUS
 62
     7
 10
93.898677
 20
92.889631
 11
93.889751
 21
92.830943
  0
LINE
  8
CSLAYER4
  6
CONTINUOUS
 62
     7
 10
93.889751
 20
92.830943
 11
93.882294
 21
92.772071
  0
LINE
  8
CSLAYER4
  6
CONTINUOUS
 62
     7
 10
93.882294
 20
92.772071
 11
93.876279
 21
92.713046
  0
LINE
  8
CSLAYER4
  6
CONTINUOUS
 62
     7
 10
93.876279
 20
92.713046
 11
93.871671
 21
92.653899
  0
LINE
  8
CSLAYER4
  6
CONTINUOUS
 62
     7
 10
93.871671
 20
92.653899
 11
93.868423
 21
92.594648
  0
LINE
  8
CSLAYER4
  6
CONTINUOUS
 62
     7
 10
93.868423
 20
92.594648
 11
93.866501
 21
92.535322
  0
LINE
  8
CSLAYER4
  6
CONTINUOUS
 62
     7
 10
93.866501
 20
92.535322
 11
93.865869
 21
92.475941
  0
LINE
  8
CSLAYER4
  6
CONTINUOUS
 62
     7
 10
93.865869
 20
92.475941
 11
93.866460
 21
92.418366
  0
LINE
  8
CSLAYER4
  6
CONTINUOUS
 62
     7
 10
93.866460
 20
92.418366
 11
93.868279
 21
92.360763
  0
LINE
  8
CSLAYER4
  6
CONTINUOUS
 62
     7
 10
93.868279
 20
92.360763
 11
93.871376
 21
92.303174
  0
LINE
  8
CSLAYER4
  6
CONTINUOUS
 62
     7
 10
93.871376
 20
92.303174
 11
93.875819
 21
92.245674
  0
LINE
  8
CSLAYER4
  6
CONTINUOUS
 62
     7
 10
93.875819
 20
92.245674
 11
93.881669
 21
92.188305
  0
LINE
  8
CSLAYER4
  6
CONTINUOUS
 62
     7
 10
93.881669
 20
92.188305
 11
93.888982
 21
92.131135
  0
LINE
  8
CSLAYER4
  6
CONTINUOUS
 62
     7
 10
93.888982
 20
92.131135
 11
93.897812
 21
92.074212
  0
LINE
  8
CSLAYER4
  6
CONTINUOUS
 62
     7
 10
93.897812
 20
92.074212
 11
93.908235
 21
92.017598
  0
LINE
  8
CSLAYER4
  6
CONTINUOUS
 62
     7
 10
93.908235
 20
92.017598
 11
93.920299
 21
91.961348
  0
LINE
  8
CSLAYER4
  6
CONTINUOUS
 62
     7
 10
93.920299
 20
91.961348
 11
93.934060
 21
91.905537
  0
LINE
  8
CSLAYER4
  6
CONTINUOUS
 62
     7
 10
93.934060
 20
91.905537
 11
93.949544
 21
91.850366
  0
LINE
  8
CSLAYER4
  6
CONTINUOUS
 62
     7
 10
93.949544
 20
91.850366
 11
93.966779
 21
91.795887
  0
LINE
  8
CSLAYER4
  6
CONTINUOUS
 62
     7
 10
93.966779
 20
91.795887
 11
93.985813
 21
91.742150
  0
LINE
  8
CSLAYER4
  6
CONTINUOUS
 62
     7
 10
93.985813
 20
91.742150
 11
94.006693
 21
91.689189
  0
LINE
  8
CSLAYER4
  6
CONTINUOUS
 62
     7
 10
94.006693
 20
91.689189
 11
94.029469
 21
91.637045
  0
LINE
  8
CSLAYER4
  6
CONTINUOUS
 62
     7
 10
94.029469
 20
91.637045
 11
94.054175
 21
91.585760
  0
LINE
  8
CSLAYER4
  6
CONTINUOUS
 62
     7
 10
94.054175
 20
91.585760
 11
94.080872
 21
91.535367
  0
LINE
  8
CSLAYER4
  6
CONTINUOUS
 62
     7
 10
94.080872
 20
91.535367
 11
94.109587
 21
91.485901
  0
LINE
  8
CSLAYER4
  6
CONTINUOUS
 62
     7
 10
94.109587
 20
91.485901
 11
94.140253
 21
91.437609
  0
LINE
  8
CSLAYER4
  6
CONTINUOUS
 62
     7
 10
94.140253
 20
91.437609
 11
94.172704
 21
91.390760
  0
LINE
  8
CSLAYER4
  6
CONTINUOUS
 62
     7
 10
94.172704
 20
91.390760
 11
94.206933
 21
91.345344
  0
LINE
  8
CSLAYER4
  6
CONTINUOUS
 62
     7
 10
94.206933
 20
91.345344
 11
94.242934
 21
91.301365
  0
LINE
  8
CSLAYER4
  6
CONTINUOUS
 62
     7
 10
94.242934
 20
91.301365
 11
94.280706
 21
91.258814
  0
LINE
  8
CSLAYER4
  6
CONTINUOUS
 62
     7
 10
94.280706
 20
91.258814
 11
94.320237
 21
91.217684
  0
LINE
  8
CSLAYER4
  6
CONTINUOUS
 62
     7
 10
94.320237
 20
91.217684
 11
94.343287
 21
91.194873
  0
LINE
  8
CSLAYER4
  6
CONTINUOUS
 62
     7
 10
94.343287
 20
91.194873
 11
94.366626
 21
91.172248
  0
LINE
  8
CSLAYER4
  6
CONTINUOUS
 62
     7
 10
94.366626
 20
91.172248
 11
94.390247
 21
91.149843
  0
LINE
  8
CSLAYER4
  6
CONTINUOUS
 62
     7
 10
94.390247
 20
91.149843
 11
94.414156
 21
91.127664
  0
LINE
  8
CSLAYER4
  6
CONTINUOUS
 62
     7
 10
94.414156
 20
91.127664
 11
94.438346
 21
91.105740
  0
LINE
  8
CSLAYER4
  6
CONTINUOUS
 62
     7
 10
94.438346
 20
91.105740
 11
94.462818
 21
91.084083
  0
LINE
  8
CSLAYER4
  6
CONTINUOUS
 62
     7
 10
94.462818
 20
91.084083
 11
94.487565
 21
91.062722
  0
LINE
  8
CSLAYER4
  6
CONTINUOUS
 62
     7
 10
94.487565
 20
91.062722
 11
94.512586
 21
91.041675
  0
LINE
  8
CSLAYER4
  6
CONTINUOUS
 62
     7
 10
94.512586
 20
91.041675
 11
94.537882
 21
91.020960
  0
LINE
  8
CSLAYER4
  6
CONTINUOUS
 62
     7
 10
94.537882
 20
91.020960
 11
94.563453
 21
91.000593
  0
LINE
  8
CSLAYER4
  6
CONTINUOUS
 62
     7
 10
94.563453
 20
91.000593
 11
94.589284
 21
90.980598
  0
LINE
  8
CSLAYER4
  6
CONTINUOUS
 62
     7
 10
94.589284
 20
90.980598
 11
94.615391
 21
90.961002
  0
LINE
  8
CSLAYER4
  6
CONTINUOUS
 62
     7
 10
94.615391
 20
90.961002
 11
94.641758
 21
90.941817
  0
LINE
  8
CSLAYER4
  6
CONTINUOUS
 62
     7
 10
94.641758
 20
90.941817
 11
94.668386
 21
90.923058
  0
LINE
  8
CSLAYER4
  6
CONTINUOUS
 62
     7
 10
94.668386
 20
90.923058
 11
94.695268
 21
90.904758
  0
LINE
  8
CSLAYER4
  6
CONTINUOUS
 62
     7
 10
94.695268
 20
90.904758
 11
94.722412
 21
90.886926
  0
LINE
  8
CSLAYER4
  6
CONTINUOUS
 62
     7
 10
94.722412
 20
90.886926
 11
94.749816
 21
90.869589
  0
LINE
  8
CSLAYER4
  6
CONTINUOUS
 62
     7
 10
94.749816
 20
90.869589
 11
94.777467
 21
90.852766
  0
LINE
  8
CSLAYER4
  6
CONTINUOUS
 62
     7
 10
94.777467
 20
90.852766
 11
94.805386
 21
90.836465
  0
LINE
  8
CSLAYER4
  6
CONTINUOUS
 62
     7
 10
94.805386
 20
90.836465
 11
94.833600
 21
90.820686
  0
LINE
  8
CSLAYER4
  6
CONTINUOUS
 62
     7
 10
94.833600
 20
90.820686
 11
94.862103
 21
90.805463
  0
LINE
  8
CSLAYER4
  6
CONTINUOUS
 62
     7
 10
94.862103
 20
90.805463
 11
94.890901
 21
90.790810
  0
LINE
  8
CSLAYER4
  6
CONTINUOUS
 62
     7
 10
94.890901
 20
90.790810
 11
94.919987
 21
90.776754
  0
LINE
  8
CSLAYER4
  6
CONTINUOUS
 62
     7
 10
94.919987
 20
90.776754
 11
94.949362
 21
90.763316
  0
LINE
  8
CSLAYER4
  6
CONTINUOUS
 62
     7
 10
96.417325
 20
90.134191
 11
94.949364
 21
90.763317
  0
LINE
  8
CSLAYER4
  6
CONTINUOUS
 62
     7
 10
96.417327
 20
90.134191
 11
96.459254
 21
90.114931
  0
LINE
  8
CSLAYER4
  6
CONTINUOUS
 62
     7
 10
96.459254
 20
90.114931
 11
96.500412
 21
90.094084
  0
LINE
  8
CSLAYER4
  6
CONTINUOUS
 62
     7
 10
96.500412
 20
90.094084
 11
96.540704
 21
90.071576
  0
LINE
  8
CSLAYER4
  6
CONTINUOUS
 62
     7
 10
96.540704
 20
90.071576
 11
96.579980
 21
90.047344
  0
LINE
  8
CSLAYER4
  6
CONTINUOUS
 62
     7
 10
96.579980
 20
90.047344
 11
96.618130
 21
90.021320
  0
LINE
  8
CSLAYER4
  6
CONTINUOUS
 62
     7
 10
96.618130
 20
90.021320
 11
96.654961
 21
89.993484
  0
LINE
  8
CSLAYER4
  6
CONTINUOUS
 62
     7
 10
96.654961
 20
89.993484
 11
96.690214
 21
89.963903
  0
LINE
  8
CSLAYER4
  6
CONTINUOUS
 62
     7
 10
96.690214
 20
89.963903
 11
96.723805
 21
89.932544
  0
LINE
  8
CSLAYER4
  6
CONTINUOUS
 62
     7
 10
96.723805
 20
89.932544
 11
96.755638
 21
89.899358
  0
LINE
  8
CSLAYER4
  6
CONTINUOUS
 62
     7
 10
96.755638
 20
89.899358
 11
96.785658
 21
89.864305
  0
LINE
  8
CSLAYER4
  6
CONTINUOUS
 62
     7
 10
96.785658
 20
89.864305
 11
96.813618
 21
89.827549
  0
LINE
  8
CSLAYER4
  6
CONTINUOUS
 62
     7
 10
96.813618
 20
89.827549
 11
96.839216
 21
89.789516
  0
LINE
  8
CSLAYER4
  6
CONTINUOUS
 62
     7
 10
96.839216
 20
89.789516
 11
96.862480
 21
89.750260
  0
LINE
  8
CSLAYER4
  6
CONTINUOUS
 62
     7
 10
96.862480
 20
89.750260
 11
96.883450
 21
89.709803
  0
LINE
  8
CSLAYER4
  6
CONTINUOUS
 62
     7
 10
96.883450
 20
89.709803
 11
96.902154
 21
89.668185
  0
LINE
  8
CSLAYER4
  6
CONTINUOUS
 62
     7
 10
96.902154
 20
89.668185
 11
96.918661
 21
89.625435
  0
LINE
  8
CSLAYER4
  6
CONTINUOUS
 62
     7
 10
96.918661
 20
89.625435
 11
96.932998
 21
89.581579
  0
LINE
  8
CSLAYER4
  6
CONTINUOUS
 62
     7
 10
96.932998
 20
89.581579
 11
96.945193
 21
89.536775
  0
LINE
  8
CSLAYER4
  6
CONTINUOUS
 62
     7
 10
96.945193
 20
89.536775
 11
96.955218
 21
89.491450
  0
LINE
  8
CSLAYER4
  6
CONTINUOUS
 62
     7
 10
96.955218
 20
89.491450
 11
96.963183
 21
89.445705
  0
LINE
  8
CSLAYER4
  6
CONTINUOUS
 62
     7
 10
96.963183
 20
89.445705
 11
96.969198
 21
89.399639
  0
LINE
  8
CSLAYER4
  6
CONTINUOUS
 62
     7
 10
96.969198
 20
89.399639
 11
96.973345
 21
89.353338
  0
LINE
  8
CSLAYER4
  6
CONTINUOUS
 62
     7
 10
96.973345
 20
89.353338
 11
96.975762
 21
89.306900
  0
LINE
  8
CSLAYER4
  6
CONTINUOUS
 62
     7
 10
96.975762
 20
89.306900
 11
96.976545
 21
89.260407
  0
LINE
  8
CSLAYER4
  6
CONTINUOUS
 62
     7
 10
96.976545
 20
89.260407
 11
96.975570
 21
89.216949
  0
LINE
  8
CSLAYER4
  6
CONTINUOUS
 62
     7
 10
96.975570
 20
89.216949
 11
96.972562
 21
89.173684
  0
LINE
  8
CSLAYER4
  6
CONTINUOUS
 62
     7
 10
96.972562
 20
89.173684
 11
96.967454
 21
89.130652
  0
LINE
  8
CSLAYER4
  6
CONTINUOUS
 62
     7
 10
96.967454
 20
89.130652
 11
96.960121
 21
89.087901
  0
LINE
  8
CSLAYER4
  6
CONTINUOUS
 62
     7
 10
96.960121
 20
89.087901
 11
96.950508
 21
89.045528
  0
LINE
  8
CSLAYER4
  6
CONTINUOUS
 62
     7
 10
96.950508
 20
89.045528
 11
96.938615
 21
89.003897
  0
LINE
  8
CSLAYER4
  6
CONTINUOUS
 62
     7
 10
96.938615
 20
89.003897
 11
96.924442
 21
88.963131
  0
LINE
  8
CSLAYER4
  6
CONTINUOUS
 62
     7
 10
96.924442
 20
88.963131
 11
96.907977
 21
88.923230
  0
LINE
  8
CSLAYER4
  6
CONTINUOUS
 62
     7
 10
96.907977
 20
88.923230
 11
96.889190
 21
88.884208
  0
LINE
  8
CSLAYER4
  6
CONTINUOUS
 62
     7
 10
96.889190
 20
88.884208
 11
96.868234
 21
88.846319
  0
LINE
  8
CSLAYER4
  6
CONTINUOUS
 62
     7
 10
96.868234
 20
88.846319
 11
96.845327
 21
88.809885
  0
LINE
  8
CSLAYER4
  6
CONTINUOUS
 62
     7
 10
96.845327
 20
88.809885
 11
96.820567
 21
88.774880
  0
LINE
  8
CSLAYER4
  6
CONTINUOUS
 62
     7
 10
96.820567
 20
88.774880
 11
96.794062
 21
88.741276
  0
LINE
  8
CSLAYER4
  6
CONTINUOUS
 62
     7
 10
96.794062
 20
88.741276
 11
96.765896
 21
88.709031
  0
LINE
  8
CSLAYER4
  6
CONTINUOUS
 62
     7
 10
96.765896
 20
88.709031
 11
96.736164
 21
88.678112
  0
LINE
  8
CSLAYER4
  6
CONTINUOUS
 62
     7
 10
96.736164
 20
88.678112
 11
96.704935
 21
88.648490
  0
LINE
  8
CSLAYER4
  6
CONTINUOUS
 62
     7
 10
96.704935
 20
88.648490
 11
96.672334
 21
88.620131
  0
LINE
  8
CSLAYER4
  6
CONTINUOUS
 62
     7
 10
96.672334
 20
88.620131
 11
96.638496
 21
88.593063
  0
LINE
  8
CSLAYER4
  6
CONTINUOUS
 62
     7
 10
96.638496
 20
88.593063
 11
96.603600
 21
88.567287
  0
LINE
  8
CSLAYER4
  6
CONTINUOUS
 62
     7
 10
96.603600
 20
88.567287
 11
96.567757
 21
88.542767
  0
LINE
  8
CSLAYER4
  6
CONTINUOUS
 62
     7
 10
96.567757
 20
88.542767
 11
96.531091
 21
88.519462
  0
LINE
  8
CSLAYER4
  6
CONTINUOUS
 62
     7
 10
96.531091
 20
88.519462
 11
96.493723
 21
88.497352
  0
LINE
  8
CSLAYER4
  6
CONTINUOUS
 62
     7
 10
96.493723
 20
88.497352
 11
96.455766
 21
88.476382
  0
LINE
  8
CSLAYER4
  6
CONTINUOUS
 62
     7
 10
96.455766
 20
88.476382
 11
96.417327
 21
88.456524
  0
LINE
  8
CSLAYER4
  6
CONTINUOUS
 62
     7
 10
96.417327
 20
88.456524
 11
96.380111
 21
88.445600
  0
LINE
  8
CSLAYER4
  6
CONTINUOUS
 62
     7
 10
96.380111
 20
88.445600
 11
96.342723
 21
88.435684
  0
LINE
  8
CSLAYER4
  6
CONTINUOUS
 62
     7
 10
96.342723
 20
88.435684
 11
96.305143
 21
88.426799
  0
LINE
  8
CSLAYER4
  6
CONTINUOUS
 62
     7
 10
96.305143
 20
88.426799
 11
96.267384
 21
88.418951
  0
LINE
  8
CSLAYER4
  6
CONTINUOUS
 62
     7
 10
96.267384
 20
88.418951
 11
96.229440
 21
88.412160
  0
LINE
  8
CSLAYER4
  6
CONTINUOUS
 62
     7
 10
96.229440
 20
88.412160
 11
96.191311
 21
88.406433
  0
LINE
  8
CSLAYER4
  6
CONTINUOUS
 62
     7
 10
96.191311
 20
88.406433
 11
96.153003
 21
88.401805
  0
LINE
  8
CSLAYER4
  6
CONTINUOUS
 62
     7
 10
96.153003
 20
88.401805
 11
96.114517
 21
88.398276
  0
LINE
  8
CSLAYER4
  6
CONTINUOUS
 62
     7
 10
96.114517
 20
88.398276
 11
96.075852
 21
88.395866
  0
LINE
  8
CSLAYER4
  6
CONTINUOUS
 62
     7
 10
96.075852
 20
88.395866
 11
96.037180
 21
88.394602
  0
LINE
  8
CSLAYER4
  6
CONTINUOUS
 62
     7
 10
96.037180
 20
88.394602
 11
95.998597
 21
88.394472
  0
LINE
  8
CSLAYER4
  6
CONTINUOUS
 62
     7
 10
95.998597
 20
88.394472
 11
95.960097
 21
88.395467
  0
LINE
  8
CSLAYER4
  6
CONTINUOUS
 62
     7
 10
95.960097
 20
88.395467
 11
95.921672
 21
88.397596
  0
LINE
  8
CSLAYER4
  6
CONTINUOUS
 62
     7
 10
95.921672
 20
88.397596
 11
95.883337
 21
88.400830
  0
LINE
  8
CSLAYER4
  6
CONTINUOUS
 62
     7
 10
95.883337
 20
88.400830
 11
95.845084
 21
88.405184
  0
LINE
  8
CSLAYER4
  6
CONTINUOUS
 62
     7
 10
95.845084
 20
88.405184
 11
95.806906
 21
88.410635
  0
LINE
  8
CSLAYER4
  6
CONTINUOUS
 62
     7
 10
95.806906
 20
88.410635
 11
95.768818
 21
88.417179
  0
LINE
  8
CSLAYER4
  6
CONTINUOUS
 62
     7
 10
95.768818
 20
88.417179
 11
95.730833
 21
88.424808
  0
LINE
  8
CSLAYER4
  6
CONTINUOUS
 62
     7
 10
95.730833
 20
88.424808
 11
95.693101
 21
88.433473
  0
LINE
  8
CSLAYER4
  6
CONTINUOUS
 62
     7
 10
95.693101
 20
88.433473
 11
95.655638
 21
88.443148
  0
LINE
  8
CSLAYER4
  6
CONTINUOUS
 62
     7
 10
95.655638
 20
88.443148
 11
95.618457
 21
88.453812
  0
LINE
  8
CSLAYER4
  6
CONTINUOUS
 62
     7
 10
95.618457
 20
88.453812
 11
95.581556
 21
88.465437
  0
LINE
  8
CSLAYER4
  6
CONTINUOUS
 62
     7
 10
95.581556
 20
88.465437
 11
95.544930
 21
88.477995
  0
LINE
  8
CSLAYER4
  6
CONTINUOUS
 62
     7
 10
95.544930
 20
88.477995
 11
95.508586
 21
88.491474
  0
LINE
  8
CSLAYER4
  6
CONTINUOUS
 62
     7
 10
95.508586
 20
88.491474
 11
95.483187
 21
88.501938
  0
LINE
  8
CSLAYER4
  6
CONTINUOUS
 62
     7
 10
95.483187
 20
88.501938
 11
95.457987
 21
88.512939
  0
LINE
  8
CSLAYER4
  6
CONTINUOUS
 62
     7
 10
95.457987
 20
88.512939
 11
95.433034
 21
88.524495
  0
LINE
  8
CSLAYER4
  6
CONTINUOUS
 62
     7
 10
95.433034
 20
88.524495
 11
95.408343
 21
88.536614
  0
LINE
  8
CSLAYER4
  6
CONTINUOUS
 62
     7
 10
95.408343
 20
88.536614
 11
95.383947
 21
88.549324
  0
LINE
  8
CSLAYER4
  6
CONTINUOUS
 62
     7
 10
95.383947
 20
88.549324
 11
95.359873
 21
88.562624
  0
LINE
  8
CSLAYER4
  6
CONTINUOUS
 62
     7
 10
95.359873
 20
88.562624
 11
95.336156
 21
88.576543
  0
LINE
  8
CSLAYER4
  6
CONTINUOUS
 62
     7
 10
95.336156
 20
88.576543
 11
95.312817
 21
88.591093
  0
LINE
  8
CSLAYER4
  6
CONTINUOUS
 62
     7
 10
95.312817
 20
88.591093
 11
95.289883
 21
88.606281
  0
LINE
  8
CSLAYER4
  6
CONTINUOUS
 62
     7
 10
95.289883
 20
88.606281
 11
95.267402
 21
88.622122
  0
LINE
  8
CSLAYER4
  6
CONTINUOUS
 62
     7
 10
95.267402
 20
88.622122
 11
95.245443
 21
88.638588
  0
LINE
  8
CSLAYER4
  6
CONTINUOUS
 62
     7
 10
95.245443
 20
88.638588
 11
95.224041
 21
88.655685
  0
LINE
  8
CSLAYER4
  6
CONTINUOUS
 62
     7
 10
95.224041
 20
88.655685
 11
95.203215
 21
88.673429
  0
LINE
  8
CSLAYER4
  6
CONTINUOUS
 62
     7
 10
95.203215
 20
88.673429
 11
95.182979
 21
88.691823
  0
LINE
  8
CSLAYER4
  6
CONTINUOUS
 62
     7
 10
95.182979
 20
88.691823
 11
95.163355
 21
88.710885
  0
LINE
  8
CSLAYER4
  6
CONTINUOUS
 62
     7
 10
95.163355
 20
88.710885
 11
95.144362
 21
88.730626
  0
LINE
  8
CSLAYER4
  6
CONTINUOUS
 62
     7
 10
95.144362
 20
88.730626
 11
95.126022
 21
88.751054
  0
LINE
  8
CSLAYER4
  6
CONTINUOUS
 62
     7
 10
95.126022
 20
88.751054
 11
95.108355
 21
88.772182
  0
LINE
  8
CSLAYER4
  6
CONTINUOUS
 62
     7
 10
95.108355
 20
88.772182
 11
95.091442
 21
88.793942
  0
LINE
  8
CSLAYER4
  6
CONTINUOUS
 62
     7
 10
95.091442
 20
88.793942
 11
95.075354
 21
88.816251
  0
LINE
  8
CSLAYER4
  6
CONTINUOUS
 62
     7
 10
95.075354
 20
88.816251
 11
95.060097
 21
88.839095
  0
LINE
  8
CSLAYER4
  6
CONTINUOUS
 62
     7
 10
95.060097
 20
88.839095
 11
95.045664
 21
88.862483
  0
LINE
  8
CSLAYER4
  6
CONTINUOUS
 62
     7
 10
95.045664
 20
88.862483
 11
95.032054
 21
88.886419
  0
LINE
  8
CSLAYER4
  6
CONTINUOUS
 62
     7
 10
95.032054
 20
88.886419
 11
95.019269
 21
88.910891
  0
LINE
  8
CSLAYER4
  6
CONTINUOUS
 62
     7
 10
95.019269
 20
88.910891
 11
95.005543
 21
88.939290
  0
LINE
  8
CSLAYER4
  6
CONTINUOUS
 62
     7
 10
95.005543
 20
88.939290
 11
94.992339
 21
88.968487
  0
LINE
  8
CSLAYER4
  6
CONTINUOUS
 62
     7
 10
94.992339
 20
88.968487
 11
94.979650
 21
88.998431
  0
LINE
  8
CSLAYER4
  6
CONTINUOUS
 62
     7
 10
94.979650
 20
88.998431
 11
94.967455
 21
89.029076
  0
LINE
  8
CSLAYER4
  6
CONTINUOUS
 62
     7
 10
94.967455
 20
89.029076
 11
94.955748
 21
89.060367
  0
LINE
  8
CSLAYER4
  6
CONTINUOUS
 62
     7
 10
94.955748
 20
89.060367
 11
94.944521
 21
89.092248
  0
LINE
  8
CSLAYER4
  6
CONTINUOUS
 62
     7
 10
94.944521
 20
89.092248
 11
94.933754
 21
89.124665
  0
LINE
  8
CSLAYER4
  6
CONTINUOUS
 62
     7
 10
94.933754
 20
89.124665
 11
94.923434
 21
89.157582
  0
LINE
  8
CSLAYER4
  6
CONTINUOUS
 62
     7
 10
94.923434
 20
89.157582
 11
94.913560
 21
89.190926
  0
LINE
  8
CSLAYER4
  6
CONTINUOUS
 62
     7
 10
94.913560
 20
89.190926
 11
94.904119
 21
89.224667
  0
LINE
  8
CSLAYER4
  6
CONTINUOUS
 62
     7
 10
94.904119
 20
89.224667
 11
94.895089
 21
89.258739
  0
LINE
  8
CSLAYER4
  6
CONTINUOUS
 62
     7
 10
94.895089
 20
89.258739
 11
94.886465
 21
89.293092
  0
LINE
  8
CSLAYER4
  6
CONTINUOUS
 62
     7
 10
94.886465
 20
89.293092
 11
94.878232
 21
89.327678
  0
LINE
  8
CSLAYER4
  6
CONTINUOUS
 62
     7
 10
94.878232
 20
89.327678
 11
94.870384
 21
89.362443
  0
LINE
  8
CSLAYER4
  6
CONTINUOUS
 62
     7
 10
94.870384
 20
89.362443
 11
94.862899
 21
89.397332
  0
LINE
  8
CSLAYER4
  6
CONTINUOUS
 62
     7
 10
94.862899
 20
89.397332
 11
94.855779
 21
89.432302
  0
LINE
  8
CSLAYER4
  6
CONTINUOUS
 62
     7
 10
94.855779
 20
89.432302
 11
94.848994
 21
89.467307
  0
LINE
  8
CSLAYER4
  6
CONTINUOUS
 62
     7
 10
94.848994
 20
89.467307
 11
94.842526
 21
89.502450
  0
LINE
  8
CSLAYER4
  6
CONTINUOUS
 62
     7
 10
94.842526
 20
89.502450
 11
94.836346
 21
89.537723
  0
LINE
  8
CSLAYER4
  6
CONTINUOUS
 62
     7
 10
94.836346
 20
89.537723
 11
94.830448
 21
89.573099
  0
LINE
  8
CSLAYER4
  6
CONTINUOUS
 62
     7
 10
94.830448
 20
89.573099
 11
94.824832
 21
89.608530
  0
LINE
  8
CSLAYER4
  6
CONTINUOUS
 62
     7
 10
94.824832
 20
89.608530
 11
94.819483
 21
89.643974
  0
LINE
  8
CSLAYER4
  6
CONTINUOUS
 62
     7
 10
94.819483
 20
89.643974
 11
94.814395
 21
89.679405
  0
LINE
  8
CSLAYER4
  6
CONTINUOUS
 62
     7
 10
94.814395
 20
89.679405
 11
94.809561
 21
89.714774
  0
LINE
  8
CSLAYER4
  6
CONTINUOUS
 62
     7
 10
93.691112
 20
89.714774
 11
94.809559
 21
89.714774
  0
LINE
  8
CSLAYER4
  6
CONTINUOUS
 62
     7
 10
93.691111
 20
89.714774
 11
93.701548
 21
89.590828
  0
LINE
  8
CSLAYER4
  6
CONTINUOUS
 62
     7
 10
93.701548
 20
89.590828
 11
93.715020
 21
89.466675
  0
LINE
  8
CSLAYER4
  6
CONTINUOUS
 62
     7
 10
93.715020
 20
89.466675
 11
93.731754
 21
89.342667
  0
LINE
  8
CSLAYER4
  6
CONTINUOUS
 62
     7
 10
93.731754
 20
89.342667
 11
93.751975
 21
89.219174
  0
LINE
  8
CSLAYER4
  6
CONTINUOUS
 62
     7
 10
93.751975
 20
89.219174
 11
93.775912
 21
89.096560
  0
LINE
  8
CSLAYER4
  6
CONTINUOUS
 62
     7
 10
93.775912
 20
89.096560
 11
93.803790
 21
88.975182
  0
LINE
  8
CSLAYER4
  6
CONTINUOUS
 62
     7
 10
93.803790
 20
88.975182
 11
93.835856
 21
88.855321
  0
LINE
  8
CSLAYER4
  6
CONTINUOUS
 62
     7
 10
93.835856
 20
88.855321
 11
93.872536
 21
88.736785
  0
LINE
  8
CSLAYER4
  6
CONTINUOUS
 62
     7
 10
93.872536
 20
88.736785
 11
93.914154
 21
88.619911
  0
LINE
  8
CSLAYER4
  6
CONTINUOUS
 62
     7
 10
93.914154
 20
88.619911
 11
93.961004
 21
88.505152
  0
LINE
  8
CSLAYER4
  6
CONTINUOUS
 62
     7
 10
93.961004
 20
88.505152
 11
94.013382
 21
88.392982
  0
LINE
  8
CSLAYER4
  6
CONTINUOUS
 62
     7
 10
94.013382
 20
88.392982
 11
94.071582
 21
88.283840
  0
LINE
  8
CSLAYER4
  6
CONTINUOUS
 62
     7
 10
94.071582
 20
88.283840
 11
94.135659
 21
88.178577
  0
LINE
  8
CSLAYER4
  6
CONTINUOUS
 62
     7
 10
94.135659
 20
88.178577
 11
94.205409
 21
88.078155
  0
LINE
  8
CSLAYER4
  6
CONTINUOUS
 62
     7
 10
94.205409
 20
88.078155
 11
94.281009
 21
87.982821
  0
LINE
  8
CSLAYER4
  6
CONTINUOUS
 62
     7
 10
94.281009
 20
87.982821
 11
94.362616
 21
87.892815
  0
LINE
  8
CSLAYER4
  6
CONTINUOUS
 62
     7
 10
94.362616
 20
87.892815
 11
94.450411
 21
87.808358
  0
LINE
  8
CSLAYER4
  6
CONTINUOUS
 62
     7
 10
94.450411
 20
87.808358
 11
94.544529
 21
87.729717
  0
LINE
  8
CSLAYER4
  6
CONTINUOUS
 62
     7
 10
94.544529
 20
87.729717
 11
94.643598
 21
87.658140
  0
LINE
  8
CSLAYER4
  6
CONTINUOUS
 62
     7
 10
94.643598
 20
87.658140
 11
94.746636
 21
87.594083
  0
LINE
  8
CSLAYER4
  6
CONTINUOUS
 62
     7
 10
94.746636
 20
87.594083
 11
94.853416
 21
87.537284
  0
LINE
  8
CSLAYER4
  6
CONTINUOUS
 62
     7
 10
94.853416
 20
87.537284
 11
94.963719
 21
87.487502
  0
LINE
  8
CSLAYER4
  6
CONTINUOUS
 62
     7
 10
94.963719
 20
87.487502
 11
95.077332
 21
87.444484
  0
LINE
  8
CSLAYER4
  6
CONTINUOUS
 62
     7
 10
95.077332
 20
87.444484
 11
95.194027
 21
87.407975
  0
ENDBLK
  8
0
  0
BLOCK
  8
CSLAYER1
  2
BLKF0004
 70
   64
 10
0.0
 20
0.0
 30
0.0
  0
LINE
  8
CSLAYER4
  6
CONTINUOUS
 62
     7
 10
109.196568
 20
89.026907
 11
109.181956
 21
88.986360
  0
LINE
  8
CSLAYER4
  6
CONTINUOUS
 62
     7
 10
109.181956
 20
88.986360
 11
109.166369
 21
88.945574
  0
LINE
  8
CSLAYER4
  6
CONTINUOUS
 62
     7
 10
109.166369
 20
88.945574
 11
109.149766
 21
88.904753
  0
LINE
  8
CSLAYER4
  6
CONTINUOUS
 62
     7
 10
109.149766
 20
88.904753
 11
109.132133
 21
88.864110
  0
LINE
  8
CSLAYER4
  6
CONTINUOUS
 62
     7
 10
109.132133
 20
88.864110
 11
109.113415
 21
88.823838
  0
LINE
  8
CSLAYER4
  6
CONTINUOUS
 62
     7
 10
109.113415
 20
88.823838
 11
109.093599
 21
88.784143
  0
LINE
  8
CSLAYER4
  6
CONTINUOUS
 62
     7
 10
109.093599
 20
88.784143
 11
109.072629
 21
88.745238
  0
LINE
  8
CSLAYER4
  6
CONTINUOUS
 62
     7
 10
109.072629
 20
88.745238
 11
109.050505
 21
88.707321
  0
LINE
  8
CSLAYER4
  6
CONTINUOUS
 62
     7
 10
109.050505
 20
88.707321
 11
109.027186
 21
88.670600
  0
LINE
  8
CSLAYER4
  6
CONTINUOUS
 62
     7
 10
109.027186
 20
88.670600
 11
109.002632
 21
88.635272
  0
LINE
  8
CSLAYER4
  6
CONTINUOUS
 62
     7
 10
109.002632
 20
88.635272
 11
108.976525
 21
88.601193
  0
LINE
  8
CSLAYER4
  6
CONTINUOUS
 62
     7
 10
108.976525
 20
88.601193
 11
108.948675
 21
88.568454
  0
LINE
  8
CSLAYER4
  6
CONTINUOUS
 62
     7
 10
108.948675
 20
88.568454
 11
108.918999
 21
88.537397
  0
LINE
  8
CSLAYER4
  6
CONTINUOUS
 62
     7
 10
108.918999
 20
88.537397
 11
108.887467
 21
88.508359
  0
LINE
  8
CSLAYER4
  6
CONTINUOUS
 62
     7
 10
108.887467
 20
88.508359
 11
108.854014
 21
88.481669
  0
LINE
  8
CSLAYER4
  6
CONTINUOUS
 62
     7
 10
108.854014
 20
88.481669
 11
108.818734
 21
88.457774
  0
LINE
  8
CSLAYER4
  6
CONTINUOUS
 62
     7
 10
108.818734
 20
88.457774
 11
108.781917
 21
88.437113
  0
LINE
  8
CSLAYER4
  6
CONTINUOUS
 62
     7
 10
108.781917
 20
88.437113
 11
108.743547
 21
88.419871
  0
LINE
  8
CSLAYER4
  6
CONTINUOUS
 62
     7
 10
108.743547
 20
88.419871
 11
108.703570
 21
88.406200
  0
LINE
  8
CSLAYER4
  6
CONTINUOUS
 62
     7
 10
108.703570
 20
88.406200
 11
108.662193
 21
88.396319
  0
LINE
  8
CSLAYER4
  6
CONTINUOUS
 62
     7
 10
108.662193
 20
88.396319
 11
108.620418
 21
88.390427
  0
LINE
  8
CSLAYER4
  6
CONTINUOUS
 62
     7
 10
108.620418
 20
88.390427
 11
108.578436
 21
88.388340
  0
LINE
  8
CSLAYER4
  6
CONTINUOUS
 62
     7
 10
108.578436
 20
88.388340
 11
108.536317
 21
88.389837
  0
LINE
  8
CSLAYER4
  6
CONTINUOUS
 62
     7
 10
108.536317
 20
88.389837
 11
108.494116
 21
88.394712
  0
LINE
  8
CSLAYER4
  6
CONTINUOUS
 62
     7
 10
108.494116
 20
88.394712
 11
108.455320
 21
88.404641
  0
LINE
  8
CSLAYER4
  6
CONTINUOUS
 62
     7
 10
108.455320
 20
88.404641
 11
108.417802
 21
88.418566
  0
LINE
  8
CSLAYER4
  6
CONTINUOUS
 62
     7
 10
108.417802
 20
88.418566
 11
108.381712
 21
88.436240
  0
LINE
  8
CSLAYER4
  6
CONTINUOUS
 62
     7
 10
108.381712
 20
88.436240
 11
108.347462
 21
88.457190
  0
LINE
  8
CSLAYER4
  6
CONTINUOUS
 62
     7
 10
108.347462
 20
88.457190
 11
108.315025
 21
88.481044
  0
LINE
  8
CSLAYER4
  6
CONTINUOUS
 62
     7
 10
108.315025
 20
88.481044
 11
108.284359
 21
88.507418
  0
LINE
  8
CSLAYER4
  6
CONTINUOUS
 62
     7
 10
108.284359
 20
88.507418
 11
108.255438
 21
88.535948
  0
LINE
  8
CSLAYER4
  6
CONTINUOUS
 62
     7
 10
108.255438
 20
88.535948
 11
108.228247
 21
88.566250
  0
LINE
  8
CSLAYER4
  6
CONTINUOUS
 62
     7
 10
108.228247
 20
88.566250
 11
108.202717
 21
88.597938
  0
LINE
  8
CSLAYER4
  6
CONTINUOUS
 62
     7
 10
108.202717
 20
88.597938
 11
108.178822
 21
88.630650
  0
LINE
  8
CSLAYER4
  6
CONTINUOUS
 62
     7
 10
108.178822
 20
88.630650
 11
108.156190
 21
88.664516
  0
LINE
  8
CSLAYER4
  6
CONTINUOUS
 62
     7
 10
108.156190
 20
88.664516
 11
108.134396
 21
88.699940
  0
LINE
  8
CSLAYER4
  6
CONTINUOUS
 62
     7
 10
108.134396
 20
88.699940
 11
108.113440
 21
88.736799
  0
LINE
  8
CSLAYER4
  6
CONTINUOUS
 62
     7
 10
108.113440
 20
88.736799
 11
108.093280
 21
88.774970
  0
LINE
  8
CSLAYER4
  6
CONTINUOUS
 62
     7
 10
108.093280
 20
88.774970
 11
108.073930
 21
88.814335
  0
LINE
  8
CSLAYER4
  6
CONTINUOUS
 62
     7
 10
108.073930
 20
88.814335
 11
108.055336
 21
88.854779
  0
LINE
  8
CSLAYER4
  6
CONTINUOUS
 62
     7
 10
108.055336
 20
88.854779
 11
108.037497
 21
88.896170
  0
LINE
  8
CSLAYER4
  6
CONTINUOUS
 62
     7
 10
108.037497
 20
88.896170
 11
108.020385
 21
88.938398
  0
LINE
  8
CSLAYER4
  6
CONTINUOUS
 62
     7
 10
108.020385
 20
88.938398
 11
108.004002
 21
88.981341
  0
LINE
  8
CSLAYER4
  6
CONTINUOUS
 62
     7
 10
108.004002
 20
88.981341
 11
107.988319
 21
89.024874
  0
LINE
  8
CSLAYER4
  6
CONTINUOUS
 62
     7
 10
107.988319
 20
89.024874
 11
107.973309
 21
89.068874
  0
LINE
  8
CSLAYER4
  6
CONTINUOUS
 62
     7
 10
107.973309
 20
89.068874
 11
107.958958
 21
89.113232
  0
LINE
  8
CSLAYER4
  6
CONTINUOUS
 62
     7
 10
107.958958
 20
89.113232
 11
107.945253
 21
89.157822
  0
LINE
  8
CSLAYER4
  6
CONTINUOUS
 62
     7
 10
107.945253
 20
89.157822
 11
107.932165
 21
89.202516
  0
LINE
  8
CSLAYER4
  6
CONTINUOUS
 62
     7
 10
107.932165
 20
89.202516
 11
107.912458
 21
89.270466
  0
LINE
  8
CSLAYER4
  6
CONTINUOUS
 62
     7
 10
107.912458
 20
89.270466
 11
107.893933
 21
89.338884
  0
LINE
  8
CSLAYER4
  6
CONTINUOUS
 62
     7
 10
107.893933
 20
89.338884
 11
107.876560
 21
89.407713
  0
LINE
  8
CSLAYER4
  6
CONTINUOUS
 62
     7
 10
107.876560
 20
89.407713
 11
107.860315
 21
89.476893
  0
LINE
  8
CSLAYER4
  6
CONTINUOUS
 62
     7
 10
107.860315
 20
89.476893
 11
107.845140
 21
89.546388
  0
LINE
  8
CSLAYER4
  6
CONTINUOUS
 62
     7
 10
107.845140
 20
89.546388
 11
107.831036
 21
89.616131
  0
LINE
  8
CSLAYER4
  6
CONTINUOUS
 62
     7
 10
107.831036
 20
89.616131
 11
107.817948
 21
89.686066
  0
LINE
  8
CSLAYER4
  6
CONTINUOUS
 62
     7
 10
107.817948
 20
89.686066
 11
107.805850
 21
89.756145
  0
LINE
  8
CSLAYER4
  6
CONTINUOUS
 62
     7
 10
107.805850
 20
89.756145
 11
107.794713
 21
89.826313
  0
LINE
  8
CSLAYER4
  6
CONTINUOUS
 62
     7
 10
107.794713
 20
89.826313
 11
107.784509
 21
89.896509
  0
LINE
  8
CSLAYER4
  6
CONTINUOUS
 62
     7
 10
107.784509
 20
89.896509
 11
107.775198
 21
89.966691
  0
LINE
  8
CSLAYER4
  6
CONTINUOUS
 62
     7
 10
107.775198
 20
89.966691
 11
107.766725
 21
90.036935
  0
LINE
  8
CSLAYER4
  6
CONTINUOUS
 62
     7
 10
107.766725
 20
90.036935
 11
107.759076
 21
90.107419
  0
LINE
  8
CSLAYER4
  6
CONTINUOUS
 62
     7
 10
107.759076
 20
90.107419
 11
107.752182
 21
90.178109
  0
LINE
  8
CSLAYER4
  6
CONTINUOUS
 62
     7
 10
107.752182
 20
90.178109
 11
107.746057
 21
90.248964
  0
LINE
  8
CSLAYER4
  6
CONTINUOUS
 62
     7
 10
107.746057
 20
90.248964
 11
107.740660
 21
90.319956
  0
LINE
  8
CSLAYER4
  6
CONTINUOUS
 62
     7
 10
107.740660
 20
90.319956
 11
107.735991
 21
90.391044
  0
LINE
  8
CSLAYER4
  6
CONTINUOUS
 62
     7
 10
107.735991
 20
90.391044
 11
107.731994
 21
90.462195
  0
LINE
  8
CSLAYER4
  6
CONTINUOUS
 62
     7
 10
107.731994
 20
90.462195
 11
107.728684
 21
90.533366
  0
LINE
  8
CSLAYER4
  6
CONTINUOUS
 62
     7
 10
107.728684
 20
90.533366
 11
107.726020
 21
90.604530
  0
LINE
  8
CSLAYER4
  6
CONTINUOUS
 62
     7
 10
107.726020
 20
90.604530
 11
107.723988
 21
90.675653
  0
LINE
  8
CSLAYER4
  6
CONTINUOUS
 62
     7
 10
107.723988
 20
90.675653
 11
107.722560
 21
90.746686
  0
LINE
  8
CSLAYER4
  6
CONTINUOUS
 62
     7
 10
107.722560
 20
90.746686
 11
107.721708
 21
90.817610
  0
LINE
  8
CSLAYER4
  6
CONTINUOUS
 62
     7
 10
107.721708
 20
90.817610
 11
107.721433
 21
90.888375
  0
LINE
  8
CSLAYER4
  6
CONTINUOUS
 62
     7
 10
107.721433
 20
90.888375
 11
107.721681
 21
90.964428
  0
LINE
  8
CSLAYER4
  6
CONTINUOUS
 62
     7
 10
107.721681
 20
90.964428
 11
107.722436
 21
91.040838
  0
LINE
  8
CSLAYER4
  6
CONTINUOUS
 62
     7
 10
107.722436
 20
91.040838
 11
107.723713
 21
91.117523
  0
LINE
  8
CSLAYER4
  6
CONTINUOUS
 62
     7
 10
107.723713
 20
91.117523
 11
107.725554
 21
91.194420
  0
LINE
  8
CSLAYER4
  6
CONTINUOUS
 62
     7
 10
107.725554
 20
91.194420
 11
107.727984
 21
91.271468
  0
LINE
  8
CSLAYER4
  6
CONTINUOUS
 62
     7
 10
107.727984
 20
91.271468
 11
107.731019
 21
91.348586
  0
LINE
  8
CSLAYER4
  6
CONTINUOUS
 62
     7
 10
107.731019
 20
91.348586
 11
107.734699
 21
91.425716
  0
LINE
  8
CSLAYER4
  6
CONTINUOUS
 62
     7
 10
107.734699
 20
91.425716
 11
107.739039
 21
91.502792
  0
LINE
  8
CSLAYER4
  6
CONTINUOUS
 62
     7
 10
107.739039
 20
91.502792
 11
107.744079
 21
91.579738
  0
LINE
  8
CSLAYER4
  6
CONTINUOUS
 62
     7
 10
107.744079
 20
91.579738
 11
107.749819
 21
91.656491
  0
LINE
  8
CSLAYER4
  6
CONTINUOUS
 62
     7
 10
107.749819
 20
91.656491
 11
107.756315
 21
91.732983
  0
LINE
  8
CSLAYER4
  6
CONTINUOUS
 62
     7
 10
107.756315
 20
91.732983
 11
107.763566
 21
91.809146
  0
LINE
  8
CSLAYER4
  6
CONTINUOUS
 62
     7
 10
107.763566
 20
91.809146
 11
107.771628
 21
91.884918
  0
LINE
  8
CSLAYER4
  6
CONTINUOUS
 62
     7
 10
107.771628
 20
91.884918
 11
107.780526
 21
91.960462
  0
LINE
  8
CSLAYER4
  6
CONTINUOUS
 62
     7
 10
107.780526
 20
91.960462
 11
107.790414
 21
92.036385
  0
LINE
  8
CSLAYER4
  6
CONTINUOUS
 62
     7
 10
107.790414
 20
92.036385
 11
107.801318
 21
92.112568
  0
LINE
  8
CSLAYER4
  6
CONTINUOUS
 62
     7
 10
107.801318
 20
92.112568
 11
107.813320
 21
92.188882
  0
LINE
  8
CSLAYER4
  6
CONTINUOUS
 62
     7
 10
107.813320
 20
92.188882
 11
107.826463
 21
92.265182
  0
LINE
  8
CSLAYER4
  6
CONTINUOUS
 62
     7
 10
107.826463
 20
92.265182
 11
107.840800
 21
92.341324
  0
LINE
  8
CSLAYER4
  6
CONTINUOUS
 62
     7
 10
107.840800
 20
92.341324
 11
107.856373
 21
92.417164
  0
LINE
  8
CSLAYER4
  6
CONTINUOUS
 62
     7
 10
107.856373
 20
92.417164
 11
107.873251
 21
92.492571
  0
LINE
  8
CSLAYER4
  6
CONTINUOUS
 62
     7
 10
107.873251
 20
92.492571
 11
107.891461
 21
92.567388
  0
LINE
  8
CSLAYER4
  6
CONTINUOUS
 62
     7
 10
107.891461
 20
92.567388
 11
107.911085
 21
92.641484
  0
LINE
  8
CSLAYER4
  6
CONTINUOUS
 62
     7
 10
107.911085
 20
92.641484
 11
107.932165
 21
92.714715
  0
LINE
  8
CSLAYER4
  6
CONTINUOUS
 62
     7
 10
107.932165
 20
92.714715
 11
107.939279
 21
92.740451
  0
LINE
  8
CSLAYER4
  6
CONTINUOUS
 62
     7
 10
107.939279
 20
92.740451
 11
107.946612
 21
92.766268
  0
LINE
  8
CSLAYER4
  6
CONTINUOUS
 62
     7
 10
107.946612
 20
92.766268
 11
107.954165
 21
92.792148
  0
LINE
  8
CSLAYER4
  6
CONTINUOUS
 62
     7
 10
107.954165
 20
92.792148
 11
107.961938
 21
92.818048
  0
LINE
  8
CSLAYER4
  6
CONTINUOUS
 62
     7
 10
107.961938
 20
92.818048
 11
107.969931
 21
92.843948
  0
LINE
  8
CSLAYER4
  6
CONTINUOUS
 62
     7
 10
107.969931
 20
92.843948
 11
107.978170
 21
92.869821
  0
LINE
  8
CSLAYER4
  6
CONTINUOUS
 62
     7
 10
107.978170
 20
92.869821
 11
107.986630
 21
92.895632
  0
LINE
  8
CSLAYER4
  6
CONTINUOUS
 62
     7
 10
107.986630
 20
92.895632
 11
107.995323
 21
92.921361
  0
LINE
  8
CSLAYER4
  6
CONTINUOUS
 62
     7
 10
107.995323
 20
92.921361
 11
108.004249
 21
92.946966
  0
LINE
  8
CSLAYER4
  6
CONTINUOUS
 62
     7
 10
108.004249
 20
92.946966
 11
108.013437
 21
92.972427
  0
LINE
  8
CSLAYER4
  6
CONTINUOUS
 62
     7
 10
108.013437
 20
92.972427
 11
108.022857
 21
92.997716
  0
LINE
  8
CSLAYER4
  6
CONTINUOUS
 62
     7
 10
108.022857
 20
92.997716
 11
108.032511
 21
93.022806
  0
LINE
  8
CSLAYER4
  6
CONTINUOUS
 62
     7
 10
108.032511
 20
93.022806
 11
108.042441
 21
93.047655
  0
LINE
  8
CSLAYER4
  6
CONTINUOUS
 62
     7
 10
108.042441
 20
93.047655
 11
108.052630
 21
93.072320
  0
LINE
  8
CSLAYER4
  6
CONTINUOUS
 62
     7
 10
108.052630
 20
93.072320
 11
108.063232
 21
93.097019
  0
LINE
  8
CSLAYER4
  6
CONTINUOUS
 62
     7
 10
108.063232
 20
93.097019
 11
108.074246
 21
93.121717
  0
LINE
  8
CSLAYER4
  6
CONTINUOUS
 62
     7
 10
108.074246
 20
93.121717
 11
108.085686
 21
93.146361
  0
LINE
  8
CSLAYER4
  6
CONTINUOUS
 62
     7
 10
108.085686
 20
93.146361
 11
108.097551
 21
93.170867
  0
LINE
  8
CSLAYER4
  6
CONTINUOUS
 62
     7
 10
108.097551
 20
93.170867
 11
108.109842
 21
93.195195
  0
LINE
  8
CSLAYER4
  6
CONTINUOUS
 62
     7
 10
108.109842
 20
93.195195
 11
108.122586
 21
93.219269
  0
LINE
  8
CSLAYER4
  6
CONTINUOUS
 62
     7
 10
108.122586
 20
93.219269
 11
108.135769
 21
93.243027
  0
LINE
  8
CSLAYER4
  6
CONTINUOUS
 62
     7
 10
108.135769
 20
93.243027
 11
108.149392
 21
93.266407
  0
LINE
  8
CSLAYER4
  6
CONTINUOUS
 62
     7
 10
108.149392
 20
93.266407
 11
108.163482
 21
93.289348
  0
LINE
  8
CSLAYER4
  6
CONTINUOUS
 62
     7
 10
108.163482
 20
93.289348
 11
108.178026
 21
93.311787
  0
LINE
  8
CSLAYER4
  6
CONTINUOUS
 62
     7
 10
108.178026
 20
93.311787
 11
108.190413
 21
93.326331
  0
LINE
  8
CSLAYER4
  6
CONTINUOUS
 62
     7
 10
108.190413
 20
93.326331
 11
108.203129
 21
93.340634
  0
LINE
  8
CSLAYER4
  6
CONTINUOUS
 62
     7
 10
108.203129
 20
93.340634
 11
108.216175
 21
93.354648
  0
LINE
  8
CSLAYER4
  6
CONTINUOUS
 62
     7
 10
108.216175
 20
93.354648
 11
108.229579
 21
93.368354
  0
LINE
  8
CSLAYER4
  6
CONTINUOUS
 62
     7
 10
108.229579
 20
93.368354
 11
108.243312
 21
93.381702
  0
LINE
  8
CSLAYER4
  6
CONTINUOUS
 62
     7
 10
108.243312
 20
93.381702
 11
108.257388
 21
93.394665
  0
LINE
  8
CSLAYER4
  6
CONTINUOUS
 62
     7
 10
108.257388
 20
93.394665
 11
108.271807
 21
93.407204
  0
LINE
  8
CSLAYER4
  6
CONTINUOUS
 62
     7
 10
108.271807
 20
93.407204
 11
108.286584
 21
93.419282
  0
LINE
  8
CSLAYER4
  6
CONTINUOUS
 62
     7
 10
108.286584
 20
93.419282
 11
108.301704
 21
93.430872
  0
LINE
  8
CSLAYER4
  6
CONTINUOUS
 62
     7
 10
108.301704
 20
93.430872
 11
108.317181
 21
93.441941
  0
LINE
  8
CSLAYER4
  6
CONTINUOUS
 62
     7
 10
108.317181
 20
93.441941
 11
108.333001
 21
93.452440
  0
LINE
  8
CSLAYER4
  6
CONTINUOUS
 62
     7
 10
108.333001
 20
93.452440
 11
108.349192
 21
93.462348
  0
LINE
  8
CSLAYER4
  6
CONTINUOUS
 62
     7
 10
108.349192
 20
93.462348
 11
108.365740
 21
93.471632
  0
LINE
  8
CSLAYER4
  6
CONTINUOUS
 62
     7
 10
108.365740
 20
93.471632
 11
108.382646
 21
93.480249
  0
LINE
  8
CSLAYER4
  6
CONTINUOUS
 62
     7
 10
108.382646
 20
93.480249
 11
108.399922
 21
93.488166
  0
LINE
  8
CSLAYER4
  6
CONTINUOUS
 62
     7
 10
108.399922
 20
93.488166
 11
108.417528
 21
93.495335
  0
LINE
  8
CSLAYER4
  6
CONTINUOUS
 62
     7
 10
108.417528
 20
93.495335
 11
108.435284
 21
93.501672
  0
LINE
  8
CSLAYER4
  6
CONTINUOUS
 62
     7
 10
108.435284
 20
93.501672
 11
108.453219
 21
93.507179
  0
LINE
  8
CSLAYER4
  6
CONTINUOUS
 62
     7
 10
108.453219
 20
93.507179
 11
108.471333
 21
93.511856
  0
LINE
  8
CSLAYER4
  6
CONTINUOUS
 62
     7
 10
108.471333
 20
93.511856
 11
108.489598
 21
93.515680
  0
LINE
  8
CSLAYER4
  6
CONTINUOUS
 62
     7
 10
108.489598
 20
93.515680
 11
108.508041
 21
93.518667
  0
LINE
  8
CSLAYER4
  6
CONTINUOUS
 62
     7
 10
108.508041
 20
93.518667
 11
108.526649
 21
93.520802
  0
LINE
  8
CSLAYER4
  6
CONTINUOUS
 62
     7
 10
108.526649
 20
93.520802
 11
108.545422
 21
93.522086
  0
LINE
  8
CSLAYER4
  6
CONTINUOUS
 62
     7
 10
108.545422
 20
93.522086
 11
108.564360
 21
93.522519
  0
LINE
  8
CSLAYER4
  6
CONTINUOUS
 62
     7
 10
108.564360
 20
93.522519
 11
108.585838
 21
93.521791
  0
LINE
  8
CSLAYER4
  6
CONTINUOUS
 62
     7
 10
108.585838
 20
93.521791
 11
108.607110
 21
93.519628
  0
LINE
  8
CSLAYER4
  6
CONTINUOUS
 62
     7
 10
108.607110
 20
93.519628
 11
108.628149
 21
93.516085
  0
LINE
  8
CSLAYER4
  6
CONTINUOUS
 62
     7
 10
108.628149
 20
93.516085
 11
108.648982
 21
93.511196
  0
LINE
  8
CSLAYER4
  6
CONTINUOUS
 62
     7
 10
108.648982
 20
93.511196
 11
108.669581
 21
93.505010
  0
LINE
  8
CSLAYER4
  6
CONTINUOUS
 62
     7
 10
108.669581
 20
93.505010
 11
108.689851
 21
93.497607
  0
LINE
  8
CSLAYER4
  6
CONTINUOUS
 62
     7
 10
108.689851
 20
93.497607
 11
108.709695
 21
93.489114
  0
LINE
  8
CSLAYER4
  6
CONTINUOUS
 62
     7
 10
108.709695
 20
93.489114
 11
108.729072
 21
93.479604
  0
LINE
  8
CSLAYER4
  6
CONTINUOUS
 62
     7
 10
108.729072
 20
93.479604
 11
108.747996
 21
93.469181
  0
LINE
  8
CSLAYER4
  6
CONTINUOUS
 62
     7
 10
108.747996
 20
93.469181
 11
108.766453
 21
93.457919
  0
LINE
  8
CSLAYER4
  6
CONTINUOUS
 62
     7
 10
108.766453
 20
93.457919
 11
108.784457
 21
93.445896
  0
LINE
  8
CSLAYER4
  6
CONTINUOUS
 62
     7
 10
108.784457
 20
93.445896
 11
108.802104
 21
93.433111
  0
LINE
  8
CSLAYER4
  6
CONTINUOUS
 62
     7
 10
108.802104
 20
93.433111
 11
108.819435
 21
93.419604
  0
LINE
  8
CSLAYER4
  6
CONTINUOUS
 62
     7
 10
108.819435
 20
93.419604
 11
108.836409
 21
93.405446
  0
LINE
  8
CSLAYER4
  6
CONTINUOUS
 62
     7
 10
108.836409
 20
93.405446
 11
108.853039
 21
93.390690
  0
LINE
  8
CSLAYER4
  6
CONTINUOUS
 62
     7
 10
108.853039
 20
93.390690
 11
108.869313
 21
93.375412
  0
LINE
  8
CSLAYER4
  6
CONTINUOUS
 62
     7
 10
108.869313
 20
93.375412
 11
108.885229
 21
93.359660
  0
LINE
  8
CSLAYER4
  6
CONTINUOUS
 62
     7
 10
108.885229
 20
93.359660
 11
108.900775
 21
93.343503
  0
LINE
  8
CSLAYER4
  6
CONTINUOUS
 62
     7
 10
108.900775
 20
93.343503
 11
108.915936
 21
93.327003
  0
LINE
  8
CSLAYER4
  6
CONTINUOUS
 62
     7
 10
108.915936
 20
93.327003
 11
108.930712
 21
93.310222
  0
LINE
  8
CSLAYER4
  6
CONTINUOUS
 62
     7
 10
108.930712
 20
93.310222
 11
108.945091
 21
93.293228
  0
LINE
  8
CSLAYER4
  6
CONTINUOUS
 62
     7
 10
108.945091
 20
93.293228
 11
108.959085
 21
93.276068
  0
LINE
  8
CSLAYER4
  6
CONTINUOUS
 62
     7
 10
108.959085
 20
93.276068
 11
108.972667
 21
93.258819
  0
LINE
  8
CSLAYER4
  6
CONTINUOUS
 62
     7
 10
108.972667
 20
93.258819
 11
108.985822
 21
93.241544
  0
LINE
  8
CSLAYER4
  6
CONTINUOUS
 62
     7
 10
108.985822
 20
93.241544
 11
109.003703
 21
93.215699
  0
LINE
  8
CSLAYER4
  6
CONTINUOUS
 62
     7
 10
109.003703
 20
93.215699
 11
109.020910
 21
93.189221
  0
LINE
  8
CSLAYER4
  6
CONTINUOUS
 62
     7
 10
109.020910
 20
93.189221
 11
109.037445
 21
93.162188
  0
LINE
  8
CSLAYER4
  6
CONTINUOUS
 62
     7
 10
109.037445
 20
93.162188
 11
109.053320
 21
93.134660
  0
LINE
  8
CSLAYER4
  6
CONTINUOUS
 62
     7
 10
109.053320
 20
93.134660
 11
109.068577
 21
93.106700
  0
LINE
  8
CSLAYER4
  6
CONTINUOUS
 62
     7
 10
109.068577
 20
93.106700
 11
109.083203
 21
93.078383
  0
LINE
  8
CSLAYER4
  6
CONTINUOUS
 62
     7
 10
109.083203
 20
93.078383
 11
109.097238
 21
93.049770
  0
LINE
  8
CSLAYER4
  6
CONTINUOUS
 62
     7
 10
109.097238
 20
93.049770
 11
109.110669
 21
93.020938
  0
LINE
  8
CSLAYER4
  6
CONTINUOUS
 62
     7
 10
109.110669
 20
93.020938
 11
109.123522
 21
92.991941
  0
LINE
  8
CSLAYER4
  6
CONTINUOUS
 62
     7
 10
109.123522
 20
92.991941
 11
109.135813
 21
92.962862
  0
LINE
  8
CSLAYER4
  6
CONTINUOUS
 62
     7
 10
109.135813
 20
92.962862
 11
109.147555
 21
92.933741
  0
LINE
  8
CSLAYER4
  6
CONTINUOUS
 62
     7
 10
109.147555
 20
92.933741
 11
109.158885
 21
92.904373
  0
LINE
  8
CSLAYER4
  6
CONTINUOUS
 62
     7
 10
109.158885
 20
92.904373
 11
109.169816
 21
92.874717
  0
LINE
  8
CSLAYER4
  6
CONTINUOUS
 62
     7
 10
109.169816
 20
92.874717
 11
109.180363
 21
92.844800
  0
LINE
  8
CSLAYER4
  6
CONTINUOUS
 62
     7
 10
109.180363
 20
92.844800
 11
109.190553
 21
92.814663
  0
LINE
  8
CSLAYER4
  6
CONTINUOUS
 62
     7
 10
109.190553
 20
92.814663
 11
109.200372
 21
92.784334
  0
LINE
  8
CSLAYER4
  6
CONTINUOUS
 62
     7
 10
109.200372
 20
92.784334
 11
109.209847
 21
92.753853
  0
LINE
  8
CSLAYER4
  6
CONTINUOUS
 62
     7
 10
109.209847
 20
92.753853
 11
109.218966
 21
92.723257
  0
LINE
  8
CSLAYER4
  6
CONTINUOUS
 62
     7
 10
109.218966
 20
92.723257
 11
109.227742
 21
92.692571
  0
LINE
  8
CSLAYER4
  6
CONTINUOUS
 62
     7
 10
109.227742
 20
92.692571
 11
109.236187
 21
92.661836
  0
LINE
  8
CSLAYER4
  6
CONTINUOUS
 62
     7
 10
109.236187
 20
92.661836
 11
109.244317
 21
92.631089
  0
LINE
  8
CSLAYER4
  6
CONTINUOUS
 62
     7
 10
109.244317
 20
92.631089
 11
109.252117
 21
92.600361
  0
LINE
  8
CSLAYER4
  6
CONTINUOUS
 62
     7
 10
109.252117
 20
92.600361
 11
109.259616
 21
92.569688
  0
LINE
  8
CSLAYER4
  6
CONTINUOUS
 62
     7
 10
109.259616
 20
92.569688
 11
109.266812
 21
92.539105
  0
LINE
  8
CSLAYER4
  6
CONTINUOUS
 62
     7
 10
109.266812
 20
92.539105
 11
109.286477
 21
92.460780
  0
LINE
  8
CSLAYER4
  6
CONTINUOUS
 62
     7
 10
109.286477
 20
92.460780
 11
109.304811
 21
92.381960
  0
LINE
  8
CSLAYER4
  6
CONTINUOUS
 62
     7
 10
109.304811
 20
92.381960
 11
109.321812
 21
92.302707
  0
LINE
  8
CSLAYER4
  6
CONTINUOUS
 62
     7
 10
109.321812
 20
92.302707
 11
109.337563
 21
92.223097
  0
LINE
  8
CSLAYER4
  6
CONTINUOUS
 62
     7
 10
109.337563
 20
92.223097
 11
109.352065
 21
92.143179
  0
LINE
  8
CSLAYER4
  6
CONTINUOUS
 62
     7
 10
109.352065
 20
92.143179
 11
109.365373
 21
92.063019
  0
LINE
  8
CSLAYER4
  6
CONTINUOUS
 62
     7
 10
109.365373
 20
92.063019
 11
109.377513
 21
91.982689
  0
LINE
  8
CSLAYER4
  6
CONTINUOUS
 62
     7
 10
109.377513
 20
91.982689
 11
109.388540
 21
91.902235
  0
LINE
  8
CSLAYER4
  6
CONTINUOUS
 62
     7
 10
109.388540
 20
91.902235
 11
109.398496
 21
91.821739
  0
LINE
  8
CSLAYER4
  6
CONTINUOUS
 62
     7
 10
109.398496
 20
91.821739
 11
109.407396
 21
91.741251
  0
LINE
  8
CSLAYER4
  6
CONTINUOUS
 62
     7
 10
109.407396
 20
91.741251
 11
109.415292
 21
91.660844
  0
LINE
  8
CSLAYER4
  6
CONTINUOUS
 62
     7
 10
109.415292
 20
91.660844
 11
109.422227
 21
91.580397
  0
LINE
  8
CSLAYER4
  6
CONTINUOUS
 62
     7
 10
109.422227
 20
91.580397
 11
109.428270
 21
91.499703
  0
LINE
  8
CSLAYER4
  6
CONTINUOUS
 62
     7
 10
109.428270
 20
91.499703
 11
109.433433
 21
91.418802
  0
LINE
  8
CSLAYER4
  6
CONTINUOUS
 62
     7
 10
109.433433
 20
91.418802
 11
109.437745
 21
91.337736
  0
LINE
  8
CSLAYER4
  6
CONTINUOUS
 62
     7
 10
109.437745
 20
91.337736
 11
109.441233
 21
91.256547
  0
LINE
  8
CSLAYER4
  6
CONTINUOUS
 62
     7
 10
109.441233
 20
91.256547
 11
109.443925
 21
91.175270
  0
LINE
  8
CSLAYER4
  6
CONTINUOUS
 62
     7
 10
109.443925
 20
91.175270
 11
109.445834
 21
91.093943
  0
LINE
  8
CSLAYER4
  6
CONTINUOUS
 62
     7
 10
109.445834
 20
91.093943
 11
109.446988
 21
91.012623
  0
LINE
  8
CSLAYER4
  6
CONTINUOUS
 62
     7
 10
109.446988
 20
91.012623
 11
109.447427
 21
90.931338
  0
LINE
  8
CSLAYER4
  6
CONTINUOUS
 62
     7
 10
109.447427
 20
90.931338
 11
109.447166
 21
90.850129
  0
LINE
  8
CSLAYER4
  6
CONTINUOUS
 62
     7
 10
109.447166
 20
90.850129
 11
109.446219
 21
90.769043
  0
LINE
  8
CSLAYER4
  6
CONTINUOUS
 62
     7
 10
109.446219
 20
90.769043
 11
109.444626
 21
90.688122
  0
LINE
  8
CSLAYER4
  6
CONTINUOUS
 62
     7
 10
109.444626
 20
90.688122
 11
109.442415
 21
90.607393
  0
LINE
  8
CSLAYER4
  6
CONTINUOUS
 62
     7
 10
109.442415
 20
90.607393
 11
109.439833
 21
90.541304
  0
LINE
  8
CSLAYER4
  6
CONTINUOUS
 62
     7
 10
109.439833
 20
90.541304
 11
109.436797
 21
90.474912
  0
LINE
  8
CSLAYER4
  6
CONTINUOUS
 62
     7
 10
109.436797
 20
90.474912
 11
109.433282
 21
90.408273
  0
LINE
  8
CSLAYER4
  6
CONTINUOUS
 62
     7
 10
109.433282
 20
90.408273
 11
109.429258
 21
90.341455
  0
LINE
  8
CSLAYER4
  6
CONTINUOUS
 62
     7
 10
109.429258
 20
90.341455
 11
109.424699
 21
90.274514
  0
LINE
  8
CSLAYER4
  6
CONTINUOUS
 62
     7
 10
109.424699
 20
90.274514
 11
109.419604
 21
90.207525
  0
LINE
  8
CSLAYER4
  6
CONTINUOUS
 62
     7
 10
109.419604
 20
90.207525
 11
109.413946
 21
90.140550
  0
LINE
  8
CSLAYER4
  6
CONTINUOUS
 62
     7
 10
109.413946
 20
90.140550
 11
109.407684
 21
90.073643
  0
LINE
  8
CSLAYER4
  6
CONTINUOUS
 62
     7
 10
109.407684
 20
90.073643
 11
109.400804
 21
90.006873
  0
LINE
  8
CSLAYER4
  6
CONTINUOUS
 62
     7
 10
109.400804
 20
90.006873
 11
109.393306
 21
89.940310
  0
LINE
  8
CSLAYER4
  6
CONTINUOUS
 62
     7
 10
109.393306
 20
89.940310
 11
109.385134
 21
89.874000
  0
LINE
  8
CSLAYER4
  6
CONTINUOUS
 62
     7
 10
109.385134
 20
89.874000
 11
109.376290
 21
89.808021
  0
LINE
  8
CSLAYER4
  6
CONTINUOUS
 62
     7
 10
109.376290
 20
89.808021
 11
109.366746
 21
89.742432
  0
LINE
  8
CSLAYER4
  6
CONTINUOUS
 62
     7
 10
109.366746
 20
89.742432
 11
109.356447
 21
89.677091
  0
LINE
  8
CSLAYER4
  6
CONTINUOUS
 62
     7
 10
109.356447
 20
89.677091
 11
109.345254
 21
89.611448
  0
LINE
  8
CSLAYER4
  6
CONTINUOUS
 62
     7
 10
109.345254
 20
89.611448
 11
109.333114
 21
89.545578
  0
LINE
  8
CSLAYER4
  6
CONTINUOUS
 62
     7
 10
109.333114
 20
89.545578
 11
109.319986
 21
89.479626
  0
LINE
  8
CSLAYER4
  6
CONTINUOUS
 62
     7
 10
109.319986
 20
89.479626
 11
109.305813
 21
89.413722
  0
LINE
  8
CSLAYER4
  6
CONTINUOUS
 62
     7
 10
109.305813
 20
89.413722
 11
109.290570
 21
89.347996
  0
LINE
  8
CSLAYER4
  6
CONTINUOUS
 62
     7
 10
109.290570
 20
89.347996
 11
109.274186
 21
89.282600
  0
LINE
  8
CSLAYER4
  6
CONTINUOUS
 62
     7
 10
109.274186
 20
89.282600
 11
109.256649
 21
89.217650
  0
LINE
  8
CSLAYER4
  6
CONTINUOUS
 62
     7
 10
109.256649
 20
89.217650
 11
109.237890
 21
89.153297
  0
LINE
  8
CSLAYER4
  6
CONTINUOUS
 62
     7
 10
109.237890
 20
89.153297
 11
109.217881
 21
89.089673
  0
LINE
  8
CSLAYER4
  6
CONTINUOUS
 62
     7
 10
109.217881
 20
89.089673
 11
109.196568
 21
89.026907
  0
LINE
  8
CSLAYER4
  6
CONTINUOUS
 62
     7
 10
107.264856
 20
88.254224
 11
107.299408
 21
88.191252
  0
LINE
  8
CSLAYER4
  6
CONTINUOUS
 62
     7
 10
107.299408
 20
88.191252
 11
107.335525
 21
88.128596
  0
LINE
  8
CSLAYER4
  6
CONTINUOUS
 62
     7
 10
107.335525
 20
88.128596
 11
107.373235
 21
88.066489
  0
LINE
  8
CSLAYER4
  6
CONTINUOUS
 62
     7
 10
107.373235
 20
88.066489
 11
107.412567
 21
88.005137
  0
LINE
  8
CSLAYER4
  6
CONTINUOUS
 62
     7
 10
107.412567
 20
88.005137
 11
107.453546
 21
87.944774
  0
LINE
  8
CSLAYER4
  6
CONTINUOUS
 62
     7
 10
107.453546
 20
87.944774
 11
107.496200
 21
87.885612
  0
LINE
  8
CSLAYER4
  6
CONTINUOUS
 62
     7
 10
107.496200
 20
87.885612
 11
107.540557
 21
87.827865
  0
LINE
  8
CSLAYER4
  6
CONTINUOUS
 62
     7
 10
107.540557
 20
87.827865
 11
107.586645
 21
87.771767
  0
LINE
  8
CSLAYER4
  6
CONTINUOUS
 62
     7
 10
107.586645
 20
87.771767
 11
107.634504
 21
87.717522
  0
LINE
  8
CSLAYER4
  6
CONTINUOUS
 62
     7
 10
107.634504
 20
87.717522
 11
107.684163
 21
87.665364
  0
LINE
  8
CSLAYER4
  6
CONTINUOUS
 62
     7
 10
107.684163
 20
87.665364
 11
107.735634
 21
87.615500
  0
LINE
  8
CSLAYER4
  6
CONTINUOUS
 62
     7
 10
107.735634
 20
87.615500
 11
107.788999
 21
87.568115
  0
LINE
  8
CSLAYER4
  6
CONTINUOUS
 62
     7
 10
107.788999
 20
87.568115
 11
107.844316
 21
87.523407
  0
LINE
  8
CSLAYER4
  6
CONTINUOUS
 62
     7
 10
107.844316
 20
87.523407
 11
107.901609
 21
87.481590
  0
LINE
  8
CSLAYER4
  6
CONTINUOUS
 62
     7
 10
107.901609
 20
87.481590
 11
107.960949
 21
87.442891
  0
LINE
  8
CSLAYER4
  6
CONTINUOUS
 62
     7
 10
107.960949
 20
87.442891
 11
108.022349
 21
87.407529
  0
LINE
  8
CSLAYER4
  6
CONTINUOUS
 62
     7
 10
108.022349
 20
87.407529
 11
108.085850
 21
87.375723
  0
LINE
  8
CSLAYER4
  6
CONTINUOUS
 62
     7
 10
108.085850
 20
87.375723
 11
108.151384
 21
87.347736
  0
LINE
  8
CSLAYER4
  6
CONTINUOUS
 62
     7
 10
108.151384
 20
87.347736
 11
108.218029
 21
87.324074
  0
LINE
  8
CSLAYER4
  6
CONTINUOUS
 62
     7
 10
108.218029
 20
87.324074
 11
108.285568
 21
87.304800
  0
LINE
  8
CSLAYER4
  6
CONTINUOUS
 62
     7
 10
108.285568
 20
87.304800
 11
108.353971
 21
87.289872
  0
LINE
  8
CSLAYER4
  6
CONTINUOUS
 62
     7
 10
108.353971
 20
87.289872
 11
108.423254
 21
87.279257
  0
LINE
  8
CSLAYER4
  6
CONTINUOUS
 62
     7
 10
108.423254
 20
87.279257
 11
108.493388
 21
87.272919
  0
LINE
  8
CSLAYER4
  6
CONTINUOUS
 62
     7
 10
108.493388
 20
87.272919
 11
108.564360
 21
87.270811
  0
LINE
  8
CSLAYER4
  6
CONTINUOUS
 62
     7
 10
108.564360
 20
87.270811
 11
108.638778
 21
87.273084
  0
LINE
  8
CSLAYER4
  6
CONTINUOUS
 62
     7
 10
108.638778
 20
87.273084
 11
108.712634
 21
87.279977
  0
LINE
  8
CSLAYER4
  6
CONTINUOUS
 62
     7
 10
108.712634
 20
87.279977
 11
108.785885
 21
87.291623
  0
LINE
  8
CSLAYER4
  6
CONTINUOUS
 62
     7
 10
108.785885
 20
87.291623
 11
108.858491
 21
87.308137
  0
LINE
  8
CSLAYER4
  6
CONTINUOUS
 62
     7
 10
108.858491
 20
87.308137
 11
108.929861
 21
87.329450
  0
LINE
  8
CSLAYER4
  6
CONTINUOUS
 62
     7
 10
108.929861
 20
87.329450
 11
108.999418
 21
87.355337
  0
LINE
  8
CSLAYER4
  6
CONTINUOUS
 62
     7
 10
108.999418
 20
87.355337
 11
109.067190
 21
87.385686
  0
LINE
  8
CSLAYER4
  6
CONTINUOUS
 62
     7
 10
109.067190
 20
87.385686
 11
109.133191
 21
87.420383
  0
LINE
  8
CSLAYER4
  6
CONTINUOUS
 62
     7
 10
109.133191
 20
87.420383
 11
109.197090
 21
87.459082
  0
LINE
  8
CSLAYER4
  6
CONTINUOUS
 62
     7
 10
109.197090
 20
87.459082
 11
109.258586
 21
87.501338
  0
LINE
  8
CSLAYER4
  6
CONTINUOUS
 62
     7
 10
109.258586
 20
87.501338
 11
109.317692
 21
87.546856
  0
LINE
  8
CSLAYER4
  6
CONTINUOUS
 62
     7
 10
109.317692
 20
87.546856
 11
109.374478
 21
87.595368
  0
LINE
  8
CSLAYER4
  6
CONTINUOUS
 62
     7
 10
109.374478
 20
87.595368
 11
109.428984
 21
87.646578
  0
LINE
  8
CSLAYER4
  6
CONTINUOUS
 62
     7
 10
109.428984
 20
87.646578
 11
109.481251
 21
87.700225
  0
LINE
  8
CSLAYER4
  6
CONTINUOUS
 62
     7
 10
109.481251
 20
87.700225
 11
109.531321
 21
87.756008
  0
LINE
  8
CSLAYER4
  6
CONTINUOUS
 62
     7
 10
109.531321
 20
87.756008
 11
109.579263
 21
87.813666
  0
LINE
  8
CSLAYER4
  6
CONTINUOUS
 62
     7
 10
109.579263
 20
87.813666
 11
109.625158
 21
87.872978
  0
LINE
  8
CSLAYER4
  6
CONTINUOUS
 62
     7
 10
109.625158
 20
87.872978
 11
109.669269
 21
87.934001
  0
LINE
  8
CSLAYER4
  6
CONTINUOUS
 62
     7
 10
109.669269
 20
87.934001
 11
109.711675
 21
87.996547
  0
LINE
  8
CSLAYER4
  6
CONTINUOUS
 62
     7
 10
109.711675
 20
87.996547
 11
109.752380
 21
88.060391
  0
LINE
  8
CSLAYER4
  6
CONTINUOUS
 62
     7
 10
109.752380
 20
88.060391
 11
109.791436
 21
88.125327
  0
LINE
  8
CSLAYER4
  6
CONTINUOUS
 62
     7
 10
109.791436
 20
88.125327
 11
109.828872
 21
88.191129
  0
LINE
  8
CSLAYER4
  6
CONTINUOUS
 62
     7
 10
109.828872
 20
88.191129
 11
109.864715
 21
88.257582
  0
LINE
  8
CSLAYER4
  6
CONTINUOUS
 62
     7
 10
109.864715
 20
88.257582
 11
109.899006
 21
88.324469
  0
LINE
  8
CSLAYER4
  6
CONTINUOUS
 62
     7
 10
109.899006
 20
88.324469
 11
109.949749
 21
88.433823
  0
LINE
  8
CSLAYER4
  6
CONTINUOUS
 62
     7
 10
109.949749
 20
88.433823
 11
109.997128
 21
88.544964
  0
LINE
  8
CSLAYER4
  6
CONTINUOUS
 62
     7
 10
109.997128
 20
88.544964
 11
110.041252
 21
88.657745
  0
LINE
  8
CSLAYER4
  6
CONTINUOUS
 62
     7
 10
110.041252
 20
88.657745
 11
110.082231
 21
88.772024
  0
LINE
  8
CSLAYER4
  6
CONTINUOUS
 62
     7
 10
110.082231
 20
88.772024
 11
110.120134
 21
88.887648
  0
LINE
  8
CSLAYER4
  6
CONTINUOUS
 62
     7
 10
110.120134
 20
88.887648
 11
110.155084
 21
89.004460
  0
LINE
  8
CSLAYER4
  6
CONTINUOUS
 62
     7
 10
110.155084
 20
89.004460
 11
110.187178
 21
89.122309
  0
LINE
  8
CSLAYER4
  6
CONTINUOUS
 62
     7
 10
110.187178
 20
89.122309
 11
110.216511
 21
89.241057
  0
LINE
  8
CSLAYER4
  6
CONTINUOUS
 62
     7
 10
110.216511
 20
89.241057
 11
110.243181
 21
89.360548
  0
LINE
  8
CSLAYER4
  6
CONTINUOUS
 62
     7
 10
110.243181
 20
89.360548
 11
110.267281
 21
89.480635
  0
LINE
  8
CSLAYER4
  6
CONTINUOUS
 62
     7
 10
110.267281
 20
89.480635
 11
110.288925
 21
89.601162
  0
LINE
  8
CSLAYER4
  6
CONTINUOUS
 62
     7
 10
110.288925
 20
89.601162
 11
110.308206
 21
89.721984
  0
LINE
  8
CSLAYER4
  6
CONTINUOUS
 62
     7
 10
110.308206
 20
89.721984
 11
110.325221
 21
89.842950
  0
LINE
  8
CSLAYER4
  6
CONTINUOUS
 62
     7
 10
110.325221
 20
89.842950
 11
110.340066
 21
89.963910
  0
LINE
  8
CSLAYER4
  6
CONTINUOUS
 62
     7
 10
110.340066
 20
89.963910
 11
110.352852
 21
90.084711
  0
LINE
  8
CSLAYER4
  6
CONTINUOUS
 62
     7
 10
110.352852
 20
90.084711
 11
110.363673
 21
90.205204
  0
LINE
  8
CSLAYER4
  6
CONTINUOUS
 62
     7
 10
110.363673
 20
90.205204
 11
110.372627
 21
90.325319
  0
LINE
  8
CSLAYER4
  6
CONTINUOUS
 62
     7
 10
110.372627
 20
90.325319
 11
110.379864
 21
90.445599
  0
LINE
  8
CSLAYER4
  6
CONTINUOUS
 62
     7
 10
110.379864
 20
90.445599
 11
110.385439
 21
90.566132
  0
LINE
  8
CSLAYER4
  6
CONTINUOUS
 62
     7
 10
110.385439
 20
90.566132
 11
110.389422
 21
90.686831
  0
LINE
  8
CSLAYER4
  6
CONTINUOUS
 62
     7
 10
110.389422
 20
90.686831
 11
110.391880
 21
90.807591
  0
LINE
  8
CSLAYER4
  6
CONTINUOUS
 62
     7
 10
110.391880
 20
90.807591
 11
110.392869
 21
90.928324
  0
LINE
  8
CSLAYER4
  6
CONTINUOUS
 62
     7
 10
110.392869
 20
90.928324
 11
110.392457
 21
91.048940
  0
LINE
  8
CSLAYER4
  6
CONTINUOUS
 62
     7
 10
110.392457
 20
91.048940
 11
110.390713
 21
91.169351
  0
LINE
  8
CSLAYER4
  6
CONTINUOUS
 62
     7
 10
110.390713
 20
91.169351
 11
110.387664
 21
91.278637
  0
LINE
  8
CSLAYER4
  6
CONTINUOUS
 62
     7
 10
110.387664
 20
91.278637
 11
110.383352
 21
91.388438
  0
LINE
  8
CSLAYER4
  6
CONTINUOUS
 62
     7
 10
110.383352
 20
91.388438
 11
110.377681
 21
91.498659
  0
LINE
  8
CSLAYER4
  6
CONTINUOUS
 62
     7
 10
110.377681
 20
91.498659
 11
110.370594
 21
91.609181
  0
LINE
  8
CSLAYER4
  6
CONTINUOUS
 62
     7
 10
110.370594
 20
91.609181
 11
110.362039
 21
91.719917
  0
LINE
  8
CSLAYER4
  6
CONTINUOUS
 62
     7
 10
110.362039
 20
91.719917
 11
110.351945
 21
91.830762
  0
LINE
  8
CSLAYER4
  6
CONTINUOUS
 62
     7
 10
110.351945
 20
91.830762
 11
110.340231
 21
91.941607
  0
LINE
  8
CSLAYER4
  6
CONTINUOUS
 62
     7
 10
110.340231
 20
91.941607
 11
110.326855
 21
92.052356
  0
LINE
  8
CSLAYER4
  6
CONTINUOUS
 62
     7
 10
110.326855
 20
92.052356
 11
110.311722
 21
92.162906
  0
LINE
  8
CSLAYER4
  6
CONTINUOUS
 62
     7
 10
110.311722
 20
92.162906
 11
110.294802
 21
92.273160
  0
LINE
  8
CSLAYER4
  6
CONTINUOUS
 62
     7
 10
110.294802
 20
92.273160
 11
110.276002
 21
92.383004
  0
LINE
  8
CSLAYER4
  6
CONTINUOUS
 62
     7
 10
110.276002
 20
92.383004
 11
110.255265
 21
92.492345
  0
LINE
  8
CSLAYER4
  6
CONTINUOUS
 62
     7
 10
110.255265
 20
92.492345
 11
110.232523
 21
92.601075
  0
LINE
  8
CSLAYER4
  6
CONTINUOUS
 62
     7
 10
110.232523
 20
92.601075
 11
110.207709
 21
92.709098
  0
LINE
  8
CSLAYER4
  6
CONTINUOUS
 62
     7
 10
110.207709
 20
92.709098
 11
110.180764
 21
92.816304
  0
LINE
  8
CSLAYER4
  6
CONTINUOUS
 62
     7
 10
110.180764
 20
92.816304
 11
110.151623
 21
92.922597
  0
LINE
  8
CSLAYER4
  6
CONTINUOUS
 62
     7
 10
110.151623
 20
92.922597
 11
110.120216
 21
93.027880
  0
LINE
  8
CSLAYER4
  6
CONTINUOUS
 62
     7
 10
110.120216
 20
93.027880
 11
110.086474
 21
93.132038
  0
LINE
  8
CSLAYER4
  6
CONTINUOUS
 62
     7
 10
110.086474
 20
93.132038
 11
110.050315
 21
93.235068
  0
LINE
  8
CSLAYER4
  6
CONTINUOUS
 62
     7
 10
110.050315
 20
93.235068
 11
110.011548
 21
93.337118
  0
LINE
  8
CSLAYER4
  6
CONTINUOUS
 62
     7
 10
110.011548
 20
93.337118
 11
109.970101
 21
93.438089
  0
LINE
  8
CSLAYER4
  6
CONTINUOUS
 62
     7
 10
109.970101
 20
93.438089
 11
109.925868
 21
93.537858
  0
LINE
  8
CSLAYER4
  6
CONTINUOUS
 62
     7
 10
109.925868
 20
93.537858
 11
109.878792
 21
93.636282
  0
LINE
  8
CSLAYER4
  6
CONTINUOUS
 62
     7
 10
109.878792
 20
93.636282
 11
109.828762
 21
93.733250
  0
LINE
  8
CSLAYER4
  6
CONTINUOUS
 62
     7
 10
109.828762
 20
93.733250
 11
109.794828
 21
93.792219
  0
LINE
  8
CSLAYER4
  6
CONTINUOUS
 62
     7
 10
109.794828
 20
93.792219
 11
109.759356
 21
93.850564
  0
LINE
  8
CSLAYER4
  6
CONTINUOUS
 62
     7
 10
109.759356
 20
93.850564
 11
109.722305
 21
93.908105
  0
LINE
  8
CSLAYER4
  6
CONTINUOUS
 62
     7
 10
109.722305
 20
93.908105
 11
109.683633
 21
93.964650
  0
LINE
  8
CSLAYER4
  6
CONTINUOUS
 62
     7
 10
109.683633
 20
93.964650
 11
109.643299
 21
94.020021
  0
LINE
  8
CSLAYER4
  6
CONTINUOUS
 62
     7
 10
109.643299
 20
94.020021
 11
109.601277
 21
94.074033
  0
LINE
  8
CSLAYER4
  6
CONTINUOUS
 62
     7
 10
109.601277
 20
94.074033
 11
109.557510
 21
94.126506
  0
LINE
  8
CSLAYER4
  6
CONTINUOUS
 62
     7
 10
109.557510
 20
94.126506
 11
109.511999
 21
94.177256
  0
LINE
  8
CSLAYER4
  6
CONTINUOUS
 62
     7
 10
109.511999
 20
94.177256
 11
109.464675
 21
94.226097
  0
LINE
  8
CSLAYER4
  6
CONTINUOUS
 62
     7
 10
109.464675
 20
94.226097
 11
109.415526
 21
94.272837
  0
LINE
  8
CSLAYER4
  6
CONTINUOUS
 62
     7
 10
109.415526
 20
94.272837
 11
109.364617
 21
94.317201
  0
LINE
  8
CSLAYER4
  6
CONTINUOUS
 62
     7
 10
109.364617
 20
94.317201
 11
109.311966
 21
94.359032
  0
LINE
  8
CSLAYER4
  6
CONTINUOUS
 62
     7
 10
109.311966
 20
94.359032
 11
109.257514
 21
94.398177
  0
LINE
  8
CSLAYER4
  6
CONTINUOUS
 62
     7
 10
109.257514
 20
94.398177
 11
109.201237
 21
94.434501
  0
LINE
  8
CSLAYER4
  6
CONTINUOUS
 62
     7
 10
109.201237
 20
94.434501
 11
109.143078
 21
94.467851
  0
LINE
  8
CSLAYER4
  6
CONTINUOUS
 62
     7
 10
109.143078
 20
94.467851
 11
109.083038
 21
94.498091
  0
LINE
  8
CSLAYER4
  6
CONTINUOUS
 62
     7
 10
109.083038
 20
94.498091
 11
109.021075
 21
94.525062
  0
LINE
  8
CSLAYER4
  6
CONTINUOUS
 62
     7
 10
109.021075
 20
94.525062
 11
108.958027
 21
94.548340
  0
LINE
  8
CSLAYER4
  6
CONTINUOUS
 62
     7
 10
108.958027
 20
94.548340
 11
108.894196
 21
94.567854
  0
LINE
  8
CSLAYER4
  6
CONTINUOUS
 62
     7
 10
108.894196
 20
94.567854
 11
108.829624
 21
94.583675
  0
LINE
  8
CSLAYER4
  6
CONTINUOUS
 62
     7
 10
108.829624
 20
94.583675
 11
108.764338
 21
94.595862
  0
LINE
  8
CSLAYER4
  6
CONTINUOUS
 62
     7
 10
108.764338
 20
94.595862
 11
108.698352
 21
94.604480
  0
LINE
  8
CSLAYER4
  6
CONTINUOUS
 62
     7
 10
108.698352
 20
94.604480
 11
108.631678
 21
94.609602
  0
LINE
  8
CSLAYER4
  6
CONTINUOUS
 62
     7
 10
108.631678
 20
94.609602
 11
108.564360
 21
94.611299
  0
LINE
  8
CSLAYER4
  6
CONTINUOUS
 62
     7
 10
108.564360
 20
94.611299
 11
108.492660
 21
94.608861
  0
LINE
  8
CSLAYER4
  6
CONTINUOUS
 62
     7
 10
108.492660
 20
94.608861
 11
108.421606
 21
94.601534
  0
LINE
  8
CSLAYER4
  6
CONTINUOUS
 62
     7
 10
108.421606
 20
94.601534
 11
108.351184
 21
94.589264
  0
LINE
  8
CSLAYER4
  6
CONTINUOUS
 62
     7
 10
108.351184
 20
94.589264
 11
108.281448
 21
94.572015
  0
LINE
  8
CSLAYER4
  6
CONTINUOUS
 62
     7
 10
108.281448
 20
94.572015
 11
108.213195
 21
94.550049
  0
LINE
  8
CSLAYER4
  6
CONTINUOUS
 62
     7
 10
108.213195
 20
94.550049
 11
108.146673
 21
94.523614
  0
LINE
  8
CSLAYER4
  6
CONTINUOUS
 62
     7
 10
108.146673
 20
94.523614
 11
108.081881
 21
94.492921
  0
LINE
  8
CSLAYER4
  6
CONTINUOUS
 62
     7
 10
108.081881
 20
94.492921
 11
108.018834
 21
94.458183
  0
LINE
  8
CSLAYER4
  6
CONTINUOUS
 62
     7
 10
108.018834
 20
94.458183
 11
107.957805
 21
94.419821
  0
LINE
  8
CSLAYER4
  6
CONTINUOUS
 62
     7
 10
107.957805
 20
94.419821
 11
107.898835
 21
94.378169
  0
LINE
  8
CSLAYER4
  6
CONTINUOUS
 62
     7
 10
107.898835
 20
94.378169
 11
107.841926
 21
94.333530
  0
LINE
  8
CSLAYER4
  6
CONTINUOUS
 62
     7
 10
107.841926
 20
94.333530
 11
107.787036
 21
94.286199
  0
LINE
  8
CSLAYER4
  6
CONTINUOUS
 62
     7
 10
107.787036
 20
94.286199
 11
107.734164
 21
94.236493
  0
LINE
  8
CSLAYER4
  6
CONTINUOUS
 62
     7
 10
107.734164
 20
94.236493
 11
107.683270
 21
94.184706
  0
LINE
  8
CSLAYER4
  6
CONTINUOUS
 62
     7
 10
107.683270
 20
94.184706
 11
107.634339
 21
94.131148
  0
LINE
  8
CSLAYER4
  6
CONTINUOUS
 62
     7
 10
107.634339
 20
94.131148
 11
107.587359
 21
94.076120
  0
LINE
  8
CSLAYER4
  6
CONTINUOUS
 62
     7
 10
107.587359
 20
94.076120
 11
107.542178
 21
94.019739
  0
LINE
  8
CSLAYER4
  6
CONTINUOUS
 62
     7
 10
107.542178
 20
94.019739
 11
107.498411
 21
93.961821
  0
LINE
  8
CSLAYER4
  6
CONTINUOUS
 62
     7
 10
107.498411
 20
93.961821
 11
107.456045
 21
93.902543
  0
LINE
  8
CSLAYER4
  6
CONTINUOUS
 62
     7
 10
107.456045
 20
93.902543
 11
107.415080
 21
93.842105
  0
LINE
  8
CSLAYER4
  6
CONTINUOUS
 62
     7
 10
107.415080
 20
93.842105
 11
107.375488
 21
93.780705
  0
LINE
  8
CSLAYER4
  6
CONTINUOUS
 62
     7
 10
107.375488
 20
93.780705
 11
107.337255
 21
93.718550
  0
LINE
  8
CSLAYER4
  6
CONTINUOUS
 62
     7
 10
107.337255
 20
93.718550
 11
107.300383
 21
93.655838
  0
LINE
  8
CSLAYER4
  6
CONTINUOUS
 62
     7
 10
107.300383
 20
93.655838
 11
107.264856
 21
93.592763
  0
LINE
  8
CSLAYER4
  6
CONTINUOUS
 62
     7
 10
107.264856
 20
93.592763
 11
107.214772
 21
93.488859
  0
LINE
  8
CSLAYER4
  6
CONTINUOUS
 62
     7
 10
107.214772
 20
93.488859
 11
107.167572
 21
93.383405
  0
LINE
  8
CSLAYER4
  6
CONTINUOUS
 62
     7
 10
107.167572
 20
93.383405
 11
107.123173
 21
93.276528
  0
LINE
  8
CSLAYER4
  6
CONTINUOUS
 62
     7
 10
107.123173
 20
93.276528
 11
107.081508
 21
93.168341
  0
LINE
  8
CSLAYER4
  6
CONTINUOUS
 62
     7
 10
107.081508
 20
93.168341
 11
107.042479
 21
93.058958
  0
LINE
  8
CSLAYER4
  6
CONTINUOUS
 62
     7
 10
107.042479
 20
93.058958
 11
107.006031
 21
92.948490
  0
LINE
  8
CSLAYER4
  6
CONTINUOUS
 62
     7
 10
107.006031
 20
92.948490
 11
106.972084
 21
92.837068
  0
LINE
  8
CSLAYER4
  6
CONTINUOUS
 62
     7
 10
106.972084
 20
92.837068
 11
106.940566
 21
92.724795
  0
LINE
  8
CSLAYER4
  6
CONTINUOUS
 62
     7
 10
106.940566
 20
92.724795
 11
106.911384
 21
92.611787
  0
LINE
  8
CSLAYER4
  6
CONTINUOUS
 62
     7
 10
106.911384
 20
92.611787
 11
106.884481
 21
92.498174
  0
LINE
  8
CSLAYER4
  6
CONTINUOUS
 62
     7
 10
106.884481
 20
92.498174
 11
106.859762
 21
92.384061
  0
LINE
  8
CSLAYER4
  6
CONTINUOUS
 62
     7
 10
106.859762
 20
92.384061
 11
106.837158
 21
92.269563
  0
LINE
  8
CSLAYER4
  6
CONTINUOUS
 62
     7
 10
106.837158
 20
92.269563
 11
106.816600
 21
92.154804
  0
LINE
  8
CSLAYER4
  6
CONTINUOUS
 62
     7
 10
106.816600
 20
92.154804
 11
106.797991
 21
92.039894
  0
LINE
  8
CSLAYER4
  6
CONTINUOUS
 62
     7
 10
106.797991
 20
92.039894
 11
106.781278
 21
91.924956
  0
LINE
  8
CSLAYER4
  6
CONTINUOUS
 62
     7
 10
106.781278
 20
91.924956
 11
106.766379
 21
91.810101
  0
LINE
  8
CSLAYER4
  6
CONTINUOUS
 62
     7
 10
106.766379
 20
91.810101
 11
106.753222
 21
91.695424
  0
LINE
  8
CSLAYER4
  6
CONTINUOUS
 62
     7
 10
106.753222
 20
91.695424
 11
106.741659
 21
91.580582
  0
LINE
  8
CSLAYER4
  6
CONTINUOUS
 62
     7
 10
106.741659
 20
91.580582
 11
106.731648
 21
91.465452
  0
LINE
  8
CSLAYER4
  6
CONTINUOUS
 62
     7
 10
106.731648
 20
91.465452
 11
106.723134
 21
91.350131
  0
LINE
  8
CSLAYER4
  6
CONTINUOUS
 62
     7
 10
106.723134
 20
91.350131
 11
106.716047
 21
91.234678
  0
LINE
  8
CSLAYER4
  6
CONTINUOUS
 62
     7
 10
106.716047
 20
91.234678
 11
106.710348
 21
91.119184
  0
LINE
  8
CSLAYER4
  6
CONTINUOUS
 62
     7
 10
106.710348
 20
91.119184
 11
106.705981
 21
91.003725
  0
LINE
  8
CSLAYER4
  6
CONTINUOUS
 62
     7
 10
106.705981
 20
91.003725
 11
106.702905
 21
90.888375
  0
LINE
  8
CSLAYER4
  6
CONTINUOUS
 62
     7
 10
106.702905
 20
90.888375
 11
106.705954
 21
90.776198
  0
LINE
  8
CSLAYER4
  6
CONTINUOUS
 62
     7
 10
106.705954
 20
90.776198
 11
106.710293
 21
90.663533
  0
LINE
  8
CSLAYER4
  6
CONTINUOUS
 62
     7
 10
106.710293
 20
90.663533
 11
106.715992
 21
90.550457
  0
LINE
  8
CSLAYER4
  6
CONTINUOUS
 62
     7
 10
106.715992
 20
90.550457
 11
106.723106
 21
90.437084
  0
LINE
  8
CSLAYER4
  6
CONTINUOUS
 62
     7
 10
106.723106
 20
90.437084
 11
106.731689
 21
90.323513
  0
LINE
  8
CSLAYER4
  6
CONTINUOUS
 62
     7
 10
106.731689
 20
90.323513
 11
106.741824
 21
90.209832
  0
LINE
  8
CSLAYER4
  6
CONTINUOUS
 62
     7
 10
106.741824
 20
90.209832
 11
106.753579
 21
90.096151
  0
LINE
  8
CSLAYER4
  6
CONTINUOUS
 62
     7
 10
106.753579
 20
90.096151
 11
106.766997
 21
89.982573
  0
LINE
  8
CSLAYER4
  6
CONTINUOUS
 62
     7
 10
106.766997
 20
89.982573
 11
106.782157
 21
89.869187
  0
LINE
  8
CSLAYER4
  6
CONTINUOUS
 62
     7
 10
106.782157
 20
89.869187
 11
106.799118
 21
89.756097
  0
LINE
  8
CSLAYER4
  6
CONTINUOUS
 62
     7
 10
106.799118
 20
89.756097
 11
106.817959
 21
89.643404
  0
LINE
  8
CSLAYER4
  6
CONTINUOUS
 62
     7
 10
106.817959
 20
89.643404
 11
106.838724
 21
89.531200
  0
LINE
  8
CSLAYER4
  6
CONTINUOUS
 62
     7
 10
106.838724
 20
89.531200
 11
106.861492
 21
89.419599
  0
LINE
  8
CSLAYER4
  6
CONTINUOUS
 62
     7
 10
106.861492
 20
89.419599
 11
106.886322
 21
89.308685
  0
LINE
  8
CSLAYER4
  6
CONTINUOUS
 62
     7
 10
106.886322
 20
89.308685
 11
106.913266
 21
89.198575
  0
LINE
  8
CSLAYER4
  6
CONTINUOUS
 62
     7
 10
106.913266
 20
89.198575
 11
106.942420
 21
89.089350
  0
LINE
  8
CSLAYER4
  6
CONTINUOUS
 62
     7
 10
106.942420
 20
89.089350
 11
106.973814
 21
88.981121
  0
LINE
  8
CSLAYER4
  6
CONTINUOUS
 62
     7
 10
106.973814
 20
88.981121
 11
107.007542
 21
88.873984
  0
LINE
  8
CSLAYER4
  6
CONTINUOUS
 62
     7
 10
107.007542
 20
88.873984
 11
107.043673
 21
88.767952
  0
LINE
  8
CSLAYER4
  6
CONTINUOUS
 62
     7
 10
107.043673
 20
88.767952
 11
107.082387
 21
88.662868
  0
LINE
  8
CSLAYER4
  6
CONTINUOUS
 62
     7
 10
107.082387
 20
88.662868
 11
107.123791
 21
88.558827
  0
LINE
  8
CSLAYER4
  6
CONTINUOUS
 62
     7
 10
107.123791
 20
88.558827
 11
107.167942
 21
88.455954
  0
LINE
  8
CSLAYER4
  6
CONTINUOUS
 62
     7
 10
107.167942
 20
88.455954
 11
107.214936
 21
88.354379
  0
LINE
  8
CSLAYER4
  6
CONTINUOUS
 62
     7
 10
107.214936
 20
88.354379
 11
107.264856
 21
88.254224
  0
ENDBLK
  8
0
  0
BLOCK
  8
CSLAYER1
  2
BLKF0005
 70
   64
 10
0.0
 20
0.0
 30
0.0
  0
LINE
  8
CSLAYER4
  6
CONTINUOUS
 62
     7
 10
131.073348
 20
87.407975
 11
131.162667
 21
87.382308
  0
LINE
  8
CSLAYER4
  6
CONTINUOUS
 62
     7
 10
131.162667
 20
87.382308
 11
131.252535
 21
87.359333
  0
LINE
  8
CSLAYER4
  6
CONTINUOUS
 62
     7
 10
131.252535
 20
87.359333
 11
131.342925
 21
87.339159
  0
LINE
  8
CSLAYER4
  6
CONTINUOUS
 62
     7
 10
131.342925
 20
87.339159
 11
131.433816
 21
87.321897
  0
LINE
  8
CSLAYER4
  6
CONTINUOUS
 62
     7
 10
131.433816
 20
87.321897
 11
131.525175
 21
87.307670
  0
LINE
  8
CSLAYER4
  6
CONTINUOUS
 62
     7
 10
131.525175
 20
87.307670
 11
131.616965
 21
87.296574
  0
LINE
  8
CSLAYER4
  6
CONTINUOUS
 62
     7
 10
131.616965
 20
87.296574
 11
131.709168
 21
87.288732
  0
LINE
  8
CSLAYER4
  6
CONTINUOUS
 62
     7
 10
131.709168
 20
87.288732
 11
131.801748
 21
87.284249
  0
LINE
  8
CSLAYER4
  6
CONTINUOUS
 62
     7
 10
131.801748
 20
87.284249
 11
131.894686
 21
87.283232
  0
LINE
  8
CSLAYER4
  6
CONTINUOUS
 62
     7
 10
131.894686
 20
87.283232
 11
131.987500
 21
87.285780
  0
LINE
  8
CSLAYER4
  6
CONTINUOUS
 62
     7
 10
131.987500
 20
87.285780
 11
132.079696
 21
87.291905
  0
LINE
  8
CSLAYER4
  6
CONTINUOUS
 62
     7
 10
132.079696
 20
87.291905
 11
132.171280
 21
87.301607
  0
LINE
  8
CSLAYER4
  6
CONTINUOUS
 62
     7
 10
132.171280
 20
87.301607
 11
132.262247
 21
87.314900
  0
LINE
  8
CSLAYER4
  6
CONTINUOUS
 62
     7
 10
132.262247
 20
87.314900
 11
132.352610
 21
87.331778
  0
LINE
  8
CSLAYER4
  6
CONTINUOUS
 62
     7
 10
132.352610
 20
87.331778
 11
132.442354
 21
87.352247
  0
LINE
  8
CSLAYER4
  6
CONTINUOUS
 62
     7
 10
132.442354
 20
87.352247
 11
132.531467
 21
87.376307
  0
LINE
  8
CSLAYER4
  6
CONTINUOUS
 62
     7
 10
132.531467
 20
87.376307
 11
132.619976
 21
87.403965
  0
LINE
  8
CSLAYER4
  6
CONTINUOUS
 62
     7
 10
132.619976
 20
87.403965
 11
132.707798
 21
87.435194
  0
LINE
  8
CSLAYER4
  6
CONTINUOUS
 62
     7
 10
132.707798
 20
87.435194
 11
132.794315
 21
87.469725
  0
LINE
  8
CSLAYER4
  6
CONTINUOUS
 62
     7
 10
132.794315
 20
87.469725
 11
132.879377
 21
87.507415
  0
LINE
  8
CSLAYER4
  6
CONTINUOUS
 62
     7
 10
132.879377
 20
87.507415
 11
132.963010
 21
87.548147
  0
LINE
  8
CSLAYER4
  6
CONTINUOUS
 62
     7
 10
132.963010
 20
87.548147
 11
133.045201
 21
87.591818
  0
LINE
  8
CSLAYER4
  6
CONTINUOUS
 62
     7
 10
133.045201
 20
87.591818
 11
133.125993
 21
87.638338
  0
LINE
  8
CSLAYER4
  6
CONTINUOUS
 62
     7
 10
133.125993
 20
87.638338
 11
133.205382
 21
87.687591
  0
LINE
  8
CSLAYER4
  6
CONTINUOUS
 62
     7
 10
133.205382
 20
87.687591
 11
133.239426
 21
87.709914
  0
LINE
  8
CSLAYER4
  6
CONTINUOUS
 62
     7
 10
133.239426
 20
87.709914
 11
133.272783
 21
87.733122
  0
LINE
  8
CSLAYER4
  6
CONTINUOUS
 62
     7
 10
133.272783
 20
87.733122
 11
133.305454
 21
87.757203
  0
LINE
  8
CSLAYER4
  6
CONTINUOUS
 62
     7
 10
133.305454
 20
87.757203
 11
133.337452
 21
87.782142
  0
LINE
  8
CSLAYER4
  6
CONTINUOUS
 62
     7
 10
133.337452
 20
87.782142
 11
133.368777
 21
87.807926
  0
LINE
  8
CSLAYER4
  6
CONTINUOUS
 62
     7
 10
133.368777
 20
87.807926
 11
133.399456
 21
87.834547
  0
LINE
  8
CSLAYER4
  6
CONTINUOUS
 62
     7
 10
133.399456
 20
87.834547
 11
133.429462
 21
87.861985
  0
LINE
  8
CSLAYER4
  6
CONTINUOUS
 62
     7
 10
133.429462
 20
87.861985
 11
133.458823
 21
87.890241
  0
LINE
  8
CSLAYER4
  6
CONTINUOUS
 62
     7
 10
133.458823
 20
87.890241
 11
133.487511
 21
87.919272
  0
LINE
  8
CSLAYER4
  6
CONTINUOUS
 62
     7
 10
133.487511
 20
87.919272
 11
133.515471
 21
87.948976
  0
LINE
  8
CSLAYER4
  6
CONTINUOUS
 62
     7
 10
133.515471
 20
87.948976
 11
133.542690
 21
87.979333
  0
LINE
  8
CSLAYER4
  6
CONTINUOUS
 62
     7
 10
133.542690
 20
87.979333
 11
133.569195
 21
88.010307
  0
LINE
  8
CSLAYER4
  6
CONTINUOUS
 62
     7
 10
133.569195
 20
88.010307
 11
133.594985
 21
88.041886
  0
LINE
  8
CSLAYER4
  6
CONTINUOUS
 62
     7
 10
133.594985
 20
88.041886
 11
133.620075
 21
88.074042
  0
LINE
  8
CSLAYER4
  6
CONTINUOUS
 62
     7
 10
133.620075
 20
88.074042
 11
133.644478
 21
88.106754
  0
LINE
  8
CSLAYER4
  6
CONTINUOUS
 62
     7
 10
133.644478
 20
88.106754
 11
133.668195
 21
88.139994
  0
LINE
  8
CSLAYER4
  6
CONTINUOUS
 62
     7
 10
133.668195
 20
88.139994
 11
133.691239
 21
88.173743
  0
LINE
  8
CSLAYER4
  6
CONTINUOUS
 62
     7
 10
133.691239
 20
88.173743
 11
133.713637
 21
88.207965
  0
LINE
  8
CSLAYER4
  6
CONTINUOUS
 62
     7
 10
133.713637
 20
88.207965
 11
133.735363
 21
88.242620
  0
LINE
  8
CSLAYER4
  6
CONTINUOUS
 62
     7
 10
133.735363
 20
88.242620
 11
133.756443
 21
88.277694
  0
LINE
  8
CSLAYER4
  6
CONTINUOUS
 62
     7
 10
133.756443
 20
88.277694
 11
133.776891
 21
88.313145
  0
LINE
  8
CSLAYER4
  6
CONTINUOUS
 62
     7
 10
133.776891
 20
88.313145
 11
133.796707
 21
88.348961
  0
LINE
  8
CSLAYER4
  6
CONTINUOUS
 62
     7
 10
133.796707
 20
88.348961
 11
133.815906
 21
88.385113
  0
LINE
  8
CSLAYER4
  6
CONTINUOUS
 62
     7
 10
133.815906
 20
88.385113
 11
133.834515
 21
88.421567
  0
LINE
  8
CSLAYER4
  6
CONTINUOUS
 62
     7
 10
133.834515
 20
88.421567
 11
133.853988
 21
88.461956
  0
LINE
  8
CSLAYER4
  6
CONTINUOUS
 62
     7
 10
133.853988
 20
88.461956
 11
133.872335
 21
88.502859
  0
LINE
  8
CSLAYER4
  6
CONTINUOUS
 62
     7
 10
133.872335
 20
88.502859
 11
133.889569
 21
88.544250
  0
LINE
  8
CSLAYER4
  6
CONTINUOUS
 62
     7
 10
133.889569
 20
88.544250
 11
133.905720
 21
88.586094
  0
LINE
  8
CSLAYER4
  6
CONTINUOUS
 62
     7
 10
133.905720
 20
88.586094
 11
133.920826
 21
88.628364
  0
LINE
  8
CSLAYER4
  6
CONTINUOUS
 62
     7
 10
133.920826
 20
88.628364
 11
133.934902
 21
88.671011
  0
LINE
  8
CSLAYER4
  6
CONTINUOUS
 62
     7
 10
133.934902
 20
88.671011
 11
133.947990
 21
88.714016
  0
LINE
  8
CSLAYER4
  6
CONTINUOUS
 62
     7
 10
133.947990
 20
88.714016
 11
133.960102
 21
88.757336
  0
LINE
  8
CSLAYER4
  6
CONTINUOUS
 62
     7
 10
133.960102
 20
88.757336
 11
133.971267
 21
88.800938
  0
LINE
  8
CSLAYER4
  6
CONTINUOUS
 62
     7
 10
133.971267
 20
88.800938
 11
133.981512
 21
88.844795
  0
LINE
  8
CSLAYER4
  6
CONTINUOUS
 62
     7
 10
133.981512
 20
88.844795
 11
133.990877
 21
88.888871
  0
LINE
  8
CSLAYER4
  6
CONTINUOUS
 62
     7
 10
133.990877
 20
88.888871
 11
133.999378
 21
88.933125
  0
LINE
  8
CSLAYER4
  6
CONTINUOUS
 62
     7
 10
133.999378
 20
88.933125
 11
134.007041
 21
88.977523
  0
LINE
  8
CSLAYER4
  6
CONTINUOUS
 62
     7
 10
134.007041
 20
88.977523
 11
134.013907
 21
89.022045
  0
LINE
  8
CSLAYER4
  6
CONTINUOUS
 62
     7
 10
134.013907
 20
89.022045
 11
134.019991
 21
89.066643
  0
LINE
  8
CSLAYER4
  6
CONTINUOUS
 62
     7
 10
134.019991
 20
89.066643
 11
134.025319
 21
89.111289
  0
LINE
  8
CSLAYER4
  6
CONTINUOUS
 62
     7
 10
134.025319
 20
89.111289
 11
134.029933
 21
89.155948
  0
LINE
  8
CSLAYER4
  6
CONTINUOUS
 62
     7
 10
134.029933
 20
89.155948
 11
134.033848
 21
89.200676
  0
LINE
  8
CSLAYER4
  6
CONTINUOUS
 62
     7
 10
134.033848
 20
89.200676
 11
134.037102
 21
89.245500
  0
LINE
  8
CSLAYER4
  6
CONTINUOUS
 62
     7
 10
134.037102
 20
89.245500
 11
134.039725
 21
89.290393
  0
LINE
  8
CSLAYER4
  6
CONTINUOUS
 62
     7
 10
134.039725
 20
89.290393
 11
134.041717
 21
89.335334
  0
LINE
  8
CSLAYER4
  6
CONTINUOUS
 62
     7
 10
134.041717
 20
89.335334
 11
134.043117
 21
89.380282
  0
LINE
  8
CSLAYER4
  6
CONTINUOUS
 62
     7
 10
134.043117
 20
89.380282
 11
134.043955
 21
89.425216
  0
LINE
  8
CSLAYER4
  6
CONTINUOUS
 62
     7
 10
134.043955
 20
89.425216
 11
134.044216
 21
89.470116
  0
LINE
  8
CSLAYER4
  6
CONTINUOUS
 62
     7
 10
134.044216
 20
89.470116
 11
134.043612
 21
89.526235
  0
LINE
  8
CSLAYER4
  6
CONTINUOUS
 62
     7
 10
134.043612
 20
89.526235
 11
134.041730
 21
89.582355
  0
LINE
  8
CSLAYER4
  6
CONTINUOUS
 62
     7
 10
134.041730
 20
89.582355
 11
134.038517
 21
89.638419
  0
LINE
  8
CSLAYER4
  6
CONTINUOUS
 62
     7
 10
134.038517
 20
89.638419
 11
134.033930
 21
89.694374
  0
LINE
  8
CSLAYER4
  6
CONTINUOUS
 62
     7
 10
134.033930
 20
89.694374
 11
134.027915
 21
89.750178
  0
LINE
  8
CSLAYER4
  6
CONTINUOUS
 62
     7
 10
134.027915
 20
89.750178
 11
134.020389
 21
89.805782
  0
LINE
  8
CSLAYER4
  6
CONTINUOUS
 62
     7
 10
134.020389
 20
89.805782
 11
134.011326
 21
89.861133
  0
LINE
  8
CSLAYER4
  6
CONTINUOUS
 62
     7
 10
134.011326
 20
89.861133
 11
134.000641
 21
89.916188
  0
LINE
  8
CSLAYER4
  6
CONTINUOUS
 62
     7
 10
134.000641
 20
89.916188
 11
133.988295
 21
89.970893
  0
LINE
  8
CSLAYER4
  6
CONTINUOUS
 62
     7
 10
133.988295
 20
89.970893
 11
133.974247
 21
90.025159
  0
LINE
  8
CSLAYER4
  6
CONTINUOUS
 62
     7
 10
133.974247
 20
90.025159
 11
133.958495
 21
90.078758
  0
LINE
  8
CSLAYER4
  6
CONTINUOUS
 62
     7
 10
133.958495
 20
90.078758
 11
133.941000
 21
90.131637
  0
LINE
  8
CSLAYER4
  6
CONTINUOUS
 62
     7
 10
133.941000
 20
90.131637
 11
133.921732
 21
90.183774
  0
LINE
  8
CSLAYER4
  6
CONTINUOUS
 62
     7
 10
133.921732
 20
90.183774
 11
133.900666
 21
90.235142
  0
LINE
  8
CSLAYER4
  6
CONTINUOUS
 62
     7
 10
133.900666
 20
90.235142
 11
133.877759
 21
90.285707
  0
LINE
  8
CSLAYER4
  6
CONTINUOUS
 62
     7
 10
133.877759
 20
90.285707
 11
133.852971
 21
90.335447
  0
LINE
  8
CSLAYER4
  6
CONTINUOUS
 62
     7
 10
133.852971
 20
90.335447
 11
133.826261
 21
90.384336
  0
LINE
  8
CSLAYER4
  6
CONTINUOUS
 62
     7
 10
133.826261
 20
90.384336
 11
133.797614
 21
90.432347
  0
LINE
  8
CSLAYER4
  6
CONTINUOUS
 62
     7
 10
133.797614
 20
90.432347
 11
133.767154
 21
90.479203
  0
LINE
  8
CSLAYER4
  6
CONTINUOUS
 62
     7
 10
133.767154
 20
90.479203
 11
133.734992
 21
90.524707
  0
LINE
  8
CSLAYER4
  6
CONTINUOUS
 62
     7
 10
133.734992
 20
90.524707
 11
133.701181
 21
90.568872
  0
LINE
  8
CSLAYER4
  6
CONTINUOUS
 62
     7
 10
133.701181
 20
90.568872
 11
133.665709
 21
90.611705
  0
LINE
  8
CSLAYER4
  6
CONTINUOUS
 62
     7
 10
133.665709
 20
90.611705
 11
133.628589
 21
90.653213
  0
LINE
  8
CSLAYER4
  6
CONTINUOUS
 62
     7
 10
133.628589
 20
90.653213
 11
133.589849
 21
90.693416
  0
LINE
  8
CSLAYER4
  6
CONTINUOUS
 62
     7
 10
133.589849
 20
90.693416
 11
133.562863
 21
90.720023
  0
LINE
  8
CSLAYER4
  6
CONTINUOUS
 62
     7
 10
133.562863
 20
90.720023
 11
133.535535
 21
90.746205
  0
LINE
  8
CSLAYER4
  6
CONTINUOUS
 62
     7
 10
133.535535
 20
90.746205
 11
133.507877
 21
90.771968
  0
LINE
  8
CSLAYER4
  6
CONTINUOUS
 62
     7
 10
133.507877
 20
90.771968
 11
133.479903
 21
90.797306
  0
LINE
  8
CSLAYER4
  6
CONTINUOUS
 62
     7
 10
133.479903
 20
90.797306
 11
133.451599
 21
90.822224
  0
LINE
  8
CSLAYER4
  6
CONTINUOUS
 62
     7
 10
133.451599
 20
90.822224
 11
133.422967
 21
90.846723
  0
LINE
  8
CSLAYER4
  6
CONTINUOUS
 62
     7
 10
133.422967
 20
90.846723
 11
133.394004
 21
90.870804
  0
LINE
  8
CSLAYER4
  6
CONTINUOUS
 62
     7
 10
133.394004
 20
90.870804
 11
133.364739
 21
90.894473
  0
LINE
  8
CSLAYER4
  6
CONTINUOUS
 62
     7
 10
133.364739
 20
90.894473
 11
133.335145
 21
90.917729
  0
LINE
  8
CSLAYER4
  6
CONTINUOUS
 62
     7
 10
133.335145
 20
90.917729
 11
133.305234
 21
90.940574
  0
LINE
  8
CSLAYER4
  6
CONTINUOUS
 62
     7
 10
133.305234
 20
90.940574
 11
133.275008
 21
90.963006
  0
LINE
  8
CSLAYER4
  6
CONTINUOUS
 62
     7
 10
133.275008
 20
90.963006
 11
133.244480
 21
90.985034
  0
LINE
  8
CSLAYER4
  6
CONTINUOUS
 62
     7
 10
133.244480
 20
90.985034
 11
133.213636
 21
91.006664
  0
LINE
  8
CSLAYER4
  6
CONTINUOUS
 62
     7
 10
133.213636
 20
91.006664
 11
133.182490
 21
91.027881
  0
LINE
  8
CSLAYER4
  6
CONTINUOUS
 62
     7
 10
133.182490
 20
91.027881
 11
133.151028
 21
91.048707
  0
LINE
  8
CSLAYER4
  6
CONTINUOUS
 62
     7
 10
133.151028
 20
91.048707
 11
133.119277
 21
91.069128
  0
LINE
  8
CSLAYER4
  6
CONTINUOUS
 62
     7
 10
133.119277
 20
91.069128
 11
133.087210
 21
91.089150
  0
LINE
  8
CSLAYER4
  6
CONTINUOUS
 62
     7
 10
133.087210
 20
91.089150
 11
133.054856
 21
91.108775
  0
LINE
  8
CSLAYER4
  6
CONTINUOUS
 62
     7
 10
133.054856
 20
91.108775
 11
133.022254
 21
91.127973
  0
LINE
  8
CSLAYER4
  6
CONTINUOUS
 62
     7
 10
133.022254
 20
91.127973
 11
132.989432
 21
91.146753
  0
LINE
  8
CSLAYER4
  6
CONTINUOUS
 62
     7
 10
132.989432
 20
91.146753
 11
132.956377
 21
91.165107
  0
LINE
  8
CSLAYER4
  6
CONTINUOUS
 62
     7
 10
132.956377
 20
91.165107
 11
132.923089
 21
91.183049
  0
LINE
  8
CSLAYER4
  6
CONTINUOUS
 62
     7
 10
132.923089
 20
91.183049
 11
132.889594
 21
91.200572
  0
LINE
  8
CSLAYER4
  6
CONTINUOUS
 62
     7
 10
132.889594
 20
91.200572
 11
132.855866
 21
91.217684
  0
LINE
  8
CSLAYER4
  6
CONTINUOUS
 62
     7
 10
131.667520
 20
91.741958
 11
132.855870
 21
91.217687
  0
LINE
  8
CSLAYER4
  6
CONTINUOUS
 62
     7
 10
131.667523
 20
91.741958
 11
131.642001
 21
91.752340
  0
LINE
  8
CSLAYER4
  6
CONTINUOUS
 62
     7
 10
131.642001
 20
91.752340
 11
131.616553
 21
91.763038
  0
LINE
  8
CSLAYER4
  6
CONTINUOUS
 62
     7
 10
131.616553
 20
91.763038
 11
131.591196
 21
91.774059
  0
LINE
  8
CSLAYER4
  6
CONTINUOUS
 62
     7
 10
131.591196
 20
91.774059
 11
131.565940
 21
91.785416
  0
LINE
  8
CSLAYER4
  6
CONTINUOUS
 62
     7
 10
131.565940
 20
91.785416
 11
131.540816
 21
91.797102
  0
LINE
  8
CSLAYER4
  6
CONTINUOUS
 62
     7
 10
131.540816
 20
91.797102
 11
131.515829
 21
91.809140
  0
LINE
  8
CSLAYER4
  6
CONTINUOUS
 62
     7
 10
131.515829
 20
91.809140
 11
131.490993
 21
91.821527
  0
LINE
  8
CSLAYER4
  6
CONTINUOUS
 62
     7
 10
131.490993
 20
91.821527
 11
131.466336
 21
91.834263
  0
LINE
  8
CSLAYER4
  6
CONTINUOUS
 62
     7
 10
131.466336
 20
91.834263
 11
131.441864
 21
91.847365
  0
LINE
  8
CSLAYER4
  6
CONTINUOUS
 62
     7
 10
131.441864
 20
91.847365
 11
131.417598
 21
91.860830
  0
LINE
  8
CSLAYER4
  6
CONTINUOUS
 62
     7
 10
131.417598
 20
91.860830
 11
131.393551
 21
91.874673
  0
LINE
  8
CSLAYER4
  6
CONTINUOUS
 62
     7
 10
131.393551
 20
91.874673
 11
131.369745
 21
91.888893
  0
LINE
  8
CSLAYER4
  6
CONTINUOUS
 62
     7
 10
131.369745
 20
91.888893
 11
131.346193
 21
91.903491
  0
LINE
  8
CSLAYER4
  6
CONTINUOUS
 62
     7
 10
131.346193
 20
91.903491
 11
131.322909
 21
91.918488
  0
LINE
  8
CSLAYER4
  6
CONTINUOUS
 62
     7
 10
131.322909
 20
91.918488
 11
131.299906
 21
91.933882
  0
LINE
  8
CSLAYER4
  6
CONTINUOUS
 62
     7
 10
131.299906
 20
91.933882
 11
131.277213
 21
91.949682
  0
LINE
  8
CSLAYER4
  6
CONTINUOUS
 62
     7
 10
131.277213
 20
91.949682
 11
131.254835
 21
91.965887
  0
LINE
  8
CSLAYER4
  6
CONTINUOUS
 62
     7
 10
131.254835
 20
91.965887
 11
131.232801
 21
91.982504
  0
LINE
  8
CSLAYER4
  6
CONTINUOUS
 62
     7
 10
131.232801
 20
91.982504
 11
131.211103
 21
91.999546
  0
LINE
  8
CSLAYER4
  6
CONTINUOUS
 62
     7
 10
131.211103
 20
91.999546
 11
131.189769
 21
92.017035
  0
LINE
  8
CSLAYER4
  6
CONTINUOUS
 62
     7
 10
131.189769
 20
92.017035
 11
131.168799
 21
92.034956
  0
LINE
  8
CSLAYER4
  6
CONTINUOUS
 62
     7
 10
131.168799
 20
92.034956
 11
131.148220
 21
92.053338
  0
LINE
  8
CSLAYER4
  6
CONTINUOUS
 62
     7
 10
131.148220
 20
92.053338
 11
131.128046
 21
92.072172
  0
LINE
  8
CSLAYER4
  6
CONTINUOUS
 62
     7
 10
131.128046
 20
92.072172
 11
131.108298
 21
92.091474
  0
LINE
  8
CSLAYER4
  6
CONTINUOUS
 62
     7
 10
131.108298
 20
92.091474
 11
131.092375
 21
92.107809
  0
LINE
  8
CSLAYER4
  6
CONTINUOUS
 62
     7
 10
131.092375
 20
92.107809
 11
131.076919
 21
92.124550
  0
LINE
  8
CSLAYER4
  6
CONTINUOUS
 62
     7
 10
131.076919
 20
92.124550
 11
131.061936
 21
92.141688
  0
LINE
  8
CSLAYER4
  6
CONTINUOUS
 62
     7
 10
131.061936
 20
92.141688
 11
131.047461
 21
92.159239
  0
LINE
  8
CSLAYER4
  6
CONTINUOUS
 62
     7
 10
131.047461
 20
92.159239
 11
131.033509
 21
92.177209
  0
LINE
  8
CSLAYER4
  6
CONTINUOUS
 62
     7
 10
131.033509
 20
92.177209
 11
131.020113
 21
92.195597
  0
LINE
  8
CSLAYER4
  6
CONTINUOUS
 62
     7
 10
131.020113
 20
92.195597
 11
131.007286
 21
92.214418
  0
LINE
  8
CSLAYER4
  6
CONTINUOUS
 62
     7
 10
131.007286
 20
92.214418
 11
130.995057
 21
92.233665
  0
LINE
  8
CSLAYER4
  6
CONTINUOUS
 62
     7
 10
130.995057
 20
92.233665
 11
130.983439
 21
92.253358
  0
LINE
  8
CSLAYER4
  6
CONTINUOUS
 62
     7
 10
130.983439
 20
92.253358
 11
130.972507
 21
92.273421
  0
LINE
  8
CSLAYER4
  6
CONTINUOUS
 62
     7
 10
130.972507
 20
92.273421
 11
130.962310
 21
92.293774
  0
LINE
  8
CSLAYER4
  6
CONTINUOUS
 62
     7
 10
130.962310
 20
92.293774
 11
130.952848
 21
92.314414
  0
LINE
  8
CSLAYER4
  6
CONTINUOUS
 62
     7
 10
130.952848
 20
92.314414
 11
130.944142
 21
92.335343
  0
LINE
  8
CSLAYER4
  6
CONTINUOUS
 62
     7
 10
130.944142
 20
92.335343
 11
130.936177
 21
92.356560
  0
LINE
  8
CSLAYER4
  6
CONTINUOUS
 62
     7
 10
130.936177
 20
92.356560
 11
130.928967
 21
92.378073
  0
LINE
  8
CSLAYER4
  6
CONTINUOUS
 62
     7
 10
130.928967
 20
92.378073
 11
130.922512
 21
92.399874
  0
LINE
  8
CSLAYER4
  6
CONTINUOUS
 62
     7
 10
130.922512
 20
92.399874
 11
130.916820
 21
92.421963
  0
LINE
  8
CSLAYER4
  6
CONTINUOUS
 62
     7
 10
130.916820
 20
92.421963
 11
130.911897
 21
92.444348
  0
LINE
  8
CSLAYER4
  6
CONTINUOUS
 62
     7
 10
130.911897
 20
92.444348
 11
130.907763
 21
92.466877
  0
LINE
  8
CSLAYER4
  6
CONTINUOUS
 62
     7
 10
130.907763
 20
92.466877
 11
130.904419
 21
92.489502
  0
LINE
  8
CSLAYER4
  6
CONTINUOUS
 62
     7
 10
130.904419
 20
92.489502
 11
130.901845
 21
92.512209
  0
LINE
  8
CSLAYER4
  6
CONTINUOUS
 62
     7
 10
130.901845
 20
92.512209
 11
130.900025
 21
92.534999
  0
LINE
  8
CSLAYER4
  6
CONTINUOUS
 62
     7
 10
130.900025
 20
92.534999
 11
130.898947
 21
92.557865
  0
LINE
  8
CSLAYER4
  6
CONTINUOUS
 62
     7
 10
130.898947
 20
92.557865
 11
130.898590
 21
92.580792
  0
LINE
  8
CSLAYER4
  6
CONTINUOUS
 62
     7
 10
130.898590
 20
92.580792
 11
130.899009
 21
92.619093
  0
LINE
  8
CSLAYER4
  6
CONTINUOUS
 62
     7
 10
130.899009
 20
92.619093
 11
130.900300
 21
92.657490
  0
LINE
  8
CSLAYER4
  6
CONTINUOUS
 62
     7
 10
130.900300
 20
92.657490
 11
130.902525
 21
92.695914
  0
LINE
  8
CSLAYER4
  6
CONTINUOUS
 62
     7
 10
130.902525
 20
92.695914
 11
130.905738
 21
92.734305
  0
LINE
  8
CSLAYER4
  6
CONTINUOUS
 62
     7
 10
130.905738
 20
92.734305
 11
130.910002
 21
92.772599
  0
LINE
  8
CSLAYER4
  6
CONTINUOUS
 62
     7
 10
130.910002
 20
92.772599
 11
130.915365
 21
92.810721
  0
LINE
  8
CSLAYER4
  6
CONTINUOUS
 62
     7
 10
130.915365
 20
92.810721
 11
130.921894
 21
92.848625
  0
LINE
  8
CSLAYER4
  6
CONTINUOUS
 62
     7
 10
130.921894
 20
92.848625
 11
130.929647
 21
92.886239
  0
LINE
  8
CSLAYER4
  6
CONTINUOUS
 62
     7
 10
130.929647
 20
92.886239
 11
130.938676
 21
92.923490
  0
LINE
  8
CSLAYER4
  6
CONTINUOUS
 62
     7
 10
130.938676
 20
92.923490
 11
130.949038
 21
92.960321
  0
LINE
  8
CSLAYER4
  6
CONTINUOUS
 62
     7
 10
130.949038
 20
92.960321
 11
130.960786
 21
92.996624
  0
LINE
  8
CSLAYER4
  6
CONTINUOUS
 62
     7
 10
130.960786
 20
92.996624
 11
130.973922
 21
93.032247
  0
LINE
  8
CSLAYER4
  6
CONTINUOUS
 62
     7
 10
130.973922
 20
93.032247
 11
130.988499
 21
93.067143
  0
LINE
  8
CSLAYER4
  6
CONTINUOUS
 62
     7
 10
130.988499
 20
93.067143
 11
131.004560
 21
93.101269
  0
LINE
  8
CSLAYER4
  6
CONTINUOUS
 62
     7
 10
131.004560
 20
93.101269
 11
131.022145
 21
93.134585
  0
LINE
  8
CSLAYER4
  6
CONTINUOUS
 62
     7
 10
131.022145
 20
93.134585
 11
131.041302
 21
93.167029
  0
LINE
  8
CSLAYER4
  6
CONTINUOUS
 62
     7
 10
131.041302
 20
93.167029
 11
131.062066
 21
93.198580
  0
LINE
  8
CSLAYER4
  6
CONTINUOUS
 62
     7
 10
131.062066
 20
93.198580
 11
131.084492
 21
93.229177
  0
LINE
  8
CSLAYER4
  6
CONTINUOUS
 62
     7
 10
131.084492
 20
93.229177
 11
131.108484
 21
93.258614
  0
LINE
  8
CSLAYER4
  6
CONTINUOUS
 62
     7
 10
131.108484
 20
93.258614
 11
131.133807
 21
93.286629
  0
LINE
  8
CSLAYER4
  6
CONTINUOUS
 62
     7
 10
131.133807
 20
93.286629
 11
131.160456
 21
93.313223
  0
LINE
  8
CSLAYER4
  6
CONTINUOUS
 62
     7
 10
131.160456
 20
93.313223
 11
131.188402
 21
93.338415
  0
LINE
  8
CSLAYER4
  6
CONTINUOUS
 62
     7
 10
131.188402
 20
93.338415
 11
131.217626
 21
93.362228
  0
LINE
  8
CSLAYER4
  6
CONTINUOUS
 62
     7
 10
131.217626
 20
93.362228
 11
131.248106
 21
93.384675
  0
LINE
  8
CSLAYER4
  6
CONTINUOUS
 62
     7
 10
131.248106
 20
93.384675
 11
131.276176
 21
93.403633
  0
LINE
  8
CSLAYER4
  6
CONTINUOUS
 62
     7
 10
131.276176
 20
93.403633
 11
131.304782
 21
93.421548
  0
LINE
  8
CSLAYER4
  6
CONTINUOUS
 62
     7
 10
131.304782
 20
93.421548
 11
131.333923
 21
93.438371
  0
LINE
  8
CSLAYER4
  6
CONTINUOUS
 62
     7
 10
131.333923
 20
93.438371
 11
131.363600
 21
93.454067
  0
LINE
  8
CSLAYER4
  6
CONTINUOUS
 62
     7
 10
131.363600
 20
93.454067
 11
131.393833
 21
93.468597
  0
LINE
  8
CSLAYER4
  6
CONTINUOUS
 62
     7
 10
131.393833
 20
93.468597
 11
131.424615
 21
93.481911
  0
LINE
  8
CSLAYER4
  6
CONTINUOUS
 62
     7
 10
131.424615
 20
93.481911
 11
131.455954
 21
93.493975
  0
LINE
  8
CSLAYER4
  6
CONTINUOUS
 62
     7
 10
131.455954
 20
93.493975
 11
131.487849
 21
93.504742
  0
LINE
  8
CSLAYER4
  6
CONTINUOUS
 62
     7
 10
131.487849
 20
93.504742
 11
131.520306
 21
93.514169
  0
LINE
  8
CSLAYER4
  6
CONTINUOUS
 62
     7
 10
131.520306
 20
93.514169
 11
131.553052
 21
93.522155
  0
LINE
  8
CSLAYER4
  6
CONTINUOUS
 62
     7
 10
131.553052
 20
93.522155
 11
131.585929
 21
93.528671
  0
LINE
  8
CSLAYER4
  6
CONTINUOUS
 62
     7
 10
131.585929
 20
93.528671
 11
131.618936
 21
93.533732
  0
LINE
  8
CSLAYER4
  6
CONTINUOUS
 62
     7
 10
131.618936
 20
93.533732
 11
131.652067
 21
93.537357
  0
LINE
  8
CSLAYER4
  6
CONTINUOUS
 62
     7
 10
131.652067
 20
93.537357
 11
131.685328
 21
93.539562
  0
LINE
  8
CSLAYER4
  6
CONTINUOUS
 62
     7
 10
131.685328
 20
93.539562
 11
131.718705
 21
93.540365
  0
LINE
  8
CSLAYER4
  6
CONTINUOUS
 62
     7
 10
131.718705
 20
93.540365
 11
131.752207
 21
93.539781
  0
LINE
  8
CSLAYER4
  6
CONTINUOUS
 62
     7
 10
131.752207
 20
93.539781
 11
131.785818
 21
93.537824
  0
LINE
  8
CSLAYER4
  6
CONTINUOUS
 62
     7
 10
131.785818
 20
93.537824
 11
131.819484
 21
93.534522
  0
LINE
  8
CSLAYER4
  6
CONTINUOUS
 62
     7
 10
131.819484
 20
93.534522
 11
131.852986
 21
93.529935
  0
LINE
  8
CSLAYER4
  6
CONTINUOUS
 62
     7
 10
131.852986
 20
93.529935
 11
131.886274
 21
93.524105
  0
LINE
  8
CSLAYER4
  6
CONTINUOUS
 62
     7
 10
131.886274
 20
93.524105
 11
131.919336
 21
93.517101
  0
LINE
  8
CSLAYER4
  6
CONTINUOUS
 62
     7
 10
131.919336
 20
93.517101
 11
131.952158
 21
93.508965
  0
LINE
  8
CSLAYER4
  6
CONTINUOUS
 62
     7
 10
131.952158
 20
93.508965
 11
131.984733
 21
93.499757
  0
LINE
  8
CSLAYER4
  6
CONTINUOUS
 62
     7
 10
131.984733
 20
93.499757
 11
132.017032
 21
93.489533
  0
LINE
  8
CSLAYER4
  6
CONTINUOUS
 62
     7
 10
132.017032
 20
93.489533
 11
132.075280
 21
93.469345
  0
LINE
  8
CSLAYER4
  6
CONTINUOUS
 62
     7
 10
132.075280
 20
93.469345
 11
132.132107
 21
93.445937
  0
LINE
  8
CSLAYER4
  6
CONTINUOUS
 62
     7
 10
132.132107
 20
93.445937
 11
132.187431
 21
93.419193
  0
LINE
  8
CSLAYER4
  6
CONTINUOUS
 62
     7
 10
132.187431
 20
93.419193
 11
132.241181
 21
93.389015
  0
LINE
  8
CSLAYER4
  6
CONTINUOUS
 62
     7
 10
132.241181
 20
93.389015
 11
132.293050
 21
93.355437
  0
LINE
  8
CSLAYER4
  6
CONTINUOUS
 62
     7
 10
132.293050
 20
93.355437
 11
132.342502
 21
93.318791
  0
LINE
  8
CSLAYER4
  6
CONTINUOUS
 62
     7
 10
132.342502
 20
93.318791
 11
132.389496
 21
93.279137
  0
LINE
  8
CSLAYER4
  6
CONTINUOUS
 62
     7
 10
132.389496
 20
93.279137
 11
132.434087
 21
93.236517
  0
LINE
  8
CSLAYER4
  6
CONTINUOUS
 62
     7
 10
132.434087
 20
93.236517
 11
132.476206
 21
93.191041
  0
LINE
  8
CSLAYER4
  6
CONTINUOUS
 62
     7
 10
132.476206
 20
93.191041
 11
132.515509
 21
93.143285
  0
LINE
  8
CSLAYER4
  6
CONTINUOUS
 62
     7
 10
132.515509
 20
93.143285
 11
132.552012
 21
93.093496
  0
LINE
  8
CSLAYER4
  6
CONTINUOUS
 62
     7
 10
132.552012
 20
93.093496
 11
132.585836
 21
93.041847
  0
LINE
  8
CSLAYER4
  6
CONTINUOUS
 62
     7
 10
132.585836
 20
93.041847
 11
132.617064
 21
92.988528
  0
LINE
  8
CSLAYER4
  6
CONTINUOUS
 62
     7
 10
132.617064
 20
92.988528
 11
132.645821
 21
92.933707
  0
LINE
  8
CSLAYER4
  6
CONTINUOUS
 62
     7
 10
132.645821
 20
92.933707
 11
132.672202
 21
92.877567
  0
LINE
  8
CSLAYER4
  6
CONTINUOUS
 62
     7
 10
132.672202
 20
92.877567
 11
132.696317
 21
92.820280
  0
LINE
  8
CSLAYER4
  6
CONTINUOUS
 62
     7
 10
132.696317
 20
92.820280
 11
132.718276
 21
92.762018
  0
LINE
  8
CSLAYER4
  6
CONTINUOUS
 62
     7
 10
132.718276
 20
92.762018
 11
132.738230
 21
92.702808
  0
LINE
  8
CSLAYER4
  6
CONTINUOUS
 62
     7
 10
132.738230
 20
92.702808
 11
132.756261
 21
92.642789
  0
LINE
  8
CSLAYER4
  6
CONTINUOUS
 62
     7
 10
132.756261
 20
92.642789
 11
132.772466
 21
92.582110
  0
LINE
  8
CSLAYER4
  6
CONTINUOUS
 62
     7
 10
132.772466
 20
92.582110
 11
132.786954
 21
92.520950
  0
LINE
  8
CSLAYER4
  6
CONTINUOUS
 62
     7
 10
132.786954
 20
92.520950
 11
132.799795
 21
92.459454
  0
LINE
  8
CSLAYER4
  6
CONTINUOUS
 62
     7
 10
132.799795
 20
92.459454
 11
132.811083
 21
92.397794
  0
LINE
  8
CSLAYER4
  6
CONTINUOUS
 62
     7
 10
132.811083
 20
92.397794
 11
132.820916
 21
92.336133
  0
LINE
  8
CSLAYER4
  6
CONTINUOUS
 62
     7
 10
133.869462
 20
92.336133
 11
132.820918
 21
92.336133
  0
LINE
  8
CSLAYER4
  6
CONTINUOUS
 62
     7
 10
133.869465
 20
92.336133
 11
133.866223
 21
92.409371
  0
LINE
  8
CSLAYER4
  6
CONTINUOUS
 62
     7
 10
133.866223
 20
92.409371
 11
133.861513
 21
92.482587
  0
LINE
  8
CSLAYER4
  6
CONTINUOUS
 62
     7
 10
133.861513
 20
92.482587
 11
133.855265
 21
92.555722
  0
LINE
  8
CSLAYER4
  6
CONTINUOUS
 62
     7
 10
133.855265
 20
92.555722
 11
133.847423
 21
92.628713
  0
LINE
  8
CSLAYER4
  6
CONTINUOUS
 62
     7
 10
133.847423
 20
92.628713
 11
133.837920
 21
92.701497
  0
LINE
  8
CSLAYER4
  6
CONTINUOUS
 62
     7
 10
133.837920
 20
92.701497
 11
133.826686
 21
92.774007
  0
LINE
  8
CSLAYER4
  6
CONTINUOUS
 62
     7
 10
133.826686
 20
92.774007
 11
133.813668
 21
92.846187
  0
LINE
  8
CSLAYER4
  6
CONTINUOUS
 62
     7
 10
133.813668
 20
92.846187
 11
133.798809
 21
92.917976
  0
LINE
  8
CSLAYER4
  6
CONTINUOUS
 62
     7
 10
133.798809
 20
92.917976
 11
133.782013
 21
92.989298
  0
LINE
  8
CSLAYER4
  6
CONTINUOUS
 62
     7
 10
133.782013
 20
92.989298
 11
133.763268
 21
93.060077
  0
LINE
  8
CSLAYER4
  6
CONTINUOUS
 62
     7
 10
133.763268
 20
93.060077
 11
133.742504
 21
93.130128
  0
LINE
  8
CSLAYER4
  6
CONTINUOUS
 62
     7
 10
133.742504
 20
93.130128
 11
133.719721
 21
93.199377
  0
LINE
  8
CSLAYER4
  6
CONTINUOUS
 62
     7
 10
133.719721
 20
93.199377
 11
133.694837
 21
93.267787
  0
LINE
  8
CSLAYER4
  6
CONTINUOUS
 62
     7
 10
133.694837
 20
93.267787
 11
133.667811
 21
93.335298
  0
LINE
  8
CSLAYER4
  6
CONTINUOUS
 62
     7
 10
133.667811
 20
93.335298
 11
133.638587
 21
93.401868
  0
LINE
  8
CSLAYER4
  6
CONTINUOUS
 62
     7
 10
133.638587
 20
93.401868
 11
133.607125
 21
93.467450
  0
LINE
  8
CSLAYER4
  6
CONTINUOUS
 62
     7
 10
133.607125
 20
93.467450
 11
133.573369
 21
93.532002
  0
LINE
  8
CSLAYER4
  6
CONTINUOUS
 62
     7
 10
133.573369
 20
93.532002
 11
133.537266
 21
93.595475
  0
LINE
  8
CSLAYER4
  6
CONTINUOUS
 62
     7
 10
133.537266
 20
93.595475
 11
133.498909
 21
93.657603
  0
LINE
  8
CSLAYER4
  6
CONTINUOUS
 62
     7
 10
133.498909
 20
93.657603
 11
133.458439
 21
93.718117
  0
LINE
  8
CSLAYER4
  6
CONTINUOUS
 62
     7
 10
133.458439
 20
93.718117
 11
133.415839
 21
93.777011
  0
LINE
  8
CSLAYER4
  6
CONTINUOUS
 62
     7
 10
133.415839
 20
93.777011
 11
133.371111
 21
93.834270
  0
LINE
  8
CSLAYER4
  6
CONTINUOUS
 62
     7
 10
133.371111
 20
93.834270
 11
133.324268
 21
93.889902
  0
LINE
  8
CSLAYER4
  6
CONTINUOUS
 62
     7
 10
133.324268
 20
93.889902
 11
133.275283
 21
93.943899
  0
LINE
  8
CSLAYER4
  6
CONTINUOUS
 62
     7
 10
133.275283
 20
93.943899
 11
133.225748
 21
93.997355
  0
LINE
  8
CSLAYER4
  6
CONTINUOUS
 62
     7
 10
133.225748
 20
93.997355
 11
133.174744
 21
94.049169
  0
LINE
  8
CSLAYER4
  6
CONTINUOUS
 62
     7
 10
133.174744
 20
94.049169
 11
133.122257
 21
94.099267
  0
LINE
  8
CSLAYER4
  6
CONTINUOUS
 62
     7
 10
133.122257
 20
94.099267
 11
133.068246
 21
94.147552
  0
LINE
  8
CSLAYER4
  6
CONTINUOUS
 62
     7
 10
133.068246
 20
94.147552
 11
133.012710
 21
94.193942
  0
LINE
  8
CSLAYER4
  6
CONTINUOUS
 62
     7
 10
133.012710
 20
94.193942
 11
132.955608
 21
94.238354
  0
LINE
  8
CSLAYER4
  6
CONTINUOUS
 62
     7
 10
132.955608
 20
94.238354
 11
132.896900
 21
94.280699
  0
LINE
  8
CSLAYER4
  6
CONTINUOUS
 62
     7
 10
132.896900
 20
94.280699
 11
132.836599
 21
94.320888
  0
LINE
  8
CSLAYER4
  6
CONTINUOUS
 62
     7
 10
132.836599
 20
94.320888
 11
132.774636
 21
94.358840
  0
LINE
  8
CSLAYER4
  6
CONTINUOUS
 62
     7
 10
132.774636
 20
94.358840
 11
132.711355
 21
94.394277
  0
LINE
  8
CSLAYER4
  6
CONTINUOUS
 62
     7
 10
132.711355
 20
94.394277
 11
132.647085
 21
94.427003
  0
LINE
  8
CSLAYER4
  6
CONTINUOUS
 62
     7
 10
132.647085
 20
94.427003
 11
132.581826
 21
94.457023
  0
LINE
  8
CSLAYER4
  6
CONTINUOUS
 62
     7
 10
132.581826
 20
94.457023
 11
132.515565
 21
94.484331
  0
LINE
  8
CSLAYER4
  6
CONTINUOUS
 62
     7
 10
132.515565
 20
94.484331
 11
132.448314
 21
94.508940
  0
LINE
  8
CSLAYER4
  6
CONTINUOUS
 62
     7
 10
132.448314
 20
94.508940
 11
132.380076
 21
94.530851
  0
LINE
  8
CSLAYER4
  6
CONTINUOUS
 62
     7
 10
132.380076
 20
94.530851
 11
132.310862
 21
94.550063
  0
LINE
  8
CSLAYER4
  6
CONTINUOUS
 62
     7
 10
132.310862
 20
94.550063
 11
132.240645
 21
94.566591
  0
LINE
  8
CSLAYER4
  6
CONTINUOUS
 62
     7
 10
132.240645
 20
94.566591
 11
132.169516
 21
94.580420
  0
LINE
  8
CSLAYER4
  6
CONTINUOUS
 62
     7
 10
132.169516
 20
94.580420
 11
132.097988
 21
94.591496
  0
LINE
  8
CSLAYER4
  6
CONTINUOUS
 62
     7
 10
132.097988
 20
94.591496
 11
132.026220
 21
94.599873
  0
LINE
  8
CSLAYER4
  6
CONTINUOUS
 62
     7
 10
132.026220
 20
94.599873
 11
131.954239
 21
94.605627
  0
LINE
  8
CSLAYER4
  6
CONTINUOUS
 62
     7
 10
131.954239
 20
94.605627
 11
131.882086
 21
94.608847
  0
LINE
  8
CSLAYER4
  6
CONTINUOUS
 62
     7
 10
131.882086
 20
94.608847
 11
131.809803
 21
94.609602
  0
LINE
  8
CSLAYER4
  6
CONTINUOUS
 62
     7
 10
131.809803
 20
94.609602
 11
131.737423
 21
94.607975
  0
LINE
  8
CSLAYER4
  6
CONTINUOUS
 62
     7
 10
131.737423
 20
94.607975
 11
131.661309
 21
94.603931
  0
LINE
  8
CSLAYER4
  6
CONTINUOUS
 62
     7
 10
131.661309
 20
94.603931
 11
131.585634
 21
94.597401
  0
LINE
  8
CSLAYER4
  6
CONTINUOUS
 62
     7
 10
131.585634
 20
94.597401
 11
131.510412
 21
94.588330
  0
LINE
  8
CSLAYER4
  6
CONTINUOUS
 62
     7
 10
131.510412
 20
94.588330
 11
131.435684
 21
94.576657
  0
LINE
  8
CSLAYER4
  6
CONTINUOUS
 62
     7
 10
131.435684
 20
94.576657
 11
131.361471
 21
94.562327
  0
LINE
  8
CSLAYER4
  6
CONTINUOUS
 62
     7
 10
131.361471
 20
94.562327
 11
131.287808
 21
94.545278
  0
LINE
  8
CSLAYER4
  6
CONTINUOUS
 62
     7
 10
131.287808
 20
94.545278
 11
131.214721
 21
94.525447
  0
LINE
  8
CSLAYER4
  6
CONTINUOUS
 62
     7
 10
131.214721
 20
94.525447
 11
131.142239
 21
94.502788
  0
LINE
  8
CSLAYER4
  6
CONTINUOUS
 62
     7
 10
131.142239
 20
94.502788
 11
131.070409
 21
94.477238
  0
LINE
  8
CSLAYER4
  6
CONTINUOUS
 62
     7
 10
131.070409
 20
94.477238
 11
130.999774
 21
94.448962
  0
LINE
  8
CSLAYER4
  6
CONTINUOUS
 62
     7
 10
130.999774
 20
94.448962
 11
130.930588
 21
94.418076
  0
LINE
  8
CSLAYER4
  6
CONTINUOUS
 62
     7
 10
130.930588
 20
94.418076
 11
130.862823
 21
94.384616
  0
LINE
  8
CSLAYER4
  6
CONTINUOUS
 62
     7
 10
130.862823
 20
94.384616
 11
130.796465
 21
94.348608
  0
LINE
  8
CSLAYER4
  6
CONTINUOUS
 62
     7
 10
130.796465
 20
94.348608
 11
130.731515
 21
94.310088
  0
LINE
  8
CSLAYER4
  6
CONTINUOUS
 62
     7
 10
130.731515
 20
94.310088
 11
130.667952
 21
94.269095
  0
LINE
  8
CSLAYER4
  6
CONTINUOUS
 62
     7
 10
130.667952
 20
94.269095
 11
130.605763
 21
94.225644
  0
LINE
  8
CSLAYER4
  6
CONTINUOUS
 62
     7
 10
130.605763
 20
94.225644
 11
130.544933
 21
94.179783
  0
LINE
  8
CSLAYER4
  6
CONTINUOUS
 62
     7
 10
130.544933
 20
94.179783
 11
130.485525
 21
94.131594
  0
LINE
  8
CSLAYER4
  6
CONTINUOUS
 62
     7
 10
130.485525
 20
94.131594
 11
130.427833
 21
94.081400
  0
LINE
  8
CSLAYER4
  6
CONTINUOUS
 62
     7
 10
130.427833
 20
94.081400
 11
130.371857
 21
94.029325
  0
LINE
  8
CSLAYER4
  6
CONTINUOUS
 62
     7
 10
130.371857
 20
94.029325
 11
130.317585
 21
93.975465
  0
LINE
  8
CSLAYER4
  6
CONTINUOUS
 62
     7
 10
130.317585
 20
93.975465
 11
130.264967
 21
93.919915
  0
LINE
  8
CSLAYER4
  6
CONTINUOUS
 62
     7
 10
130.264967
 20
93.919915
 11
130.213990
 21
93.862759
  0
LINE
  8
CSLAYER4
  6
CONTINUOUS
 62
     7
 10
130.213990
 20
93.862759
 11
130.164607
 21
93.804092
  0
LINE
  8
CSLAYER4
  6
CONTINUOUS
 62
     7
 10
130.164607
 20
93.804092
 11
130.129863
 21
93.756390
  0
LINE
  8
CSLAYER4
  6
CONTINUOUS
 62
     7
 10
130.129863
 20
93.756390
 11
130.096554
 21
93.707831
  0
LINE
  8
CSLAYER4
  6
CONTINUOUS
 62
     7
 10
130.096554
 20
93.707831
 11
130.064686
 21
93.658427
  0
LINE
  8
CSLAYER4
  6
CONTINUOUS
 62
     7
 10
130.064686
 20
93.658427
 11
130.034281
 21
93.608164
  0
LINE
  8
CSLAYER4
  6
CONTINUOUS
 62
     7
 10
130.034281
 20
93.608164
 11
130.005346
 21
93.557043
  0
LINE
  8
CSLAYER4
  6
CONTINUOUS
 62
     7
 10
130.005346
 20
93.557043
 11
129.977881
 21
93.505058
  0
LINE
  8
CSLAYER4
  6
CONTINUOUS
 62
     7
 10
129.977881
 20
93.505058
 11
129.951898
 21
93.452207
  0
LINE
  8
CSLAYER4
  6
CONTINUOUS
 62
     7
 10
129.951898
 20
93.452207
 11
129.927405
 21
93.398477
  0
LINE
  8
CSLAYER4
  6
CONTINUOUS
 62
     7
 10
129.927405
 20
93.398477
 11
129.904423
 21
93.343902
  0
LINE
  8
CSLAYER4
  6
CONTINUOUS
 62
     7
 10
129.904423
 20
93.343902
 11
129.883069
 21
93.288744
  0
LINE
  8
CSLAYER4
  6
CONTINUOUS
 62
     7
 10
129.883069
 20
93.288744
 11
129.863341
 21
93.233098
  0
LINE
  8
CSLAYER4
  6
CONTINUOUS
 62
     7
 10
129.863341
 20
93.233098
 11
129.845227
 21
93.176978
  0
LINE
  8
CSLAYER4
  6
CONTINUOUS
 62
     7
 10
129.845227
 20
93.176978
 11
129.828693
 21
93.120392
  0
LINE
  8
CSLAYER4
  6
CONTINUOUS
 62
     7
 10
129.828693
 20
93.120392
 11
129.813731
 21
93.063345
  0
LINE
  8
CSLAYER4
  6
CONTINUOUS
 62
     7
 10
129.813731
 20
93.063345
 11
129.800307
 21
93.005867
  0
LINE
  8
CSLAYER4
  6
CONTINUOUS
 62
     7
 10
129.800307
 20
93.005867
 11
129.788401
 21
92.947955
  0
LINE
  8
CSLAYER4
  6
CONTINUOUS
 62
     7
 10
129.788401
 20
92.947955
 11
129.777998
 21
92.889631
  0
LINE
  8
CSLAYER4
  6
CONTINUOUS
 62
     7
 10
129.777998
 20
92.889631
 11
129.769072
 21
92.830943
  0
LINE
  8
CSLAYER4
  6
CONTINUOUS
 62
     7
 10
129.769072
 20
92.830943
 11
129.761615
 21
92.772071
  0
LINE
  8
CSLAYER4
  6
CONTINUOUS
 62
     7
 10
129.761615
 20
92.772071
 11
129.755600
 21
92.713046
  0
LINE
  8
CSLAYER4
  6
CONTINUOUS
 62
     7
 10
129.755600
 20
92.713046
 11
129.750993
 21
92.653899
  0
LINE
  8
CSLAYER4
  6
CONTINUOUS
 62
     7
 10
129.750993
 20
92.653899
 11
129.747744
 21
92.594648
  0
LINE
  8
CSLAYER4
  6
CONTINUOUS
 62
     7
 10
129.747744
 20
92.594648
 11
129.745822
 21
92.535322
  0
LINE
  8
CSLAYER4
  6
CONTINUOUS
 62
     7
 10
129.745822
 20
92.535322
 11
129.745190
 21
92.475941
  0
LINE
  8
CSLAYER4
  6
CONTINUOUS
 62
     7
 10
129.745190
 20
92.475941
 11
129.745780
 21
92.418366
  0
LINE
  8
CSLAYER4
  6
CONTINUOUS
 62
     7
 10
129.745780
 20
92.418366
 11
129.747600
 21
92.360763
  0
LINE
  8
CSLAYER4
  6
CONTINUOUS
 62
     7
 10
129.747600
 20
92.360763
 11
129.750697
 21
92.303174
  0
LINE
  8
CSLAYER4
  6
CONTINUOUS
 62
     7
 10
129.750697
 20
92.303174
 11
129.755140
 21
92.245674
  0
LINE
  8
CSLAYER4
  6
CONTINUOUS
 62
     7
 10
129.755140
 20
92.245674
 11
129.760990
 21
92.188305
  0
LINE
  8
CSLAYER4
  6
CONTINUOUS
 62
     7
 10
129.760990
 20
92.188305
 11
129.768303
 21
92.131135
  0
LINE
  8
CSLAYER4
  6
CONTINUOUS
 62
     7
 10
129.768303
 20
92.131135
 11
129.777133
 21
92.074212
  0
LINE
  8
CSLAYER4
  6
CONTINUOUS
 62
     7
 10
129.777133
 20
92.074212
 11
129.787556
 21
92.017598
  0
LINE
  8
CSLAYER4
  6
CONTINUOUS
 62
     7
 10
129.787556
 20
92.017598
 11
129.799621
 21
91.961348
  0
LINE
  8
CSLAYER4
  6
CONTINUOUS
 62
     7
 10
129.799621
 20
91.961348
 11
129.813381
 21
91.905537
  0
LINE
  8
CSLAYER4
  6
CONTINUOUS
 62
     7
 10
129.813381
 20
91.905537
 11
129.828865
 21
91.850366
  0
LINE
  8
CSLAYER4
  6
CONTINUOUS
 62
     7
 10
129.828865
 20
91.850366
 11
129.846100
 21
91.795887
  0
LINE
  8
CSLAYER4
  6
CONTINUOUS
 62
     7
 10
129.846100
 20
91.795887
 11
129.865134
 21
91.742150
  0
LINE
  8
CSLAYER4
  6
CONTINUOUS
 62
     7
 10
129.865134
 20
91.742150
 11
129.886014
 21
91.689189
  0
LINE
  8
CSLAYER4
  6
CONTINUOUS
 62
     7
 10
129.886014
 20
91.689189
 11
129.908790
 21
91.637045
  0
LINE
  8
CSLAYER4
  6
CONTINUOUS
 62
     7
 10
129.908790
 20
91.637045
 11
129.933496
 21
91.585760
  0
LINE
  8
CSLAYER4
  6
CONTINUOUS
 62
     7
 10
129.933496
 20
91.585760
 11
129.960193
 21
91.535367
  0
LINE
  8
CSLAYER4
  6
CONTINUOUS
 62
     7
 10
129.960193
 20
91.535367
 11
129.988908
 21
91.485901
  0
LINE
  8
CSLAYER4
  6
CONTINUOUS
 62
     7
 10
129.988908
 20
91.485901
 11
130.019574
 21
91.437609
  0
LINE
  8
CSLAYER4
  6
CONTINUOUS
 62
     7
 10
130.019574
 20
91.437609
 11
130.052025
 21
91.390760
  0
LINE
  8
CSLAYER4
  6
CONTINUOUS
 62
     7
 10
130.052025
 20
91.390760
 11
130.086254
 21
91.345344
  0
LINE
  8
CSLAYER4
  6
CONTINUOUS
 62
     7
 10
130.086254
 20
91.345344
 11
130.122255
 21
91.301365
  0
LINE
  8
CSLAYER4
  6
CONTINUOUS
 62
     7
 10
130.122255
 20
91.301365
 11
130.160027
 21
91.258814
  0
LINE
  8
CSLAYER4
  6
CONTINUOUS
 62
     7
 10
130.160027
 20
91.258814
 11
130.199557
 21
91.217684
  0
LINE
  8
CSLAYER4
  6
CONTINUOUS
 62
     7
 10
130.199557
 20
91.217684
 11
130.222608
 21
91.194873
  0
LINE
  8
CSLAYER4
  6
CONTINUOUS
 62
     7
 10
130.222608
 20
91.194873
 11
130.245947
 21
91.172248
  0
LINE
  8
CSLAYER4
  6
CONTINUOUS
 62
     7
 10
130.245947
 20
91.172248
 11
130.269568
 21
91.149843
  0
LINE
  8
CSLAYER4
  6
CONTINUOUS
 62
     7
 10
130.269568
 20
91.149843
 11
130.293477
 21
91.127664
  0
LINE
  8
CSLAYER4
  6
CONTINUOUS
 62
     7
 10
130.293477
 20
91.127664
 11
130.317667
 21
91.105740
  0
LINE
  8
CSLAYER4
  6
CONTINUOUS
 62
     7
 10
130.317667
 20
91.105740
 11
130.342139
 21
91.084083
  0
LINE
  8
CSLAYER4
  6
CONTINUOUS
 62
     7
 10
130.342139
 20
91.084083
 11
130.366886
 21
91.062722
  0
LINE
  8
CSLAYER4
  6
CONTINUOUS
 62
     7
 10
130.366886
 20
91.062722
 11
130.391907
 21
91.041675
  0
LINE
  8
CSLAYER4
  6
CONTINUOUS
 62
     7
 10
130.391907
 20
91.041675
 11
130.417203
 21
91.020960
  0
LINE
  8
CSLAYER4
  6
CONTINUOUS
 62
     7
 10
130.417203
 20
91.020960
 11
130.442774
 21
91.000593
  0
LINE
  8
CSLAYER4
  6
CONTINUOUS
 62
     7
 10
130.442774
 20
91.000593
 11
130.468606
 21
90.980598
  0
LINE
  8
CSLAYER4
  6
CONTINUOUS
 62
     7
 10
130.468606
 20
90.980598
 11
130.494712
 21
90.961002
  0
LINE
  8
CSLAYER4
  6
CONTINUOUS
 62
     7
 10
130.494712
 20
90.961002
 11
130.521079
 21
90.941817
  0
LINE
  8
CSLAYER4
  6
CONTINUOUS
 62
     7
 10
130.521079
 20
90.941817
 11
130.547707
 21
90.923058
  0
LINE
  8
CSLAYER4
  6
CONTINUOUS
 62
     7
 10
130.547707
 20
90.923058
 11
130.574589
 21
90.904758
  0
LINE
  8
CSLAYER4
  6
CONTINUOUS
 62
     7
 10
130.574589
 20
90.904758
 11
130.601733
 21
90.886926
  0
LINE
  8
CSLAYER4
  6
CONTINUOUS
 62
     7
 10
130.601733
 20
90.886926
 11
130.629136
 21
90.869589
  0
LINE
  8
CSLAYER4
  6
CONTINUOUS
 62
     7
 10
130.629136
 20
90.869589
 11
130.656787
 21
90.852766
  0
LINE
  8
CSLAYER4
  6
CONTINUOUS
 62
     7
 10
130.656787
 20
90.852766
 11
130.684707
 21
90.836465
  0
LINE
  8
CSLAYER4
  6
CONTINUOUS
 62
     7
 10
130.684707
 20
90.836465
 11
130.712921
 21
90.820686
  0
LINE
  8
CSLAYER4
  6
CONTINUOUS
 62
     7
 10
130.712921
 20
90.820686
 11
130.741423
 21
90.805463
  0
LINE
  8
CSLAYER4
  6
CONTINUOUS
 62
     7
 10
130.741423
 20
90.805463
 11
130.770222
 21
90.790810
  0
LINE
  8
CSLAYER4
  6
CONTINUOUS
 62
     7
 10
130.770222
 20
90.790810
 11
130.799308
 21
90.776754
  0
LINE
  8
CSLAYER4
  6
CONTINUOUS
 62
     7
 10
130.799308
 20
90.776754
 11
130.828683
 21
90.763316
  0
LINE
  8
CSLAYER4
  6
CONTINUOUS
 62
     7
 10
132.296646
 20
90.134191
 11
130.828685
 21
90.763317
  0
LINE
  8
CSLAYER4
  6
CONTINUOUS
 62
     7
 10
132.296648
 20
90.134191
 11
132.338575
 21
90.114931
  0
LINE
  8
CSLAYER4
  6
CONTINUOUS
 62
     7
 10
132.338575
 20
90.114931
 11
132.379732
 21
90.094084
  0
LINE
  8
CSLAYER4
  6
CONTINUOUS
 62
     7
 10
132.379732
 20
90.094084
 11
132.420025
 21
90.071576
  0
LINE
  8
CSLAYER4
  6
CONTINUOUS
 62
     7
 10
132.420025
 20
90.071576
 11
132.459301
 21
90.047344
  0
LINE
  8
CSLAYER4
  6
CONTINUOUS
 62
     7
 10
132.459301
 20
90.047344
 11
132.497451
 21
90.021320
  0
LINE
  8
CSLAYER4
  6
CONTINUOUS
 62
     7
 10
132.497451
 20
90.021320
 11
132.534282
 21
89.993484
  0
LINE
  8
CSLAYER4
  6
CONTINUOUS
 62
     7
 10
132.534282
 20
89.993484
 11
132.569535
 21
89.963903
  0
LINE
  8
CSLAYER4
  6
CONTINUOUS
 62
     7
 10
132.569535
 20
89.963903
 11
132.603126
 21
89.932544
  0
LINE
  8
CSLAYER4
  6
CONTINUOUS
 62
     7
 10
132.603126
 20
89.932544
 11
132.634959
 21
89.899358
  0
LINE
  8
CSLAYER4
  6
CONTINUOUS
 62
     7
 10
132.634959
 20
89.899358
 11
132.664978
 21
89.864305
  0
LINE
  8
CSLAYER4
  6
CONTINUOUS
 62
     7
 10
132.664978
 20
89.864305
 11
132.692939
 21
89.827549
  0
LINE
  8
CSLAYER4
  6
CONTINUOUS
 62
     7
 10
132.692939
 20
89.827549
 11
132.718537
 21
89.789516
  0
LINE
  8
CSLAYER4
  6
CONTINUOUS
 62
     7
 10
132.718537
 20
89.789516
 11
132.741801
 21
89.750260
  0
LINE
  8
CSLAYER4
  6
CONTINUOUS
 62
     7
 10
132.741801
 20
89.750260
 11
132.762771
 21
89.709803
  0
LINE
  8
CSLAYER4
  6
CONTINUOUS
 62
     7
 10
132.762771
 20
89.709803
 11
132.781475
 21
89.668185
  0
LINE
  8
CSLAYER4
  6
CONTINUOUS
 62
     7
 10
132.781475
 20
89.668185
 11
132.797982
 21
89.625435
  0
LINE
  8
CSLAYER4
  6
CONTINUOUS
 62
     7
 10
132.797982
 20
89.625435
 11
132.812319
 21
89.581579
  0
LINE
  8
CSLAYER4
  6
CONTINUOUS
 62
     7
 10
132.812319
 20
89.581579
 11
132.824514
 21
89.536775
  0
LINE
  8
CSLAYER4
  6
CONTINUOUS
 62
     7
 10
132.824514
 20
89.536775
 11
132.834539
 21
89.491450
  0
LINE
  8
CSLAYER4
  6
CONTINUOUS
 62
     7
 10
132.834539
 20
89.491450
 11
132.842504
 21
89.445705
  0
LINE
  8
CSLAYER4
  6
CONTINUOUS
 62
     7
 10
132.842504
 20
89.445705
 11
132.848519
 21
89.399639
  0
LINE
  8
CSLAYER4
  6
CONTINUOUS
 62
     7
 10
132.848519
 20
89.399639
 11
132.852666
 21
89.353338
  0
LINE
  8
CSLAYER4
  6
CONTINUOUS
 62
     7
 10
132.852666
 20
89.353338
 11
132.855083
 21
89.306900
  0
LINE
  8
CSLAYER4
  6
CONTINUOUS
 62
     7
 10
132.855083
 20
89.306900
 11
132.855866
 21
89.260407
  0
LINE
  8
CSLAYER4
  6
CONTINUOUS
 62
     7
 10
132.855866
 20
89.260407
 11
132.854891
 21
89.216949
  0
LINE
  8
CSLAYER4
  6
CONTINUOUS
 62
     7
 10
132.854891
 20
89.216949
 11
132.851883
 21
89.173684
  0
LINE
  8
CSLAYER4
  6
CONTINUOUS
 62
     7
 10
132.851883
 20
89.173684
 11
132.846775
 21
89.130652
  0
LINE
  8
CSLAYER4
  6
CONTINUOUS
 62
     7
 10
132.846775
 20
89.130652
 11
132.839442
 21
89.087901
  0
LINE
  8
CSLAYER4
  6
CONTINUOUS
 62
     7
 10
132.839442
 20
89.087901
 11
132.829828
 21
89.045528
  0
LINE
  8
CSLAYER4
  6
CONTINUOUS
 62
     7
 10
132.829828
 20
89.045528
 11
132.817936
 21
89.003897
  0
LINE
  8
CSLAYER4
  6
CONTINUOUS
 62
     7
 10
132.817936
 20
89.003897
 11
132.803763
 21
88.963131
  0
LINE
  8
CSLAYER4
  6
CONTINUOUS
 62
     7
 10
132.803763
 20
88.963131
 11
132.787297
 21
88.923230
  0
LINE
  8
CSLAYER4
  6
CONTINUOUS
 62
     7
 10
132.787297
 20
88.923230
 11
132.768511
 21
88.884208
  0
LINE
  8
CSLAYER4
  6
CONTINUOUS
 62
     7
 10
132.768511
 20
88.884208
 11
132.747555
 21
88.846319
  0
LINE
  8
CSLAYER4
  6
CONTINUOUS
 62
     7
 10
132.747555
 20
88.846319
 11
132.724648
 21
88.809885
  0
LINE
  8
CSLAYER4
  6
CONTINUOUS
 62
     7
 10
132.724648
 20
88.809885
 11
132.699888
 21
88.774880
  0
LINE
  8
CSLAYER4
  6
CONTINUOUS
 62
     7
 10
132.699888
 20
88.774880
 11
132.673383
 21
88.741276
  0
LINE
  8
CSLAYER4
  6
CONTINUOUS
 62
     7
 10
132.673383
 20
88.741276
 11
132.645217
 21
88.709031
  0
LINE
  8
CSLAYER4
  6
CONTINUOUS
 62
     7
 10
132.645217
 20
88.709031
 11
132.615485
 21
88.678112
  0
LINE
  8
CSLAYER4
  6
CONTINUOUS
 62
     7
 10
132.615485
 20
88.678112
 11
132.584256
 21
88.648490
  0
LINE
  8
CSLAYER4
  6
CONTINUOUS
 62
     7
 10
132.584256
 20
88.648490
 11
132.551655
 21
88.620131
  0
LINE
  8
CSLAYER4
  6
CONTINUOUS
 62
     7
 10
132.551655
 20
88.620131
 11
132.517816
 21
88.593063
  0
LINE
  8
CSLAYER4
  6
CONTINUOUS
 62
     7
 10
132.517816
 20
88.593063
 11
132.482922
 21
88.567287
  0
LINE
  8
CSLAYER4
  6
CONTINUOUS
 62
     7
 10
132.482922
 20
88.567287
 11
132.447078
 21
88.542767
  0
LINE
  8
CSLAYER4
  6
CONTINUOUS
 62
     7
 10
132.447078
 20
88.542767
 11
132.410412
 21
88.519462
  0
LINE
  8
CSLAYER4
  6
CONTINUOUS
 62
     7
 10
132.410412
 20
88.519462
 11
132.373044
 21
88.497352
  0
LINE
  8
CSLAYER4
  6
CONTINUOUS
 62
     7
 10
132.373044
 20
88.497352
 11
132.335086
 21
88.476382
  0
LINE
  8
CSLAYER4
  6
CONTINUOUS
 62
     7
 10
132.335086
 20
88.476382
 11
132.296648
 21
88.456524
  0
LINE
  8
CSLAYER4
  6
CONTINUOUS
 62
     7
 10
132.296648
 20
88.456524
 11
132.259432
 21
88.445600
  0
LINE
  8
CSLAYER4
  6
CONTINUOUS
 62
     7
 10
132.259432
 20
88.445600
 11
132.222044
 21
88.435684
  0
LINE
  8
CSLAYER4
  6
CONTINUOUS
 62
     7
 10
132.222044
 20
88.435684
 11
132.184464
 21
88.426799
  0
LINE
  8
CSLAYER4
  6
CONTINUOUS
 62
     7
 10
132.184464
 20
88.426799
 11
132.146706
 21
88.418951
  0
LINE
  8
CSLAYER4
  6
CONTINUOUS
 62
     7
 10
132.146706
 20
88.418951
 11
132.108762
 21
88.412160
  0
LINE
  8
CSLAYER4
  6
CONTINUOUS
 62
     7
 10
132.108762
 20
88.412160
 11
132.070632
 21
88.406433
  0
LINE
  8
CSLAYER4
  6
CONTINUOUS
 62
     7
 10
132.070632
 20
88.406433
 11
132.032324
 21
88.401805
  0
LINE
  8
CSLAYER4
  6
CONTINUOUS
 62
     7
 10
132.032324
 20
88.401805
 11
131.993838
 21
88.398276
  0
LINE
  8
CSLAYER4
  6
CONTINUOUS
 62
     7
 10
131.993838
 20
88.398276
 11
131.955172
 21
88.395866
  0
LINE
  8
CSLAYER4
  6
CONTINUOUS
 62
     7
 10
131.955172
 20
88.395866
 11
131.916501
 21
88.394602
  0
LINE
  8
CSLAYER4
  6
CONTINUOUS
 62
     7
 10
131.916501
 20
88.394602
 11
131.877918
 21
88.394472
  0
LINE
  8
CSLAYER4
  6
CONTINUOUS
 62
     7
 10
131.877918
 20
88.394472
 11
131.839418
 21
88.395467
  0
LINE
  8
CSLAYER4
  6
CONTINUOUS
 62
     7
 10
131.839418
 20
88.395467
 11
131.800993
 21
88.397596
  0
LINE
  8
CSLAYER4
  6
CONTINUOUS
 62
     7
 10
131.800993
 20
88.397596
 11
131.762658
 21
88.400830
  0
LINE
  8
CSLAYER4
  6
CONTINUOUS
 62
     7
 10
131.762658
 20
88.400830
 11
131.724405
 21
88.405184
  0
LINE
  8
CSLAYER4
  6
CONTINUOUS
 62
     7
 10
131.724405
 20
88.405184
 11
131.686227
 21
88.410635
  0
LINE
  8
CSLAYER4
  6
CONTINUOUS
 62
     7
 10
131.686227
 20
88.410635
 11
131.648139
 21
88.417179
  0
LINE
  8
CSLAYER4
  6
CONTINUOUS
 62
     7
 10
131.648139
 20
88.417179
 11
131.610154
 21
88.424808
  0
LINE
  8
CSLAYER4
  6
CONTINUOUS
 62
     7
 10
131.610154
 20
88.424808
 11
131.572423
 21
88.433473
  0
LINE
  8
CSLAYER4
  6
CONTINUOUS
 62
     7
 10
131.572423
 20
88.433473
 11
131.534959
 21
88.443148
  0
LINE
  8
CSLAYER4
  6
CONTINUOUS
 62
     7
 10
131.534959
 20
88.443148
 11
131.497777
 21
88.453812
  0
LINE
  8
CSLAYER4
  6
CONTINUOUS
 62
     7
 10
131.497777
 20
88.453812
 11
131.460877
 21
88.465437
  0
LINE
  8
CSLAYER4
  6
CONTINUOUS
 62
     7
 10
131.460877
 20
88.465437
 11
131.424251
 21
88.477995
  0
LINE
  8
CSLAYER4
  6
CONTINUOUS
 62
     7
 10
131.424251
 20
88.477995
 11
131.387907
 21
88.491474
  0
LINE
  8
CSLAYER4
  6
CONTINUOUS
 62
     7
 10
131.387907
 20
88.491474
 11
131.362508
 21
88.501938
  0
LINE
  8
CSLAYER4
  6
CONTINUOUS
 62
     7
 10
131.362508
 20
88.501938
 11
131.337308
 21
88.512939
  0
LINE
  8
CSLAYER4
  6
CONTINUOUS
 62
     7
 10
131.337308
 20
88.512939
 11
131.312356
 21
88.524495
  0
LINE
  8
CSLAYER4
  6
CONTINUOUS
 62
     7
 10
131.312356
 20
88.524495
 11
131.287664
 21
88.536614
  0
LINE
  8
CSLAYER4
  6
CONTINUOUS
 62
     7
 10
131.287664
 20
88.536614
 11
131.263267
 21
88.549324
  0
LINE
  8
CSLAYER4
  6
CONTINUOUS
 62
     7
 10
131.263267
 20
88.549324
 11
131.239194
 21
88.562624
  0
LINE
  8
CSLAYER4
  6
CONTINUOUS
 62
     7
 10
131.239194
 20
88.562624
 11
131.215477
 21
88.576543
  0
LINE
  8
CSLAYER4
  6
CONTINUOUS
 62
     7
 10
131.215477
 20
88.576543
 11
131.192137
 21
88.591093
  0
LINE
  8
CSLAYER4
  6
CONTINUOUS
 62
     7
 10
131.192137
 20
88.591093
 11
131.169204
 21
88.606281
  0
LINE
  8
CSLAYER4
  6
CONTINUOUS
 62
     7
 10
131.169204
 20
88.606281
 11
131.146723
 21
88.622122
  0
LINE
  8
CSLAYER4
  6
CONTINUOUS
 62
     7
 10
131.146723
 20
88.622122
 11
131.124764
 21
88.638588
  0
LINE
  8
CSLAYER4
  6
CONTINUOUS
 62
     7
 10
131.124764
 20
88.638588
 11
131.103361
 21
88.655685
  0
LINE
  8
CSLAYER4
  6
CONTINUOUS
 62
     7
 10
131.103361
 20
88.655685
 11
131.082535
 21
88.673429
  0
LINE
  8
CSLAYER4
  6
CONTINUOUS
 62
     7
 10
131.082535
 20
88.673429
 11
131.062300
 21
88.691823
  0
LINE
  8
CSLAYER4
  6
CONTINUOUS
 62
     7
 10
131.062300
 20
88.691823
 11
131.042676
 21
88.710885
  0
LINE
  8
CSLAYER4
  6
CONTINUOUS
 62
     7
 10
131.042676
 20
88.710885
 11
131.023683
 21
88.730626
  0
LINE
  8
CSLAYER4
  6
CONTINUOUS
 62
     7
 10
131.023683
 20
88.730626
 11
131.005342
 21
88.751054
  0
LINE
  8
CSLAYER4
  6
CONTINUOUS
 62
     7
 10
131.005342
 20
88.751054
 11
130.987675
 21
88.772182
  0
LINE
  8
CSLAYER4
  6
CONTINUOUS
 62
     7
 10
130.987675
 20
88.772182
 11
130.970763
 21
88.793942
  0
LINE
  8
CSLAYER4
  6
CONTINUOUS
 62
     7
 10
130.970763
 20
88.793942
 11
130.954675
 21
88.816251
  0
LINE
  8
CSLAYER4
  6
CONTINUOUS
 62
     7
 10
130.954675
 20
88.816251
 11
130.939418
 21
88.839095
  0
LINE
  8
CSLAYER4
  6
CONTINUOUS
 62
     7
 10
130.939418
 20
88.839095
 11
130.924984
 21
88.862483
  0
LINE
  8
CSLAYER4
  6
CONTINUOUS
 62
     7
 10
130.924984
 20
88.862483
 11
130.911375
 21
88.886419
  0
LINE
  8
CSLAYER4
  6
CONTINUOUS
 62
     7
 10
130.911375
 20
88.886419
 11
130.898590
 21
88.910891
  0
LINE
  8
CSLAYER4
  6
CONTINUOUS
 62
     7
 10
130.898590
 20
88.910891
 11
130.884864
 21
88.939290
  0
LINE
  8
CSLAYER4
  6
CONTINUOUS
 62
     7
 10
130.884864
 20
88.939290
 11
130.871659
 21
88.968487
  0
LINE
  8
CSLAYER4
  6
CONTINUOUS
 62
     7
 10
130.871659
 20
88.968487
 11
130.858971
 21
88.998431
  0
LINE
  8
CSLAYER4
  6
CONTINUOUS
 62
     7
 10
130.858971
 20
88.998431
 11
130.846776
 21
89.029076
  0
LINE
  8
CSLAYER4
  6
CONTINUOUS
 62
     7
 10
130.846776
 20
89.029076
 11
130.835068
 21
89.060367
  0
LINE
  8
CSLAYER4
  6
CONTINUOUS
 62
     7
 10
130.835068
 20
89.060367
 11
130.823842
 21
89.092248
  0
LINE
  8
CSLAYER4
  6
CONTINUOUS
 62
     7
 10
130.823842
 20
89.092248
 11
130.813075
 21
89.124665
  0
LINE
  8
CSLAYER4
  6
CONTINUOUS
 62
     7
 10
130.813075
 20
89.124665
 11
130.802755
 21
89.157582
  0
LINE
  8
CSLAYER4
  6
CONTINUOUS
 62
     7
 10
130.802755
 20
89.157582
 11
130.792881
 21
89.190926
  0
LINE
  8
CSLAYER4
  6
CONTINUOUS
 62
     7
 10
130.792881
 20
89.190926
 11
130.783440
 21
89.224667
  0
LINE
  8
CSLAYER4
  6
CONTINUOUS
 62
     7
 10
130.783440
 20
89.224667
 11
130.774410
 21
89.258739
  0
LINE
  8
CSLAYER4
  6
CONTINUOUS
 62
     7
 10
130.774410
 20
89.258739
 11
130.765786
 21
89.293092
  0
LINE
  8
CSLAYER4
  6
CONTINUOUS
 62
     7
 10
130.765786
 20
89.293092
 11
130.757553
 21
89.327678
  0
LINE
  8
CSLAYER4
  6
CONTINUOUS
 62
     7
 10
130.757553
 20
89.327678
 11
130.749705
 21
89.362443
  0
LINE
  8
CSLAYER4
  6
CONTINUOUS
 62
     7
 10
130.749705
 20
89.362443
 11
130.742220
 21
89.397332
  0
LINE
  8
CSLAYER4
  6
CONTINUOUS
 62
     7
 10
130.742220
 20
89.397332
 11
130.735099
 21
89.432302
  0
LINE
  8
CSLAYER4
  6
CONTINUOUS
 62
     7
 10
130.735099
 20
89.432302
 11
130.728315
 21
89.467307
  0
LINE
  8
CSLAYER4
  6
CONTINUOUS
 62
     7
 10
130.728315
 20
89.467307
 11
130.721847
 21
89.502450
  0
LINE
  8
CSLAYER4
  6
CONTINUOUS
 62
     7
 10
130.721847
 20
89.502450
 11
130.715667
 21
89.537723
  0
LINE
  8
CSLAYER4
  6
CONTINUOUS
 62
     7
 10
130.715667
 20
89.537723
 11
130.709769
 21
89.573099
  0
LINE
  8
CSLAYER4
  6
CONTINUOUS
 62
     7
 10
130.709769
 20
89.573099
 11
130.704153
 21
89.608530
  0
LINE
  8
CSLAYER4
  6
CONTINUOUS
 62
     7
 10
130.704153
 20
89.608530
 11
130.698804
 21
89.643974
  0
LINE
  8
CSLAYER4
  6
CONTINUOUS
 62
     7
 10
130.698804
 20
89.643974
 11
130.693716
 21
89.679405
  0
LINE
  8
CSLAYER4
  6
CONTINUOUS
 62
     7
 10
130.693716
 20
89.679405
 11
130.688881
 21
89.714774
  0
LINE
  8
CSLAYER4
  6
CONTINUOUS
 62
     7
 10
129.570433
 20
89.714774
 11
130.688880
 21
89.714774
  0
LINE
  8
CSLAYER4
  6
CONTINUOUS
 62
     7
 10
129.570432
 20
89.714774
 11
129.580869
 21
89.590828
  0
LINE
  8
CSLAYER4
  6
CONTINUOUS
 62
     7
 10
129.580869
 20
89.590828
 11
129.594341
 21
89.466675
  0
LINE
  8
CSLAYER4
  6
CONTINUOUS
 62
     7
 10
129.594341
 20
89.466675
 11
129.611074
 21
89.342667
  0
LINE
  8
CSLAYER4
  6
CONTINUOUS
 62
     7
 10
129.611074
 20
89.342667
 11
129.631296
 21
89.219174
  0
LINE
  8
CSLAYER4
  6
CONTINUOUS
 62
     7
 10
129.631296
 20
89.219174
 11
129.655233
 21
89.096560
  0
LINE
  8
CSLAYER4
  6
CONTINUOUS
 62
     7
 10
129.655233
 20
89.096560
 11
129.683110
 21
88.975182
  0
LINE
  8
CSLAYER4
  6
CONTINUOUS
 62
     7
 10
129.683110
 20
88.975182
 11
129.715177
 21
88.855321
  0
LINE
  8
CSLAYER4
  6
CONTINUOUS
 62
     7
 10
129.715177
 20
88.855321
 11
129.751858
 21
88.736785
  0
LINE
  8
CSLAYER4
  6
CONTINUOUS
 62
     7
 10
129.751858
 20
88.736785
 11
129.793475
 21
88.619911
  0
LINE
  8
CSLAYER4
  6
CONTINUOUS
 62
     7
 10
129.793475
 20
88.619911
 11
129.840325
 21
88.505152
  0
LINE
  8
CSLAYER4
  6
CONTINUOUS
 62
     7
 10
129.840325
 20
88.505152
 11
129.892702
 21
88.392982
  0
LINE
  8
CSLAYER4
  6
CONTINUOUS
 62
     7
 10
129.892702
 20
88.392982
 11
129.950902
 21
88.283840
  0
LINE
  8
CSLAYER4
  6
CONTINUOUS
 62
     7
 10
129.950902
 20
88.283840
 11
130.014980
 21
88.178577
  0
LINE
  8
CSLAYER4
  6
CONTINUOUS
 62
     7
 10
130.014980
 20
88.178577
 11
130.084729
 21
88.078155
  0
LINE
  8
CSLAYER4
  6
CONTINUOUS
 62
     7
 10
130.084729
 20
88.078155
 11
130.160329
 21
87.982821
  0
LINE
  8
CSLAYER4
  6
CONTINUOUS
 62
     7
 10
130.160329
 20
87.982821
 11
130.241937
 21
87.892815
  0
LINE
  8
CSLAYER4
  6
CONTINUOUS
 62
     7
 10
130.241937
 20
87.892815
 11
130.329732
 21
87.808358
  0
LINE
  8
CSLAYER4
  6
CONTINUOUS
 62
     7
 10
130.329732
 20
87.808358
 11
130.423850
 21
87.729717
  0
LINE
  8
CSLAYER4
  6
CONTINUOUS
 62
     7
 10
130.423850
 20
87.729717
 11
130.522919
 21
87.658140
  0
LINE
  8
CSLAYER4
  6
CONTINUOUS
 62
     7
 10
130.522919
 20
87.658140
 11
130.625957
 21
87.594083
  0
LINE
  8
CSLAYER4
  6
CONTINUOUS
 62
     7
 10
130.625957
 20
87.594083
 11
130.732737
 21
87.537284
  0
LINE
  8
CSLAYER4
  6
CONTINUOUS
 62
     7
 10
130.732737
 20
87.537284
 11
130.843040
 21
87.487502
  0
LINE
  8
CSLAYER4
  6
CONTINUOUS
 62
     7
 10
130.843040
 20
87.487502
 11
130.956652
 21
87.444484
  0
LINE
  8
CSLAYER4
  6
CONTINUOUS
 62
     7
 10
130.956652
 20
87.444484
 11
131.073348
 21
87.407975
  0
ENDBLK
  8
0
  0
BLOCK
  8
CSLAYER1
  2
BLKF0006
 70
   64
 10
0.0
 20
0.0
 30
0.0
  0
LINE
  8
CSLAYER4
  6
CONTINUOUS
 62
     7
 10
95.194027
 20
78.438021
 11
95.283346
 21
78.412355
  0
LINE
  8
CSLAYER4
  6
CONTINUOUS
 62
     7
 10
95.283346
 20
78.412355
 11
95.373214
 21
78.389380
  0
LINE
  8
CSLAYER4
  6
CONTINUOUS
 62
     7
 10
95.373214
 20
78.389380
 11
95.463604
 21
78.369206
  0
LINE
  8
CSLAYER4
  6
CONTINUOUS
 62
     7
 10
95.463604
 20
78.369206
 11
95.554495
 21
78.351944
  0
LINE
  8
CSLAYER4
  6
CONTINUOUS
 62
     7
 10
95.554495
 20
78.351944
 11
95.645854
 21
78.337716
  0
LINE
  8
CSLAYER4
  6
CONTINUOUS
 62
     7
 10
95.645854
 20
78.337716
 11
95.737644
 21
78.326621
  0
LINE
  8
CSLAYER4
  6
CONTINUOUS
 62
     7
 10
95.737644
 20
78.326621
 11
95.829847
 21
78.318779
  0
LINE
  8
CSLAYER4
  6
CONTINUOUS
 62
     7
 10
95.829847
 20
78.318779
 11
95.922427
 21
78.314295
  0
LINE
  8
CSLAYER4
  6
CONTINUOUS
 62
     7
 10
95.922427
 20
78.314295
 11
96.015365
 21
78.313279
  0
LINE
  8
CSLAYER4
  6
CONTINUOUS
 62
     7
 10
96.015365
 20
78.313279
 11
96.108179
 21
78.315826
  0
LINE
  8
CSLAYER4
  6
CONTINUOUS
 62
     7
 10
96.108179
 20
78.315826
 11
96.200375
 21
78.321951
  0
LINE
  8
CSLAYER4
  6
CONTINUOUS
 62
     7
 10
96.200375
 20
78.321951
 11
96.291960
 21
78.331653
  0
LINE
  8
CSLAYER4
  6
CONTINUOUS
 62
     7
 10
96.291960
 20
78.331653
 11
96.382926
 21
78.344947
  0
LINE
  8
CSLAYER4
  6
CONTINUOUS
 62
     7
 10
96.382926
 20
78.344947
 11
96.473289
 21
78.361824
  0
LINE
  8
CSLAYER4
  6
CONTINUOUS
 62
     7
 10
96.473289
 20
78.361824
 11
96.563034
 21
78.382293
  0
LINE
  8
CSLAYER4
  6
CONTINUOUS
 62
     7
 10
96.563034
 20
78.382293
 11
96.652146
 21
78.406353
  0
LINE
  8
CSLAYER4
  6
CONTINUOUS
 62
     7
 10
96.652146
 20
78.406353
 11
96.740655
 21
78.434012
  0
LINE
  8
CSLAYER4
  6
CONTINUOUS
 62
     7
 10
96.740655
 20
78.434012
 11
96.828477
 21
78.465240
  0
LINE
  8
CSLAYER4
  6
CONTINUOUS
 62
     7
 10
96.828477
 20
78.465240
 11
96.914994
 21
78.499772
  0
LINE
  8
CSLAYER4
  6
CONTINUOUS
 62
     7
 10
96.914994
 20
78.499772
 11
97.000056
 21
78.537462
  0
LINE
  8
CSLAYER4
  6
CONTINUOUS
 62
     7
 10
97.000056
 20
78.537462
 11
97.083689
 21
78.578193
  0
LINE
  8
CSLAYER4
  6
CONTINUOUS
 62
     7
 10
97.083689
 20
78.578193
 11
97.165881
 21
78.621864
  0
LINE
  8
CSLAYER4
  6
CONTINUOUS
 62
     7
 10
97.165881
 20
78.621864
 11
97.246671
 21
78.668384
  0
LINE
  8
CSLAYER4
  6
CONTINUOUS
 62
     7
 10
97.246671
 20
78.668384
 11
97.326061
 21
78.717638
  0
LINE
  8
CSLAYER4
  6
CONTINUOUS
 62
     7
 10
97.326061
 20
78.717638
 11
97.360105
 21
78.739961
  0
LINE
  8
CSLAYER4
  6
CONTINUOUS
 62
     7
 10
97.360105
 20
78.739961
 11
97.393462
 21
78.763169
  0
LINE
  8
CSLAYER4
  6
CONTINUOUS
 62
     7
 10
97.393462
 20
78.763169
 11
97.426133
 21
78.787250
  0
LINE
  8
CSLAYER4
  6
CONTINUOUS
 62
     7
 10
97.426133
 20
78.787250
 11
97.458131
 21
78.812189
  0
LINE
  8
CSLAYER4
  6
CONTINUOUS
 62
     7
 10
97.458131
 20
78.812189
 11
97.489456
 21
78.837972
  0
LINE
  8
CSLAYER4
  6
CONTINUOUS
 62
     7
 10
97.489456
 20
78.837972
 11
97.520135
 21
78.864593
  0
LINE
  8
CSLAYER4
  6
CONTINUOUS
 62
     7
 10
97.520135
 20
78.864593
 11
97.550142
 21
78.892032
  0
LINE
  8
CSLAYER4
  6
CONTINUOUS
 62
     7
 10
97.550142
 20
78.892032
 11
97.579502
 21
78.920287
  0
LINE
  8
CSLAYER4
  6
CONTINUOUS
 62
     7
 10
97.579502
 20
78.920287
 11
97.608190
 21
78.949319
  0
LINE
  8
CSLAYER4
  6
CONTINUOUS
 62
     7
 10
97.608190
 20
78.949319
 11
97.636150
 21
78.979023
  0
LINE
  8
CSLAYER4
  6
CONTINUOUS
 62
     7
 10
97.636150
 20
78.979023
 11
97.663369
 21
79.009379
  0
LINE
  8
CSLAYER4
  6
CONTINUOUS
 62
     7
 10
97.663369
 20
79.009379
 11
97.689874
 21
79.040354
  0
LINE
  8
CSLAYER4
  6
CONTINUOUS
 62
     7
 10
97.689874
 20
79.040354
 11
97.715664
 21
79.071933
  0
LINE
  8
CSLAYER4
  6
CONTINUOUS
 62
     7
 10
97.715664
 20
79.071933
 11
97.740754
 21
79.104089
  0
LINE
  8
CSLAYER4
  6
CONTINUOUS
 62
     7
 10
97.740754
 20
79.104089
 11
97.765158
 21
79.136800
  0
LINE
  8
CSLAYER4
  6
CONTINUOUS
 62
     7
 10
97.765158
 20
79.136800
 11
97.788874
 21
79.170041
  0
LINE
  8
CSLAYER4
  6
CONTINUOUS
 62
     7
 10
97.788874
 20
79.170041
 11
97.811918
 21
79.203789
  0
LINE
  8
CSLAYER4
  6
CONTINUOUS
 62
     7
 10
97.811918
 20
79.203789
 11
97.834317
 21
79.238012
  0
LINE
  8
CSLAYER4
  6
CONTINUOUS
 62
     7
 10
97.834317
 20
79.238012
 11
97.856042
 21
79.272667
  0
LINE
  8
CSLAYER4
  6
CONTINUOUS
 62
     7
 10
97.856042
 20
79.272667
 11
97.877122
 21
79.307741
  0
LINE
  8
CSLAYER4
  6
CONTINUOUS
 62
     7
 10
97.877122
 20
79.307741
 11
97.897570
 21
79.343192
  0
LINE
  8
CSLAYER4
  6
CONTINUOUS
 62
     7
 10
97.897570
 20
79.343192
 11
97.917387
 21
79.379007
  0
LINE
  8
CSLAYER4
  6
CONTINUOUS
 62
     7
 10
97.917387
 20
79.379007
 11
97.936585
 21
79.415159
  0
LINE
  8
CSLAYER4
  6
CONTINUOUS
 62
     7
 10
97.936585
 20
79.415159
 11
97.955193
 21
79.451613
  0
LINE
  8
CSLAYER4
  6
CONTINUOUS
 62
     7
 10
97.955193
 20
79.451613
 11
97.974667
 21
79.492002
  0
LINE
  8
CSLAYER4
  6
CONTINUOUS
 62
     7
 10
97.974667
 20
79.492002
 11
97.993014
 21
79.532906
  0
LINE
  8
CSLAYER4
  6
CONTINUOUS
 62
     7
 10
97.993014
 20
79.532906
 11
98.010249
 21
79.574297
  0
LINE
  8
CSLAYER4
  6
CONTINUOUS
 62
     7
 10
98.010249
 20
79.574297
 11
98.026399
 21
79.616141
  0
LINE
  8
CSLAYER4
  6
CONTINUOUS
 62
     7
 10
98.026399
 20
79.616141
 11
98.041505
 21
79.658411
  0
LINE
  8
CSLAYER4
  6
CONTINUOUS
 62
     7
 10
98.041505
 20
79.658411
 11
98.055581
 21
79.701058
  0
LINE
  8
CSLAYER4
  6
CONTINUOUS
 62
     7
 10
98.055581
 20
79.701058
 11
98.068669
 21
79.744062
  0
LINE
  8
CSLAYER4
  6
CONTINUOUS
 62
     7
 10
98.068669
 20
79.744062
 11
98.080781
 21
79.787383
  0
LINE
  8
CSLAYER4
  6
CONTINUOUS
 62
     7
 10
98.080781
 20
79.787383
 11
98.091946
 21
79.830985
  0
LINE
  8
CSLAYER4
  6
CONTINUOUS
 62
     7
 10
98.091946
 20
79.830985
 11
98.102191
 21
79.874841
  0
LINE
  8
CSLAYER4
  6
CONTINUOUS
 62
     7
 10
98.102191
 20
79.874841
 11
98.111556
 21
79.918917
  0
LINE
  8
CSLAYER4
  6
CONTINUOUS
 62
     7
 10
98.111556
 20
79.918917
 11
98.120057
 21
79.963171
  0
LINE
  8
CSLAYER4
  6
CONTINUOUS
 62
     7
 10
98.120057
 20
79.963171
 11
98.127720
 21
80.007570
  0
LINE
  8
CSLAYER4
  6
CONTINUOUS
 62
     7
 10
98.127720
 20
80.007570
 11
98.134587
 21
80.052092
  0
LINE
  8
CSLAYER4
  6
CONTINUOUS
 62
     7
 10
98.134587
 20
80.052092
 11
98.140670
 21
80.096690
  0
LINE
  8
CSLAYER4
  6
CONTINUOUS
 62
     7
 10
98.140670
 20
80.096690
 11
98.145999
 21
80.141335
  0
LINE
  8
CSLAYER4
  6
CONTINUOUS
 62
     7
 10
98.145999
 20
80.141335
 11
98.150613
 21
80.185995
  0
LINE
  8
CSLAYER4
  6
CONTINUOUS
 62
     7
 10
98.150613
 20
80.185995
 11
98.154526
 21
80.230722
  0
LINE
  8
CSLAYER4
  6
CONTINUOUS
 62
     7
 10
98.154526
 20
80.230722
 11
98.157781
 21
80.275547
  0
LINE
  8
CSLAYER4
  6
CONTINUOUS
 62
     7
 10
98.157781
 20
80.275547
 11
98.160405
 21
80.320440
  0
LINE
  8
CSLAYER4
  6
CONTINUOUS
 62
     7
 10
98.160405
 20
80.320440
 11
98.162395
 21
80.365381
  0
LINE
  8
CSLAYER4
  6
CONTINUOUS
 62
     7
 10
98.162395
 20
80.365381
 11
98.163796
 21
80.410329
  0
LINE
  8
CSLAYER4
  6
CONTINUOUS
 62
     7
 10
98.163796
 20
80.410329
 11
98.164634
 21
80.455263
  0
LINE
  8
CSLAYER4
  6
CONTINUOUS
 62
     7
 10
98.164634
 20
80.455263
 11
98.164895
 21
80.500163
  0
LINE
  8
CSLAYER4
  6
CONTINUOUS
 62
     7
 10
98.164895
 20
80.500163
 11
98.164291
 21
80.556282
  0
LINE
  8
CSLAYER4
  6
CONTINUOUS
 62
     7
 10
98.164291
 20
80.556282
 11
98.162409
 21
80.612402
  0
LINE
  8
CSLAYER4
  6
CONTINUOUS
 62
     7
 10
98.162409
 20
80.612402
 11
98.159196
 21
80.668466
  0
LINE
  8
CSLAYER4
  6
CONTINUOUS
 62
     7
 10
98.159196
 20
80.668466
 11
98.154609
 21
80.724421
  0
LINE
  8
CSLAYER4
  6
CONTINUOUS
 62
     7
 10
98.154609
 20
80.724421
 11
98.148594
 21
80.780225
  0
LINE
  8
CSLAYER4
  6
CONTINUOUS
 62
     7
 10
98.148594
 20
80.780225
 11
98.141068
 21
80.835829
  0
LINE
  8
CSLAYER4
  6
CONTINUOUS
 62
     7
 10
98.141068
 20
80.835829
 11
98.132005
 21
80.891180
  0
LINE
  8
CSLAYER4
  6
CONTINUOUS
 62
     7
 10
98.132005
 20
80.891180
 11
98.121321
 21
80.946235
  0
LINE
  8
CSLAYER4
  6
CONTINUOUS
 62
     7
 10
98.121321
 20
80.946235
 11
98.108974
 21
81.000940
  0
LINE
  8
CSLAYER4
  6
CONTINUOUS
 62
     7
 10
98.108974
 20
81.000940
 11
98.094926
 21
81.055205
  0
LINE
  8
CSLAYER4
  6
CONTINUOUS
 62
     7
 10
98.094926
 20
81.055205
 11
98.079174
 21
81.108805
  0
LINE
  8
CSLAYER4
  6
CONTINUOUS
 62
     7
 10
98.079174
 20
81.108805
 11
98.061678
 21
81.161684
  0
LINE
  8
CSLAYER4
  6
CONTINUOUS
 62
     7
 10
98.061678
 20
81.161684
 11
98.042411
 21
81.213821
  0
LINE
  8
CSLAYER4
  6
CONTINUOUS
 62
     7
 10
98.042411
 20
81.213821
 11
98.021345
 21
81.265188
  0
LINE
  8
CSLAYER4
  6
CONTINUOUS
 62
     7
 10
98.021345
 20
81.265188
 11
97.998438
 21
81.315753
  0
LINE
  8
CSLAYER4
  6
CONTINUOUS
 62
     7
 10
97.998438
 20
81.315753
 11
97.973650
 21
81.365493
  0
LINE
  8
CSLAYER4
  6
CONTINUOUS
 62
     7
 10
97.973650
 20
81.365493
 11
97.946940
 21
81.414383
  0
LINE
  8
CSLAYER4
  6
CONTINUOUS
 62
     7
 10
97.946940
 20
81.414383
 11
97.918293
 21
81.462393
  0
LINE
  8
CSLAYER4
  6
CONTINUOUS
 62
     7
 10
97.918293
 20
81.462393
 11
97.887834
 21
81.509250
  0
LINE
  8
CSLAYER4
  6
CONTINUOUS
 62
     7
 10
97.887834
 20
81.509250
 11
97.855671
 21
81.554754
  0
LINE
  8
CSLAYER4
  6
CONTINUOUS
 62
     7
 10
97.855671
 20
81.554754
 11
97.821861
 21
81.598919
  0
LINE
  8
CSLAYER4
  6
CONTINUOUS
 62
     7
 10
97.821861
 20
81.598919
 11
97.786389
 21
81.641752
  0
LINE
  8
CSLAYER4
  6
CONTINUOUS
 62
     7
 10
97.786389
 20
81.641752
 11
97.749268
 21
81.683259
  0
LINE
  8
CSLAYER4
  6
CONTINUOUS
 62
     7
 10
97.749268
 20
81.683259
 11
97.710528
 21
81.723462
  0
LINE
  8
CSLAYER4
  6
CONTINUOUS
 62
     7
 10
97.710528
 20
81.723462
 11
97.683543
 21
81.750070
  0
LINE
  8
CSLAYER4
  6
CONTINUOUS
 62
     7
 10
97.683543
 20
81.750070
 11
97.656214
 21
81.776252
  0
LINE
  8
CSLAYER4
  6
CONTINUOUS
 62
     7
 10
97.656214
 20
81.776252
 11
97.628556
 21
81.802015
  0
LINE
  8
CSLAYER4
  6
CONTINUOUS
 62
     7
 10
97.628556
 20
81.802015
 11
97.600582
 21
81.827352
  0
LINE
  8
CSLAYER4
  6
CONTINUOUS
 62
     7
 10
97.600582
 20
81.827352
 11
97.572279
 21
81.852270
  0
LINE
  8
CSLAYER4
  6
CONTINUOUS
 62
     7
 10
97.572279
 20
81.852270
 11
97.543645
 21
81.876770
  0
LINE
  8
CSLAYER4
  6
CONTINUOUS
 62
     7
 10
97.543645
 20
81.876770
 11
97.514683
 21
81.900851
  0
LINE
  8
CSLAYER4
  6
CONTINUOUS
 62
     7
 10
97.514683
 20
81.900851
 11
97.485418
 21
81.924519
  0
LINE
  8
CSLAYER4
  6
CONTINUOUS
 62
     7
 10
97.485418
 20
81.924519
 11
97.455823
 21
81.947776
  0
LINE
  8
CSLAYER4
  6
CONTINUOUS
 62
     7
 10
97.455823
 20
81.947776
 11
97.425913
 21
81.970620
  0
LINE
  8
CSLAYER4
  6
CONTINUOUS
 62
     7
 10
97.425913
 20
81.970620
 11
97.395687
 21
81.993053
  0
LINE
  8
CSLAYER4
  6
CONTINUOUS
 62
     7
 10
97.395687
 20
81.993053
 11
97.365159
 21
82.015081
  0
LINE
  8
CSLAYER4
  6
CONTINUOUS
 62
     7
 10
97.365159
 20
82.015081
 11
97.334315
 21
82.036710
  0
LINE
  8
CSLAYER4
  6
CONTINUOUS
 62
     7
 10
97.334315
 20
82.036710
 11
97.303168
 21
82.057928
  0
LINE
  8
CSLAYER4
  6
CONTINUOUS
 62
     7
 10
97.303168
 20
82.057928
 11
97.271707
 21
82.078754
  0
LINE
  8
CSLAYER4
  6
CONTINUOUS
 62
     7
 10
97.271707
 20
82.078754
 11
97.239956
 21
82.099175
  0
LINE
  8
CSLAYER4
  6
CONTINUOUS
 62
     7
 10
97.239956
 20
82.099175
 11
97.207890
 21
82.119197
  0
LINE
  8
CSLAYER4
  6
CONTINUOUS
 62
     7
 10
97.207890
 20
82.119197
 11
97.175535
 21
82.138821
  0
LINE
  8
CSLAYER4
  6
CONTINUOUS
 62
     7
 10
97.175535
 20
82.138821
 11
97.142933
 21
82.158020
  0
LINE
  8
CSLAYER4
  6
CONTINUOUS
 62
     7
 10
97.142933
 20
82.158020
 11
97.110111
 21
82.176800
  0
LINE
  8
CSLAYER4
  6
CONTINUOUS
 62
     7
 10
97.110111
 20
82.176800
 11
97.077056
 21
82.195154
  0
LINE
  8
CSLAYER4
  6
CONTINUOUS
 62
     7
 10
97.077056
 20
82.195154
 11
97.043768
 21
82.213095
  0
LINE
  8
CSLAYER4
  6
CONTINUOUS
 62
     7
 10
97.043768
 20
82.213095
 11
97.010273
 21
82.230619
  0
LINE
  8
CSLAYER4
  6
CONTINUOUS
 62
     7
 10
97.010273
 20
82.230619
 11
96.976545
 21
82.247730
  0
LINE
  8
CSLAYER4
  6
CONTINUOUS
 62
     7
 10
95.788200
 20
82.772005
 11
96.976549
 21
82.247733
  0
LINE
  8
CSLAYER4
  6
CONTINUOUS
 62
     7
 10
95.788202
 20
82.772004
 11
95.762679
 21
82.782387
  0
LINE
  8
CSLAYER4
  6
CONTINUOUS
 62
     7
 10
95.762679
 20
82.782387
 11
95.737233
 21
82.793085
  0
LINE
  8
CSLAYER4
  6
CONTINUOUS
 62
     7
 10
95.737233
 20
82.793085
 11
95.711875
 21
82.804105
  0
LINE
  8
CSLAYER4
  6
CONTINUOUS
 62
     7
 10
95.711875
 20
82.804105
 11
95.686620
 21
82.815462
  0
LINE
  8
CSLAYER4
  6
CONTINUOUS
 62
     7
 10
95.686620
 20
82.815462
 11
95.661495
 21
82.827149
  0
LINE
  8
CSLAYER4
  6
CONTINUOUS
 62
     7
 10
95.661495
 20
82.827149
 11
95.636508
 21
82.839186
  0
LINE
  8
CSLAYER4
  6
CONTINUOUS
 62
     7
 10
95.636508
 20
82.839186
 11
95.611672
 21
82.851573
  0
LINE
  8
CSLAYER4
  6
CONTINUOUS
 62
     7
 10
95.611672
 20
82.851573
 11
95.587015
 21
82.864310
  0
LINE
  8
CSLAYER4
  6
CONTINUOUS
 62
     7
 10
95.587015
 20
82.864310
 11
95.562543
 21
82.877411
  0
LINE
  8
CSLAYER4
  6
CONTINUOUS
 62
     7
 10
95.562543
 20
82.877411
 11
95.538277
 21
82.890876
  0
LINE
  8
CSLAYER4
  6
CONTINUOUS
 62
     7
 10
95.538277
 20
82.890876
 11
95.514231
 21
82.904720
  0
LINE
  8
CSLAYER4
  6
CONTINUOUS
 62
     7
 10
95.514231
 20
82.904720
 11
95.490424
 21
82.918940
  0
LINE
  8
CSLAYER4
  6
CONTINUOUS
 62
     7
 10
95.490424
 20
82.918940
 11
95.466873
 21
82.933538
  0
LINE
  8
CSLAYER4
  6
CONTINUOUS
 62
     7
 10
95.466873
 20
82.933538
 11
95.443588
 21
82.948534
  0
LINE
  8
CSLAYER4
  6
CONTINUOUS
 62
     7
 10
95.443588
 20
82.948534
 11
95.420586
 21
82.963929
  0
LINE
  8
CSLAYER4
  6
CONTINUOUS
 62
     7
 10
95.420586
 20
82.963929
 11
95.397892
 21
82.979729
  0
LINE
  8
CSLAYER4
  6
CONTINUOUS
 62
     7
 10
95.397892
 20
82.979729
 11
95.375514
 21
82.995933
  0
LINE
  8
CSLAYER4
  6
CONTINUOUS
 62
     7
 10
95.375514
 20
82.995933
 11
95.353480
 21
83.012550
  0
LINE
  8
CSLAYER4
  6
CONTINUOUS
 62
     7
 10
95.353480
 20
83.012550
 11
95.331782
 21
83.029593
  0
LINE
  8
CSLAYER4
  6
CONTINUOUS
 62
     7
 10
95.331782
 20
83.029593
 11
95.310448
 21
83.047082
  0
LINE
  8
CSLAYER4
  6
CONTINUOUS
 62
     7
 10
95.310448
 20
83.047082
 11
95.289478
 21
83.065003
  0
LINE
  8
CSLAYER4
  6
CONTINUOUS
 62
     7
 10
95.289478
 20
83.065003
 11
95.268899
 21
83.083385
  0
LINE
  8
CSLAYER4
  6
CONTINUOUS
 62
     7
 10
95.268899
 20
83.083385
 11
95.248725
 21
83.102219
  0
LINE
  8
CSLAYER4
  6
CONTINUOUS
 62
     7
 10
95.248725
 20
83.102219
 11
95.228977
 21
83.121521
  0
LINE
  8
CSLAYER4
  6
CONTINUOUS
 62
     7
 10
95.228977
 20
83.121521
 11
95.213054
 21
83.137856
  0
LINE
  8
CSLAYER4
  6
CONTINUOUS
 62
     7
 10
95.213054
 20
83.137856
 11
95.197597
 21
83.154597
  0
LINE
  8
CSLAYER4
  6
CONTINUOUS
 62
     7
 10
95.197597
 20
83.154597
 11
95.182615
 21
83.171735
  0
LINE
  8
CSLAYER4
  6
CONTINUOUS
 62
     7
 10
95.182615
 20
83.171735
 11
95.168140
 21
83.189286
  0
LINE
  8
CSLAYER4
  6
CONTINUOUS
 62
     7
 10
95.168140
 20
83.189286
 11
95.154188
 21
83.207255
  0
LINE
  8
CSLAYER4
  6
CONTINUOUS
 62
     7
 10
95.154188
 20
83.207255
 11
95.140791
 21
83.225644
  0
LINE
  8
CSLAYER4
  6
CONTINUOUS
 62
     7
 10
95.140791
 20
83.225644
 11
95.127965
 21
83.244465
  0
LINE
  8
CSLAYER4
  6
CONTINUOUS
 62
     7
 10
95.127965
 20
83.244465
 11
95.115736
 21
83.263712
  0
LINE
  8
CSLAYER4
  6
CONTINUOUS
 62
     7
 10
95.115736
 20
83.263712
 11
95.104118
 21
83.283404
  0
LINE
  8
CSLAYER4
  6
CONTINUOUS
 62
     7
 10
95.104118
 20
83.283404
 11
95.093187
 21
83.303468
  0
LINE
  8
CSLAYER4
  6
CONTINUOUS
 62
     7
 10
95.093187
 20
83.303468
 11
95.082990
 21
83.323820
  0
LINE
  8
CSLAYER4
  6
CONTINUOUS
 62
     7
 10
95.082990
 20
83.323820
 11
95.073528
 21
83.344461
  0
LINE
  8
CSLAYER4
  6
CONTINUOUS
 62
     7
 10
95.073528
 20
83.344461
 11
95.064821
 21
83.365390
  0
LINE
  8
CSLAYER4
  6
CONTINUOUS
 62
     7
 10
95.064821
 20
83.365390
 11
95.056856
 21
83.386607
  0
LINE
  8
CSLAYER4
  6
CONTINUOUS
 62
     7
 10
95.056856
 20
83.386607
 11
95.049646
 21
83.408120
  0
LINE
  8
CSLAYER4
  6
CONTINUOUS
 62
     7
 10
95.049646
 20
83.408120
 11
95.043192
 21
83.429921
  0
LINE
  8
CSLAYER4
  6
CONTINUOUS
 62
     7
 10
95.043192
 20
83.429921
 11
95.037499
 21
83.452010
  0
LINE
  8
CSLAYER4
  6
CONTINUOUS
 62
     7
 10
95.037499
 20
83.452010
 11
95.032576
 21
83.474395
  0
LINE
  8
CSLAYER4
  6
CONTINUOUS
 62
     7
 10
95.032576
 20
83.474395
 11
95.028442
 21
83.496924
  0
LINE
  8
CSLAYER4
  6
CONTINUOUS
 62
     7
 10
95.028442
 20
83.496924
 11
95.025099
 21
83.519549
  0
LINE
  8
CSLAYER4
  6
CONTINUOUS
 62
     7
 10
95.025099
 20
83.519549
 11
95.022523
 21
83.542256
  0
LINE
  8
CSLAYER4
  6
CONTINUOUS
 62
     7
 10
95.022523
 20
83.542256
 11
95.020704
 21
83.565046
  0
LINE
  8
CSLAYER4
  6
CONTINUOUS
 62
     7
 10
95.020704
 20
83.565046
 11
95.019626
 21
83.587911
  0
LINE
  8
CSLAYER4
  6
CONTINUOUS
 62
     7
 10
95.019626
 20
83.587911
 11
95.019269
 21
83.610838
  0
LINE
  8
CSLAYER4
  6
CONTINUOUS
 62
     7
 10
95.019269
 20
83.610838
 11
95.019688
 21
83.649139
  0
LINE
  8
CSLAYER4
  6
CONTINUOUS
 62
     7
 10
95.019688
 20
83.649139
 11
95.020979
 21
83.687537
  0
LINE
  8
CSLAYER4
  6
CONTINUOUS
 62
     7
 10
95.020979
 20
83.687537
 11
95.023203
 21
83.725961
  0
LINE
  8
CSLAYER4
  6
CONTINUOUS
 62
     7
 10
95.023203
 20
83.725961
 11
95.026417
 21
83.764352
  0
LINE
  8
CSLAYER4
  6
CONTINUOUS
 62
     7
 10
95.026417
 20
83.764352
 11
95.030681
 21
83.802646
  0
LINE
  8
CSLAYER4
  6
CONTINUOUS
 62
     7
 10
95.030681
 20
83.802646
 11
95.036044
 21
83.840768
  0
LINE
  8
CSLAYER4
  6
CONTINUOUS
 62
     7
 10
95.036044
 20
83.840768
 11
95.042574
 21
83.878671
  0
LINE
  8
CSLAYER4
  6
CONTINUOUS
 62
     7
 10
95.042574
 20
83.878671
 11
95.050326
 21
83.916285
  0
LINE
  8
CSLAYER4
  6
CONTINUOUS
 62
     7
 10
95.050326
 20
83.916285
 11
95.059356
 21
83.953536
  0
LINE
  8
CSLAYER4
  6
CONTINUOUS
 62
     7
 10
95.059356
 20
83.953536
 11
95.069717
 21
83.990368
  0
LINE
  8
CSLAYER4
  6
CONTINUOUS
 62
     7
 10
95.069717
 20
83.990368
 11
95.081466
 21
84.026670
  0
LINE
  8
CSLAYER4
  6
CONTINUOUS
 62
     7
 10
95.081466
 20
84.026670
 11
95.094601
 21
84.062294
  0
LINE
  8
CSLAYER4
  6
CONTINUOUS
 62
     7
 10
95.094601
 20
84.062294
 11
95.109178
 21
84.097189
  0
LINE
  8
CSLAYER4
  6
CONTINUOUS
 62
     7
 10
95.109178
 20
84.097189
 11
95.125239
 21
84.131315
  0
LINE
  8
CSLAYER4
  6
CONTINUOUS
 62
     7
 10
95.125239
 20
84.131315
 11
95.142824
 21
84.164631
  0
LINE
  8
CSLAYER4
  6
CONTINUOUS
 62
     7
 10
95.142824
 20
84.164631
 11
95.161981
 21
84.197075
  0
LINE
  8
CSLAYER4
  6
CONTINUOUS
 62
     7
 10
95.161981
 20
84.197075
 11
95.182746
 21
84.228627
  0
LINE
  8
CSLAYER4
  6
CONTINUOUS
 62
     7
 10
95.182746
 20
84.228627
 11
95.205171
 21
84.259224
  0
LINE
  8
CSLAYER4
  6
CONTINUOUS
 62
     7
 10
95.205171
 20
84.259224
 11
95.229163
 21
84.288660
  0
LINE
  8
CSLAYER4
  6
CONTINUOUS
 62
     7
 10
95.229163
 20
84.288660
 11
95.254486
 21
84.316676
  0
LINE
  8
CSLAYER4
  6
CONTINUOUS
 62
     7
 10
95.254486
 20
84.316676
 11
95.281135
 21
84.343269
  0
LINE
  8
CSLAYER4
  6
CONTINUOUS
 62
     7
 10
95.281135
 20
84.343269
 11
95.309082
 21
84.368462
  0
LINE
  8
CSLAYER4
  6
CONTINUOUS
 62
     7
 10
95.309082
 20
84.368462
 11
95.338305
 21
84.392275
  0
LINE
  8
CSLAYER4
  6
CONTINUOUS
 62
     7
 10
95.338305
 20
84.392275
 11
95.368785
 21
84.414722
  0
LINE
  8
CSLAYER4
  6
CONTINUOUS
 62
     7
 10
95.368785
 20
84.414722
 11
95.396856
 21
84.433680
  0
LINE
  8
CSLAYER4
  6
CONTINUOUS
 62
     7
 10
95.396856
 20
84.433680
 11
95.425461
 21
84.451595
  0
LINE
  8
CSLAYER4
  6
CONTINUOUS
 62
     7
 10
95.425461
 20
84.451595
 11
95.454602
 21
84.468417
  0
LINE
  8
CSLAYER4
  6
CONTINUOUS
 62
     7
 10
95.454602
 20
84.468417
 11
95.484279
 21
84.484114
  0
LINE
  8
CSLAYER4
  6
CONTINUOUS
 62
     7
 10
95.484279
 20
84.484114
 11
95.514512
 21
84.498644
  0
LINE
  8
CSLAYER4
  6
CONTINUOUS
 62
     7
 10
95.514512
 20
84.498644
 11
95.545294
 21
84.511958
  0
LINE
  8
CSLAYER4
  6
CONTINUOUS
 62
     7
 10
95.545294
 20
84.511958
 11
95.576633
 21
84.524022
  0
LINE
  8
CSLAYER4
  6
CONTINUOUS
 62
     7
 10
95.576633
 20
84.524022
 11
95.608528
 21
84.534788
  0
LINE
  8
CSLAYER4
  6
CONTINUOUS
 62
     7
 10
95.608528
 20
84.534788
 11
95.640985
 21
84.544216
  0
LINE
  8
CSLAYER4
  6
CONTINUOUS
 62
     7
 10
95.640985
 20
84.544216
 11
95.673732
 21
84.552201
  0
LINE
  8
CSLAYER4
  6
CONTINUOUS
 62
     7
 10
95.673732
 20
84.552201
 11
95.706608
 21
84.558718
  0
LINE
  8
CSLAYER4
  6
CONTINUOUS
 62
     7
 10
95.706608
 20
84.558718
 11
95.739615
 21
84.563778
  0
LINE
  8
CSLAYER4
  6
CONTINUOUS
 62
     7
 10
95.739615
 20
84.563778
 11
95.772745
 21
84.567404
  0
LINE
  8
CSLAYER4
  6
CONTINUOUS
 62
     7
 10
95.772745
 20
84.567404
 11
95.806007
 21
84.569608
  0
LINE
  8
CSLAYER4
  6
CONTINUOUS
 62
     7
 10
95.806007
 20
84.569608
 11
95.839384
 21
84.570411
  0
LINE
  8
CSLAYER4
  6
CONTINUOUS
 62
     7
 10
95.839384
 20
84.570411
 11
95.872886
 21
84.569828
  0
LINE
  8
CSLAYER4
  6
CONTINUOUS
 62
     7
 10
95.872886
 20
84.569828
 11
95.906497
 21
84.567871
  0
LINE
  8
CSLAYER4
  6
CONTINUOUS
 62
     7
 10
95.906497
 20
84.567871
 11
95.940163
 21
84.564568
  0
LINE
  8
CSLAYER4
  6
CONTINUOUS
 62
     7
 10
95.940163
 20
84.564568
 11
95.973665
 21
84.559982
  0
LINE
  8
CSLAYER4
  6
CONTINUOUS
 62
     7
 10
95.973665
 20
84.559982
 11
96.006954
 21
84.554152
  0
LINE
  8
CSLAYER4
  6
CONTINUOUS
 62
     7
 10
96.006954
 20
84.554152
 11
96.040015
 21
84.547148
  0
LINE
  8
CSLAYER4
  6
CONTINUOUS
 62
     7
 10
96.040015
 20
84.547148
 11
96.072837
 21
84.539011
  0
LINE
  8
CSLAYER4
  6
CONTINUOUS
 62
     7
 10
96.072837
 20
84.539011
 11
96.105412
 21
84.529803
  0
LINE
  8
CSLAYER4
  6
CONTINUOUS
 62
     7
 10
96.105412
 20
84.529803
 11
96.137712
 21
84.519579
  0
LINE
  8
CSLAYER4
  6
CONTINUOUS
 62
     7
 10
96.137712
 20
84.519579
 11
96.195960
 21
84.499392
  0
LINE
  8
CSLAYER4
  6
CONTINUOUS
 62
     7
 10
96.195960
 20
84.499392
 11
96.252786
 21
84.475984
  0
LINE
  8
CSLAYER4
  6
CONTINUOUS
 62
     7
 10
96.252786
 20
84.475984
 11
96.308109
 21
84.449239
  0
LINE
  8
CSLAYER4
  6
CONTINUOUS
 62
     7
 10
96.308109
 20
84.449239
 11
96.361860
 21
84.419061
  0
LINE
  8
CSLAYER4
  6
CONTINUOUS
 62
     7
 10
96.361860
 20
84.419061
 11
96.413729
 21
84.385484
  0
LINE
  8
CSLAYER4
  6
CONTINUOUS
 62
     7
 10
96.413729
 20
84.385484
 11
96.463182
 21
84.348838
  0
LINE
  8
CSLAYER4
  6
CONTINUOUS
 62
     7
 10
96.463182
 20
84.348838
 11
96.510175
 21
84.309184
  0
LINE
  8
CSLAYER4
  6
CONTINUOUS
 62
     7
 10
96.510175
 20
84.309184
 11
96.554766
 21
84.266564
  0
LINE
  8
CSLAYER4
  6
CONTINUOUS
 62
     7
 10
96.554766
 20
84.266564
 11
96.596885
 21
84.221087
  0
LINE
  8
CSLAYER4
  6
CONTINUOUS
 62
     7
 10
96.596885
 20
84.221087
 11
96.636189
 21
84.173331
  0
LINE
  8
CSLAYER4
  6
CONTINUOUS
 62
     7
 10
96.636189
 20
84.173331
 11
96.672691
 21
84.123543
  0
LINE
  8
CSLAYER4
  6
CONTINUOUS
 62
     7
 10
96.672691
 20
84.123543
 11
96.706515
 21
84.071893
  0
LINE
  8
CSLAYER4
  6
CONTINUOUS
 62
     7
 10
96.706515
 20
84.071893
 11
96.737743
 21
84.018575
  0
LINE
  8
CSLAYER4
  6
CONTINUOUS
 62
     7
 10
96.737743
 20
84.018575
 11
96.766500
 21
83.963753
  0
LINE
  8
CSLAYER4
  6
CONTINUOUS
 62
     7
 10
96.766500
 20
83.963753
 11
96.792881
 21
83.907613
  0
LINE
  8
CSLAYER4
  6
CONTINUOUS
 62
     7
 10
96.792881
 20
83.907613
 11
96.816996
 21
83.850326
  0
LINE
  8
CSLAYER4
  6
CONTINUOUS
 62
     7
 10
96.816996
 20
83.850326
 11
96.838955
 21
83.792064
  0
LINE
  8
CSLAYER4
  6
CONTINUOUS
 62
     7
 10
96.838955
 20
83.792064
 11
96.858909
 21
83.732855
  0
LINE
  8
CSLAYER4
  6
CONTINUOUS
 62
     7
 10
96.858909
 20
83.732855
 11
96.876940
 21
83.672835
  0
LINE
  8
CSLAYER4
  6
CONTINUOUS
 62
     7
 10
96.876940
 20
83.672835
 11
96.893145
 21
83.612157
  0
LINE
  8
CSLAYER4
  6
CONTINUOUS
 62
     7
 10
96.893145
 20
83.612157
 11
96.907633
 21
83.550997
  0
LINE
  8
CSLAYER4
  6
CONTINUOUS
 62
     7
 10
96.907633
 20
83.550997
 11
96.920473
 21
83.489501
  0
LINE
  8
CSLAYER4
  6
CONTINUOUS
 62
     7
 10
96.920473
 20
83.489501
 11
96.931762
 21
83.427840
  0
LINE
  8
CSLAYER4
  6
CONTINUOUS
 62
     7
 10
96.931762
 20
83.427840
 11
96.941595
 21
83.366180
  0
LINE
  8
CSLAYER4
  6
CONTINUOUS
 62
     7
 10
97.990141
 20
83.366180
 11
96.941598
 21
83.366180
  0
LINE
  8
CSLAYER4
  6
CONTINUOUS
 62
     7
 10
97.990144
 20
83.366180
 11
97.986903
 21
83.439417
  0
LINE
  8
CSLAYER4
  6
CONTINUOUS
 62
     7
 10
97.986903
 20
83.439417
 11
97.982193
 21
83.512634
  0
LINE
  8
CSLAYER4
  6
CONTINUOUS
 62
     7
 10
97.982193
 20
83.512634
 11
97.975944
 21
83.585769
  0
LINE
  8
CSLAYER4
  6
CONTINUOUS
 62
     7
 10
97.975944
 20
83.585769
 11
97.968102
 21
83.658759
  0
LINE
  8
CSLAYER4
  6
CONTINUOUS
 62
     7
 10
97.968102
 20
83.658759
 11
97.958599
 21
83.731544
  0
LINE
  8
CSLAYER4
  6
CONTINUOUS
 62
     7
 10
97.958599
 20
83.731544
 11
97.947366
 21
83.804054
  0
LINE
  8
CSLAYER4
  6
CONTINUOUS
 62
     7
 10
97.947366
 20
83.804054
 11
97.934347
 21
83.876234
  0
LINE
  8
CSLAYER4
  6
CONTINUOUS
 62
     7
 10
97.934347
 20
83.876234
 11
97.919488
 21
83.948022
  0
LINE
  8
CSLAYER4
  6
CONTINUOUS
 62
     7
 10
97.919488
 20
83.948022
 11
97.902693
 21
84.019344
  0
LINE
  8
CSLAYER4
  6
CONTINUOUS
 62
     7
 10
97.902693
 20
84.019344
 11
97.883947
 21
84.090123
  0
LINE
  8
CSLAYER4
  6
CONTINUOUS
 62
     7
 10
97.883947
 20
84.090123
 11
97.863183
 21
84.160175
  0
LINE
  8
CSLAYER4
  6
CONTINUOUS
 62
     7
 10
97.863183
 20
84.160175
 11
97.840400
 21
84.229424
  0
LINE
  8
CSLAYER4
  6
CONTINUOUS
 62
     7
 10
97.840400
 20
84.229424
 11
97.815516
 21
84.297834
  0
LINE
  8
CSLAYER4
  6
CONTINUOUS
 62
     7
 10
97.815516
 20
84.297834
 11
97.788490
 21
84.365345
  0
LINE
  8
CSLAYER4
  6
CONTINUOUS
 62
     7
 10
97.788490
 20
84.365345
 11
97.759266
 21
84.431915
  0
LINE
  8
CSLAYER4
  6
CONTINUOUS
 62
     7
 10
97.759266
 20
84.431915
 11
97.727804
 21
84.497496
  0
LINE
  8
CSLAYER4
  6
CONTINUOUS
 62
     7
 10
97.727804
 20
84.497496
 11
97.694049
 21
84.562048
  0
LINE
  8
CSLAYER4
  6
CONTINUOUS
 62
     7
 10
97.694049
 20
84.562048
 11
97.657945
 21
84.625521
  0
LINE
  8
CSLAYER4
  6
CONTINUOUS
 62
     7
 10
97.657945
 20
84.625521
 11
97.619589
 21
84.687650
  0
LINE
  8
CSLAYER4
  6
CONTINUOUS
 62
     7
 10
97.619589
 20
84.687650
 11
97.579118
 21
84.748163
  0
LINE
  8
CSLAYER4
  6
CONTINUOUS
 62
     7
 10
97.579118
 20
84.748163
 11
97.536518
 21
84.807057
  0
LINE
  8
CSLAYER4
  6
CONTINUOUS
 62
     7
 10
97.536518
 20
84.807057
 11
97.491790
 21
84.864317
  0
LINE
  8
CSLAYER4
  6
CONTINUOUS
 62
     7
 10
97.491790
 20
84.864317
 11
97.444947
 21
84.919949
  0
LINE
  8
CSLAYER4
  6
CONTINUOUS
 62
     7
 10
97.444947
 20
84.919949
 11
97.395962
 21
84.973946
  0
LINE
  8
CSLAYER4
  6
CONTINUOUS
 62
     7
 10
97.395962
 20
84.973946
 11
97.346427
 21
85.027401
  0
LINE
  8
CSLAYER4
  6
CONTINUOUS
 62
     7
 10
97.346427
 20
85.027401
 11
97.295423
 21
85.079216
  0
LINE
  8
CSLAYER4
  6
CONTINUOUS
 62
     7
 10
97.295423
 20
85.079216
 11
97.242936
 21
85.129314
  0
LINE
  8
CSLAYER4
  6
CONTINUOUS
 62
     7
 10
97.242936
 20
85.129314
 11
97.188925
 21
85.177598
  0
LINE
  8
CSLAYER4
  6
CONTINUOUS
 62
     7
 10
97.188925
 20
85.177598
 11
97.133389
 21
85.223988
  0
LINE
  8
CSLAYER4
  6
CONTINUOUS
 62
     7
 10
97.133389
 20
85.223988
 11
97.076287
 21
85.268400
  0
LINE
  8
CSLAYER4
  6
CONTINUOUS
 62
     7
 10
97.076287
 20
85.268400
 11
97.017579
 21
85.310746
  0
LINE
  8
CSLAYER4
  6
CONTINUOUS
 62
     7
 10
97.017579
 20
85.310746
 11
96.957278
 21
85.350935
  0
LINE
  8
CSLAYER4
  6
CONTINUOUS
 62
     7
 10
96.957278
 20
85.350935
 11
96.895315
 21
85.388886
  0
LINE
  8
CSLAYER4
  6
CONTINUOUS
 62
     7
 10
96.895315
 20
85.388886
 11
96.832033
 21
85.424324
  0
LINE
  8
CSLAYER4
  6
CONTINUOUS
 62
     7
 10
96.832033
 20
85.424324
 11
96.767764
 21
85.457049
  0
LINE
  8
CSLAYER4
  6
CONTINUOUS
 62
     7
 10
96.767764
 20
85.457049
 11
96.702505
 21
85.487070
  0
LINE
  8
CSLAYER4
  6
CONTINUOUS
 62
     7
 10
96.702505
 20
85.487070
 11
96.636244
 21
85.514378
  0
LINE
  8
CSLAYER4
  6
CONTINUOUS
 62
     7
 10
96.636244
 20
85.514378
 11
96.568993
 21
85.538987
  0
LINE
  8
CSLAYER4
  6
CONTINUOUS
 62
     7
 10
96.568993
 20
85.538987
 11
96.500755
 21
85.560897
  0
LINE
  8
CSLAYER4
  6
CONTINUOUS
 62
     7
 10
96.500755
 20
85.560897
 11
96.431541
 21
85.580110
  0
LINE
  8
CSLAYER4
  6
CONTINUOUS
 62
     7
 10
96.431541
 20
85.580110
 11
96.361324
 21
85.596638
  0
LINE
  8
CSLAYER4
  6
CONTINUOUS
 62
     7
 10
96.361324
 20
85.596638
 11
96.290195
 21
85.610466
  0
LINE
  8
CSLAYER4
  6
CONTINUOUS
 62
     7
 10
96.290195
 20
85.610466
 11
96.218667
 21
85.621542
  0
LINE
  8
CSLAYER4
  6
CONTINUOUS
 62
     7
 10
96.218667
 20
85.621542
 11
96.146899
 21
85.629919
  0
LINE
  8
CSLAYER4
  6
CONTINUOUS
 62
     7
 10
96.146899
 20
85.629919
 11
96.074918
 21
85.635674
  0
LINE
  8
CSLAYER4
  6
CONTINUOUS
 62
     7
 10
96.074918
 20
85.635674
 11
96.002765
 21
85.638894
  0
LINE
  8
CSLAYER4
  6
CONTINUOUS
 62
     7
 10
96.002765
 20
85.638894
 11
95.930482
 21
85.639649
  0
LINE
  8
CSLAYER4
  6
CONTINUOUS
 62
     7
 10
95.930482
 20
85.639649
 11
95.858103
 21
85.638021
  0
LINE
  8
CSLAYER4
  6
CONTINUOUS
 62
     7
 10
95.858103
 20
85.638021
 11
95.781988
 21
85.633977
  0
LINE
  8
CSLAYER4
  6
CONTINUOUS
 62
     7
 10
95.781988
 20
85.633977
 11
95.706313
 21
85.627448
  0
LINE
  8
CSLAYER4
  6
CONTINUOUS
 62
     7
 10
95.706313
 20
85.627448
 11
95.631091
 21
85.618377
  0
LINE
  8
CSLAYER4
  6
CONTINUOUS
 62
     7
 10
95.631091
 20
85.618377
 11
95.556363
 21
85.606704
  0
LINE
  8
CSLAYER4
  6
CONTINUOUS
 62
     7
 10
95.556363
 20
85.606704
 11
95.482150
 21
85.592373
  0
LINE
  8
CSLAYER4
  6
CONTINUOUS
 62
     7
 10
95.482150
 20
85.592373
 11
95.408487
 21
85.575324
  0
LINE
  8
CSLAYER4
  6
CONTINUOUS
 62
     7
 10
95.408487
 20
85.575324
 11
95.335401
 21
85.555494
  0
LINE
  8
CSLAYER4
  6
CONTINUOUS
 62
     7
 10
95.335401
 20
85.555494
 11
95.262918
 21
85.532834
  0
LINE
  8
CSLAYER4
  6
CONTINUOUS
 62
     7
 10
95.262918
 20
85.532834
 11
95.191088
 21
85.507284
  0
LINE
  8
CSLAYER4
  6
CONTINUOUS
 62
     7
 10
95.191088
 20
85.507284
 11
95.120453
 21
85.479008
  0
LINE
  8
CSLAYER4
  6
CONTINUOUS
 62
     7
 10
95.120453
 20
85.479008
 11
95.051266
 21
85.448123
  0
LINE
  8
CSLAYER4
  6
CONTINUOUS
 62
     7
 10
95.051266
 20
85.448123
 11
94.983502
 21
85.414663
  0
LINE
  8
CSLAYER4
  6
CONTINUOUS
 62
     7
 10
94.983502
 20
85.414663
 11
94.917144
 21
85.378655
  0
LINE
  8
CSLAYER4
  6
CONTINUOUS
 62
     7
 10
94.917144
 20
85.378655
 11
94.852194
 21
85.340134
  0
LINE
  8
CSLAYER4
  6
CONTINUOUS
 62
     7
 10
94.852194
 20
85.340134
 11
94.788631
 21
85.299141
  0
LINE
  8
CSLAYER4
  6
CONTINUOUS
 62
     7
 10
94.788631
 20
85.299141
 11
94.726442
 21
85.255691
  0
LINE
  8
CSLAYER4
  6
CONTINUOUS
 62
     7
 10
94.726442
 20
85.255691
 11
94.665612
 21
85.209830
  0
LINE
  8
CSLAYER4
  6
CONTINUOUS
 62
     7
 10
94.665612
 20
85.209830
 11
94.606204
 21
85.161641
  0
LINE
  8
CSLAYER4
  6
CONTINUOUS
 62
     7
 10
94.606204
 20
85.161641
 11
94.548511
 21
85.111447
  0
LINE
  8
CSLAYER4
  6
CONTINUOUS
 62
     7
 10
94.548511
 20
85.111447
 11
94.492536
 21
85.059372
  0
LINE
  8
CSLAYER4
  6
CONTINUOUS
 62
     7
 10
94.492536
 20
85.059372
 11
94.438264
 21
85.005512
  0
LINE
  8
CSLAYER4
  6
CONTINUOUS
 62
     7
 10
94.438264
 20
85.005512
 11
94.385646
 21
84.949962
  0
LINE
  8
CSLAYER4
  6
CONTINUOUS
 62
     7
 10
94.385646
 20
84.949962
 11
94.334670
 21
84.892805
  0
LINE
  8
CSLAYER4
  6
CONTINUOUS
 62
     7
 10
94.334670
 20
84.892805
 11
94.285286
 21
84.834138
  0
LINE
  8
CSLAYER4
  6
CONTINUOUS
 62
     7
 10
94.285286
 20
84.834138
 11
94.250542
 21
84.786437
  0
LINE
  8
CSLAYER4
  6
CONTINUOUS
 62
     7
 10
94.250542
 20
84.786437
 11
94.217233
 21
84.737877
  0
LINE
  8
CSLAYER4
  6
CONTINUOUS
 62
     7
 10
94.217233
 20
84.737877
 11
94.185366
 21
84.688473
  0
LINE
  8
CSLAYER4
  6
CONTINUOUS
 62
     7
 10
94.185366
 20
84.688473
 11
94.154961
 21
84.638211
  0
LINE
  8
CSLAYER4
  6
CONTINUOUS
 62
     7
 10
94.154961
 20
84.638211
 11
94.126026
 21
84.587090
  0
LINE
  8
CSLAYER4
  6
CONTINUOUS
 62
     7
 10
94.126026
 20
84.587090
 11
94.098560
 21
84.535104
  0
LINE
  8
CSLAYER4
  6
CONTINUOUS
 62
     7
 10
94.098560
 20
84.535104
 11
94.072577
 21
84.482253
  0
LINE
  8
CSLAYER4
  6
CONTINUOUS
 62
     7
 10
94.072577
 20
84.482253
 11
94.048084
 21
84.428523
  0
LINE
  8
CSLAYER4
  6
CONTINUOUS
 62
     7
 10
94.048084
 20
84.428523
 11
94.025103
 21
84.373949
  0
LINE
  8
CSLAYER4
  6
CONTINUOUS
 62
     7
 10
94.025103
 20
84.373949
 11
94.003748
 21
84.318790
  0
LINE
  8
CSLAYER4
  6
CONTINUOUS
 62
     7
 10
94.003748
 20
84.318790
 11
93.984021
 21
84.263145
  0
LINE
  8
CSLAYER4
  6
CONTINUOUS
 62
     7
 10
93.984021
 20
84.263145
 11
93.965907
 21
84.207025
  0
LINE
  8
CSLAYER4
  6
CONTINUOUS
 62
     7
 10
93.965907
 20
84.207025
 11
93.949372
 21
84.150438
  0
LINE
  8
CSLAYER4
  6
CONTINUOUS
 62
     7
 10
93.949372
 20
84.150438
 11
93.934410
 21
84.093392
  0
LINE
  8
CSLAYER4
  6
CONTINUOUS
 62
     7
 10
93.934410
 20
84.093392
 11
93.920986
 21
84.035913
  0
LINE
  8
CSLAYER4
  6
CONTINUOUS
 62
     7
 10
93.920986
 20
84.035913
 11
93.909080
 21
83.978001
  0
LINE
  8
CSLAYER4
  6
CONTINUOUS
 62
     7
 10
93.909080
 20
83.978001
 11
93.898677
 21
83.919678
  0
LINE
  8
CSLAYER4
  6
CONTINUOUS
 62
     7
 10
93.898677
 20
83.919678
 11
93.889751
 21
83.860990
  0
LINE
  8
CSLAYER4
  6
CONTINUOUS
 62
     7
 10
93.889751
 20
83.860990
 11
93.882294
 21
83.802117
  0
LINE
  8
CSLAYER4
  6
CONTINUOUS
 62
     7
 10
93.882294
 20
83.802117
 11
93.876279
 21
83.743093
  0
LINE
  8
CSLAYER4
  6
CONTINUOUS
 62
     7
 10
93.876279
 20
83.743093
 11
93.871671
 21
83.683946
  0
LINE
  8
CSLAYER4
  6
CONTINUOUS
 62
     7
 10
93.871671
 20
83.683946
 11
93.868423
 21
83.624694
  0
LINE
  8
CSLAYER4
  6
CONTINUOUS
 62
     7
 10
93.868423
 20
83.624694
 11
93.866501
 21
83.565368
  0
LINE
  8
CSLAYER4
  6
CONTINUOUS
 62
     7
 10
93.866501
 20
83.565368
 11
93.865869
 21
83.505987
  0
LINE
  8
CSLAYER4
  6
CONTINUOUS
 62
     7
 10
93.865869
 20
83.505987
 11
93.866460
 21
83.448412
  0
LINE
  8
CSLAYER4
  6
CONTINUOUS
 62
     7
 10
93.866460
 20
83.448412
 11
93.868279
 21
83.390810
  0
LINE
  8
CSLAYER4
  6
CONTINUOUS
 62
     7
 10
93.868279
 20
83.390810
 11
93.871376
 21
83.333220
  0
LINE
  8
CSLAYER4
  6
CONTINUOUS
 62
     7
 10
93.871376
 20
83.333220
 11
93.875819
 21
83.275721
  0
LINE
  8
CSLAYER4
  6
CONTINUOUS
 62
     7
 10
93.875819
 20
83.275721
 11
93.881669
 21
83.218352
  0
LINE
  8
CSLAYER4
  6
CONTINUOUS
 62
     7
 10
93.881669
 20
83.218352
 11
93.888982
 21
83.161181
  0
LINE
  8
CSLAYER4
  6
CONTINUOUS
 62
     7
 10
93.888982
 20
83.161181
 11
93.897812
 21
83.104259
  0
LINE
  8
CSLAYER4
  6
CONTINUOUS
 62
     7
 10
93.897812
 20
83.104259
 11
93.908235
 21
83.047644
  0
LINE
  8
CSLAYER4
  6
CONTINUOUS
 62
     7
 10
93.908235
 20
83.047644
 11
93.920299
 21
82.991394
  0
LINE
  8
CSLAYER4
  6
CONTINUOUS
 62
     7
 10
93.920299
 20
82.991394
 11
93.934060
 21
82.935584
  0
LINE
  8
CSLAYER4
  6
CONTINUOUS
 62
     7
 10
93.934060
 20
82.935584
 11
93.949544
 21
82.880412
  0
LINE
  8
CSLAYER4
  6
CONTINUOUS
 62
     7
 10
93.949544
 20
82.880412
 11
93.966779
 21
82.825934
  0
LINE
  8
CSLAYER4
  6
CONTINUOUS
 62
     7
 10
93.966779
 20
82.825934
 11
93.985813
 21
82.772197
  0
LINE
  8
CSLAYER4
  6
CONTINUOUS
 62
     7
 10
93.985813
 20
82.772197
 11
94.006693
 21
82.719236
  0
LINE
  8
CSLAYER4
  6
CONTINUOUS
 62
     7
 10
94.006693
 20
82.719236
 11
94.029469
 21
82.667092
  0
LINE
  8
CSLAYER4
  6
CONTINUOUS
 62
     7
 10
94.029469
 20
82.667092
 11
94.054175
 21
82.615806
  0
LINE
  8
CSLAYER4
  6
CONTINUOUS
 62
     7
 10
94.054175
 20
82.615806
 11
94.080872
 21
82.565414
  0
LINE
  8
CSLAYER4
  6
CONTINUOUS
 62
     7
 10
94.080872
 20
82.565414
 11
94.109587
 21
82.515948
  0
LINE
  8
CSLAYER4
  6
CONTINUOUS
 62
     7
 10
94.109587
 20
82.515948
 11
94.140253
 21
82.467656
  0
LINE
  8
CSLAYER4
  6
CONTINUOUS
 62
     7
 10
94.140253
 20
82.467656
 11
94.172704
 21
82.420806
  0
LINE
  8
CSLAYER4
  6
CONTINUOUS
 62
     7
 10
94.172704
 20
82.420806
 11
94.206933
 21
82.375391
  0
LINE
  8
CSLAYER4
  6
CONTINUOUS
 62
     7
 10
94.206933
 20
82.375391
 11
94.242934
 21
82.331412
  0
LINE
  8
CSLAYER4
  6
CONTINUOUS
 62
     7
 10
94.242934
 20
82.331412
 11
94.280706
 21
82.288860
  0
LINE
  8
CSLAYER4
  6
CONTINUOUS
 62
     7
 10
94.280706
 20
82.288860
 11
94.320237
 21
82.247730
  0
LINE
  8
CSLAYER4
  6
CONTINUOUS
 62
     7
 10
94.320237
 20
82.247730
 11
94.343287
 21
82.224920
  0
LINE
  8
CSLAYER4
  6
CONTINUOUS
 62
     7
 10
94.343287
 20
82.224920
 11
94.366626
 21
82.202295
  0
LINE
  8
CSLAYER4
  6
CONTINUOUS
 62
     7
 10
94.366626
 20
82.202295
 11
94.390247
 21
82.179890
  0
LINE
  8
CSLAYER4
  6
CONTINUOUS
 62
     7
 10
94.390247
 20
82.179890
 11
94.414156
 21
82.157711
  0
LINE
  8
CSLAYER4
  6
CONTINUOUS
 62
     7
 10
94.414156
 20
82.157711
 11
94.438346
 21
82.135786
  0
LINE
  8
CSLAYER4
  6
CONTINUOUS
 62
     7
 10
94.438346
 20
82.135786
 11
94.462818
 21
82.114130
  0
LINE
  8
CSLAYER4
  6
CONTINUOUS
 62
     7
 10
94.462818
 20
82.114130
 11
94.487565
 21
82.092768
  0
LINE
  8
CSLAYER4
  6
CONTINUOUS
 62
     7
 10
94.487565
 20
82.092768
 11
94.512586
 21
82.071722
  0
LINE
  8
CSLAYER4
  6
CONTINUOUS
 62
     7
 10
94.512586
 20
82.071722
 11
94.537882
 21
82.051006
  0
LINE
  8
CSLAYER4
  6
CONTINUOUS
 62
     7
 10
94.537882
 20
82.051006
 11
94.563453
 21
82.030640
  0
LINE
  8
CSLAYER4
  6
CONTINUOUS
 62
     7
 10
94.563453
 20
82.030640
 11
94.589284
 21
82.010645
  0
LINE
  8
CSLAYER4
  6
CONTINUOUS
 62
     7
 10
94.589284
 20
82.010645
 11
94.615391
 21
81.991048
  0
LINE
  8
CSLAYER4
  6
CONTINUOUS
 62
     7
 10
94.615391
 20
81.991048
 11
94.641758
 21
81.971864
  0
LINE
  8
CSLAYER4
  6
CONTINUOUS
 62
     7
 10
94.641758
 20
81.971864
 11
94.668386
 21
81.953104
  0
LINE
  8
CSLAYER4
  6
CONTINUOUS
 62
     7
 10
94.668386
 20
81.953104
 11
94.695268
 21
81.934805
  0
LINE
  8
CSLAYER4
  6
CONTINUOUS
 62
     7
 10
94.695268
 20
81.934805
 11
94.722412
 21
81.916973
  0
LINE
  8
CSLAYER4
  6
CONTINUOUS
 62
     7
 10
94.722412
 20
81.916973
 11
94.749816
 21
81.899635
  0
LINE
  8
CSLAYER4
  6
CONTINUOUS
 62
     7
 10
94.749816
 20
81.899635
 11
94.777467
 21
81.882812
  0
LINE
  8
CSLAYER4
  6
CONTINUOUS
 62
     7
 10
94.777467
 20
81.882812
 11
94.805386
 21
81.866511
  0
LINE
  8
CSLAYER4
  6
CONTINUOUS
 62
     7
 10
94.805386
 20
81.866511
 11
94.833600
 21
81.850732
  0
LINE
  8
CSLAYER4
  6
CONTINUOUS
 62
     7
 10
94.833600
 20
81.850732
 11
94.862103
 21
81.835509
  0
LINE
  8
CSLAYER4
  6
CONTINUOUS
 62
     7
 10
94.862103
 20
81.835509
 11
94.890901
 21
81.820856
  0
LINE
  8
CSLAYER4
  6
CONTINUOUS
 62
     7
 10
94.890901
 20
81.820856
 11
94.919987
 21
81.806801
  0
LINE
  8
CSLAYER4
  6
CONTINUOUS
 62
     7
 10
94.919987
 20
81.806801
 11
94.949362
 21
81.793363
  0
LINE
  8
CSLAYER4
  6
CONTINUOUS
 62
     7
 10
96.417325
 20
81.164238
 11
94.949364
 21
81.793364
  0
LINE
  8
CSLAYER4
  6
CONTINUOUS
 62
     7
 10
96.417327
 20
81.164238
 11
96.459254
 21
81.144977
  0
LINE
  8
CSLAYER4
  6
CONTINUOUS
 62
     7
 10
96.459254
 20
81.144977
 11
96.500412
 21
81.124131
  0
LINE
  8
CSLAYER4
  6
CONTINUOUS
 62
     7
 10
96.500412
 20
81.124131
 11
96.540704
 21
81.101622
  0
LINE
  8
CSLAYER4
  6
CONTINUOUS
 62
     7
 10
96.540704
 20
81.101622
 11
96.579980
 21
81.077391
  0
LINE
  8
CSLAYER4
  6
CONTINUOUS
 62
     7
 10
96.579980
 20
81.077391
 11
96.618130
 21
81.051367
  0
LINE
  8
CSLAYER4
  6
CONTINUOUS
 62
     7
 10
96.618130
 20
81.051367
 11
96.654961
 21
81.023531
  0
LINE
  8
CSLAYER4
  6
CONTINUOUS
 62
     7
 10
96.654961
 20
81.023531
 11
96.690214
 21
80.993950
  0
LINE
  8
CSLAYER4
  6
CONTINUOUS
 62
     7
 10
96.690214
 20
80.993950
 11
96.723805
 21
80.962590
  0
LINE
  8
CSLAYER4
  6
CONTINUOUS
 62
     7
 10
96.723805
 20
80.962590
 11
96.755638
 21
80.929405
  0
LINE
  8
CSLAYER4
  6
CONTINUOUS
 62
     7
 10
96.755638
 20
80.929405
 11
96.785658
 21
80.894352
  0
LINE
  8
CSLAYER4
  6
CONTINUOUS
 62
     7
 10
96.785658
 20
80.894352
 11
96.813618
 21
80.857596
  0
LINE
  8
CSLAYER4
  6
CONTINUOUS
 62
     7
 10
96.813618
 20
80.857596
 11
96.839216
 21
80.819562
  0
LINE
  8
CSLAYER4
  6
CONTINUOUS
 62
     7
 10
96.839216
 20
80.819562
 11
96.862480
 21
80.780307
  0
LINE
  8
CSLAYER4
  6
CONTINUOUS
 62
     7
 10
96.862480
 20
80.780307
 11
96.883450
 21
80.739849
  0
LINE
  8
CSLAYER4
  6
CONTINUOUS
 62
     7
 10
96.883450
 20
80.739849
 11
96.902154
 21
80.698232
  0
LINE
  8
CSLAYER4
  6
CONTINUOUS
 62
     7
 10
96.902154
 20
80.698232
 11
96.918661
 21
80.655482
  0
LINE
  8
CSLAYER4
  6
CONTINUOUS
 62
     7
 10
96.918661
 20
80.655482
 11
96.932998
 21
80.611626
  0
LINE
  8
CSLAYER4
  6
CONTINUOUS
 62
     7
 10
96.932998
 20
80.611626
 11
96.945193
 21
80.566822
  0
LINE
  8
CSLAYER4
  6
CONTINUOUS
 62
     7
 10
96.945193
 20
80.566822
 11
96.955218
 21
80.521496
  0
LINE
  8
CSLAYER4
  6
CONTINUOUS
 62
     7
 10
96.955218
 20
80.521496
 11
96.963183
 21
80.475752
  0
LINE
  8
CSLAYER4
  6
CONTINUOUS
 62
     7
 10
96.963183
 20
80.475752
 11
96.969198
 21
80.429685
  0
LINE
  8
CSLAYER4
  6
CONTINUOUS
 62
     7
 10
96.969198
 20
80.429685
 11
96.973345
 21
80.383385
  0
LINE
  8
CSLAYER4
  6
CONTINUOUS
 62
     7
 10
96.973345
 20
80.383385
 11
96.975762
 21
80.336947
  0
LINE
  8
CSLAYER4
  6
CONTINUOUS
 62
     7
 10
96.975762
 20
80.336947
 11
96.976545
 21
80.290454
  0
LINE
  8
CSLAYER4
  6
CONTINUOUS
 62
     7
 10
96.976545
 20
80.290454
 11
96.975570
 21
80.246996
  0
LINE
  8
CSLAYER4
  6
CONTINUOUS
 62
     7
 10
96.975570
 20
80.246996
 11
96.972562
 21
80.203731
  0
LINE
  8
CSLAYER4
  6
CONTINUOUS
 62
     7
 10
96.972562
 20
80.203731
 11
96.967454
 21
80.160699
  0
LINE
  8
CSLAYER4
  6
CONTINUOUS
 62
     7
 10
96.967454
 20
80.160699
 11
96.960121
 21
80.117948
  0
LINE
  8
CSLAYER4
  6
CONTINUOUS
 62
     7
 10
96.960121
 20
80.117948
 11
96.950508
 21
80.075575
  0
LINE
  8
CSLAYER4
  6
CONTINUOUS
 62
     7
 10
96.950508
 20
80.075575
 11
96.938615
 21
80.033944
  0
LINE
  8
CSLAYER4
  6
CONTINUOUS
 62
     7
 10
96.938615
 20
80.033944
 11
96.924442
 21
79.993178
  0
LINE
  8
CSLAYER4
  6
CONTINUOUS
 62
     7
 10
96.924442
 20
79.993178
 11
96.907977
 21
79.953276
  0
LINE
  8
CSLAYER4
  6
CONTINUOUS
 62
     7
 10
96.907977
 20
79.953276
 11
96.889190
 21
79.914255
  0
LINE
  8
CSLAYER4
  6
CONTINUOUS
 62
     7
 10
96.889190
 20
79.914255
 11
96.868234
 21
79.876365
  0
LINE
  8
CSLAYER4
  6
CONTINUOUS
 62
     7
 10
96.868234
 20
79.876365
 11
96.845327
 21
79.839932
  0
LINE
  8
CSLAYER4
  6
CONTINUOUS
 62
     7
 10
96.845327
 20
79.839932
 11
96.820567
 21
79.804927
  0
LINE
  8
CSLAYER4
  6
CONTINUOUS
 62
     7
 10
96.820567
 20
79.804927
 11
96.794062
 21
79.771322
  0
LINE
  8
CSLAYER4
  6
CONTINUOUS
 62
     7
 10
96.794062
 20
79.771322
 11
96.765896
 21
79.739078
  0
LINE
  8
CSLAYER4
  6
CONTINUOUS
 62
     7
 10
96.765896
 20
79.739078
 11
96.736164
 21
79.708158
  0
LINE
  8
CSLAYER4
  6
CONTINUOUS
 62
     7
 10
96.736164
 20
79.708158
 11
96.704935
 21
79.678536
  0
LINE
  8
CSLAYER4
  6
CONTINUOUS
 62
     7
 10
96.704935
 20
79.678536
 11
96.672334
 21
79.650177
  0
LINE
  8
CSLAYER4
  6
CONTINUOUS
 62
     7
 10
96.672334
 20
79.650177
 11
96.638496
 21
79.623110
  0
LINE
  8
CSLAYER4
  6
CONTINUOUS
 62
     7
 10
96.638496
 20
79.623110
 11
96.603600
 21
79.597334
  0
LINE
  8
CSLAYER4
  6
CONTINUOUS
 62
     7
 10
96.603600
 20
79.597334
 11
96.567757
 21
79.572813
  0
LINE
  8
CSLAYER4
  6
CONTINUOUS
 62
     7
 10
96.567757
 20
79.572813
 11
96.531091
 21
79.549509
  0
LINE
  8
CSLAYER4
  6
CONTINUOUS
 62
     7
 10
96.531091
 20
79.549509
 11
96.493723
 21
79.527399
  0
LINE
  8
CSLAYER4
  6
CONTINUOUS
 62
     7
 10
96.493723
 20
79.527399
 11
96.455766
 21
79.506428
  0
LINE
  8
CSLAYER4
  6
CONTINUOUS
 62
     7
 10
96.455766
 20
79.506428
 11
96.417327
 21
79.486571
  0
LINE
  8
CSLAYER4
  6
CONTINUOUS
 62
     7
 10
96.417327
 20
79.486571
 11
96.380111
 21
79.475646
  0
LINE
  8
CSLAYER4
  6
CONTINUOUS
 62
     7
 10
96.380111
 20
79.475646
 11
96.342723
 21
79.465731
  0
LINE
  8
CSLAYER4
  6
CONTINUOUS
 62
     7
 10
96.342723
 20
79.465731
 11
96.305143
 21
79.456845
  0
LINE
  8
CSLAYER4
  6
CONTINUOUS
 62
     7
 10
96.305143
 20
79.456845
 11
96.267384
 21
79.448997
  0
LINE
  8
CSLAYER4
  6
CONTINUOUS
 62
     7
 10
96.267384
 20
79.448997
 11
96.229440
 21
79.442207
  0
LINE
  8
CSLAYER4
  6
CONTINUOUS
 62
     7
 10
96.229440
 20
79.442207
 11
96.191311
 21
79.436480
  0
LINE
  8
CSLAYER4
  6
CONTINUOUS
 62
     7
 10
96.191311
 20
79.436480
 11
96.153003
 21
79.431852
  0
LINE
  8
CSLAYER4
  6
CONTINUOUS
 62
     7
 10
96.153003
 20
79.431852
 11
96.114517
 21
79.428323
  0
LINE
  8
CSLAYER4
  6
CONTINUOUS
 62
     7
 10
96.114517
 20
79.428323
 11
96.075852
 21
79.425912
  0
LINE
  8
CSLAYER4
  6
CONTINUOUS
 62
     7
 10
96.075852
 20
79.425912
 11
96.037180
 21
79.424649
  0
LINE
  8
CSLAYER4
  6
CONTINUOUS
 62
     7
 10
96.037180
 20
79.424649
 11
95.998597
 21
79.424519
  0
LINE
  8
CSLAYER4
  6
CONTINUOUS
 62
     7
 10
95.998597
 20
79.424519
 11
95.960097
 21
79.425514
  0
LINE
  8
CSLAYER4
  6
CONTINUOUS
 62
     7
 10
95.960097
 20
79.425514
 11
95.921672
 21
79.427643
  0
LINE
  8
CSLAYER4
  6
CONTINUOUS
 62
     7
 10
95.921672
 20
79.427643
 11
95.883337
 21
79.430877
  0
LINE
  8
CSLAYER4
  6
CONTINUOUS
 62
     7
 10
95.883337
 20
79.430877
 11
95.845084
 21
79.435230
  0
LINE
  8
CSLAYER4
  6
CONTINUOUS
 62
     7
 10
95.845084
 20
79.435230
 11
95.806906
 21
79.440682
  0
LINE
  8
CSLAYER4
  6
CONTINUOUS
 62
     7
 10
95.806906
 20
79.440682
 11
95.768818
 21
79.447226
  0
LINE
  8
CSLAYER4
  6
CONTINUOUS
 62
     7
 10
95.768818
 20
79.447226
 11
95.730833
 21
79.454855
  0
LINE
  8
CSLAYER4
  6
CONTINUOUS
 62
     7
 10
95.730833
 20
79.454855
 11
95.693101
 21
79.463520
  0
LINE
  8
CSLAYER4
  6
CONTINUOUS
 62
     7
 10
95.693101
 20
79.463520
 11
95.655638
 21
79.473195
  0
LINE
  8
CSLAYER4
  6
CONTINUOUS
 62
     7
 10
95.655638
 20
79.473195
 11
95.618457
 21
79.483859
  0
LINE
  8
CSLAYER4
  6
CONTINUOUS
 62
     7
 10
95.618457
 20
79.483859
 11
95.581556
 21
79.495483
  0
LINE
  8
CSLAYER4
  6
CONTINUOUS
 62
     7
 10
95.581556
 20
79.495483
 11
95.544930
 21
79.508042
  0
LINE
  8
CSLAYER4
  6
CONTINUOUS
 62
     7
 10
95.544930
 20
79.508042
 11
95.508586
 21
79.521521
  0
LINE
  8
CSLAYER4
  6
CONTINUOUS
 62
     7
 10
95.508586
 20
79.521521
 11
95.483187
 21
79.531985
  0
LINE
  8
CSLAYER4
  6
CONTINUOUS
 62
     7
 10
95.483187
 20
79.531985
 11
95.457987
 21
79.542986
  0
LINE
  8
CSLAYER4
  6
CONTINUOUS
 62
     7
 10
95.457987
 20
79.542986
 11
95.433034
 21
79.554542
  0
LINE
  8
CSLAYER4
  6
CONTINUOUS
 62
     7
 10
95.433034
 20
79.554542
 11
95.408343
 21
79.566661
  0
LINE
  8
CSLAYER4
  6
CONTINUOUS
 62
     7
 10
95.408343
 20
79.566661
 11
95.383947
 21
79.579371
  0
LINE
  8
CSLAYER4
  6
CONTINUOUS
 62
     7
 10
95.383947
 20
79.579371
 11
95.359873
 21
79.592671
  0
LINE
  8
CSLAYER4
  6
CONTINUOUS
 62
     7
 10
95.359873
 20
79.592671
 11
95.336156
 21
79.606589
  0
LINE
  8
CSLAYER4
  6
CONTINUOUS
 62
     7
 10
95.336156
 20
79.606589
 11
95.312817
 21
79.621139
  0
LINE
  8
CSLAYER4
  6
CONTINUOUS
 62
     7
 10
95.312817
 20
79.621139
 11
95.289883
 21
79.636328
  0
LINE
  8
CSLAYER4
  6
CONTINUOUS
 62
     7
 10
95.289883
 20
79.636328
 11
95.267402
 21
79.652169
  0
LINE
  8
CSLAYER4
  6
CONTINUOUS
 62
     7
 10
95.267402
 20
79.652169
 11
95.245443
 21
79.668635
  0
LINE
  8
CSLAYER4
  6
CONTINUOUS
 62
     7
 10
95.245443
 20
79.668635
 11
95.224041
 21
79.685732
  0
LINE
  8
CSLAYER4
  6
CONTINUOUS
 62
     7
 10
95.224041
 20
79.685732
 11
95.203215
 21
79.703475
  0
LINE
  8
CSLAYER4
  6
CONTINUOUS
 62
     7
 10
95.203215
 20
79.703475
 11
95.182979
 21
79.721870
  0
LINE
  8
CSLAYER4
  6
CONTINUOUS
 62
     7
 10
95.182979
 20
79.721870
 11
95.163355
 21
79.740932
  0
LINE
  8
CSLAYER4
  6
CONTINUOUS
 62
     7
 10
95.163355
 20
79.740932
 11
95.144362
 21
79.760673
  0
LINE
  8
CSLAYER4
  6
CONTINUOUS
 62
     7
 10
95.144362
 20
79.760673
 11
95.126022
 21
79.781100
  0
LINE
  8
CSLAYER4
  6
CONTINUOUS
 62
     7
 10
95.126022
 20
79.781100
 11
95.108355
 21
79.802228
  0
LINE
  8
CSLAYER4
  6
CONTINUOUS
 62
     7
 10
95.108355
 20
79.802228
 11
95.091442
 21
79.823988
  0
LINE
  8
CSLAYER4
  6
CONTINUOUS
 62
     7
 10
95.091442
 20
79.823988
 11
95.075354
 21
79.846297
  0
LINE
  8
CSLAYER4
  6
CONTINUOUS
 62
     7
 10
95.075354
 20
79.846297
 11
95.060097
 21
79.869142
  0
LINE
  8
CSLAYER4
  6
CONTINUOUS
 62
     7
 10
95.060097
 20
79.869142
 11
95.045664
 21
79.892529
  0
LINE
  8
CSLAYER4
  6
CONTINUOUS
 62
     7
 10
95.045664
 20
79.892529
 11
95.032054
 21
79.916466
  0
LINE
  8
CSLAYER4
  6
CONTINUOUS
 62
     7
 10
95.032054
 20
79.916466
 11
95.019269
 21
79.940937
  0
LINE
  8
CSLAYER4
  6
CONTINUOUS
 62
     7
 10
95.019269
 20
79.940937
 11
95.005543
 21
79.969337
  0
LINE
  8
CSLAYER4
  6
CONTINUOUS
 62
     7
 10
95.005543
 20
79.969337
 11
94.992339
 21
79.998533
  0
LINE
  8
CSLAYER4
  6
CONTINUOUS
 62
     7
 10
94.992339
 20
79.998533
 11
94.979650
 21
80.028478
  0
LINE
  8
CSLAYER4
  6
CONTINUOUS
 62
     7
 10
94.979650
 20
80.028478
 11
94.967455
 21
80.059123
  0
LINE
  8
CSLAYER4
  6
CONTINUOUS
 62
     7
 10
94.967455
 20
80.059123
 11
94.955748
 21
80.090414
  0
LINE
  8
CSLAYER4
  6
CONTINUOUS
 62
     7
 10
94.955748
 20
80.090414
 11
94.944521
 21
80.122295
  0
LINE
  8
CSLAYER4
  6
CONTINUOUS
 62
     7
 10
94.944521
 20
80.122295
 11
94.933754
 21
80.154711
  0
LINE
  8
CSLAYER4
  6
CONTINUOUS
 62
     7
 10
94.933754
 20
80.154711
 11
94.923434
 21
80.187629
  0
LINE
  8
CSLAYER4
  6
CONTINUOUS
 62
     7
 10
94.923434
 20
80.187629
 11
94.913560
 21
80.220972
  0
LINE
  8
CSLAYER4
  6
CONTINUOUS
 62
     7
 10
94.913560
 20
80.220972
 11
94.904119
 21
80.254714
  0
LINE
  8
CSLAYER4
  6
CONTINUOUS
 62
     7
 10
94.904119
 20
80.254714
 11
94.895089
 21
80.288786
  0
LINE
  8
CSLAYER4
  6
CONTINUOUS
 62
     7
 10
94.895089
 20
80.288786
 11
94.886465
 21
80.323138
  0
LINE
  8
CSLAYER4
  6
CONTINUOUS
 62
     7
 10
94.886465
 20
80.323138
 11
94.878232
 21
80.357724
  0
LINE
  8
CSLAYER4
  6
CONTINUOUS
 62
     7
 10
94.878232
 20
80.357724
 11
94.870384
 21
80.392490
  0
LINE
  8
CSLAYER4
  6
CONTINUOUS
 62
     7
 10
94.870384
 20
80.392490
 11
94.862899
 21
80.427378
  0
LINE
  8
CSLAYER4
  6
CONTINUOUS
 62
     7
 10
94.862899
 20
80.427378
 11
94.855779
 21
80.462349
  0
LINE
  8
CSLAYER4
  6
CONTINUOUS
 62
     7
 10
94.855779
 20
80.462349
 11
94.848994
 21
80.497354
  0
LINE
  8
CSLAYER4
  6
CONTINUOUS
 62
     7
 10
94.848994
 20
80.497354
 11
94.842526
 21
80.532497
  0
LINE
  8
CSLAYER4
  6
CONTINUOUS
 62
     7
 10
94.842526
 20
80.532497
 11
94.836346
 21
80.567769
  0
LINE
  8
CSLAYER4
  6
CONTINUOUS
 62
     7
 10
94.836346
 20
80.567769
 11
94.830448
 21
80.603145
  0
LINE
  8
CSLAYER4
  6
CONTINUOUS
 62
     7
 10
94.830448
 20
80.603145
 11
94.824832
 21
80.638577
  0
LINE
  8
CSLAYER4
  6
CONTINUOUS
 62
     7
 10
94.824832
 20
80.638577
 11
94.819483
 21
80.674021
  0
LINE
  8
CSLAYER4
  6
CONTINUOUS
 62
     7
 10
94.819483
 20
80.674021
 11
94.814395
 21
80.709452
  0
LINE
  8
CSLAYER4
  6
CONTINUOUS
 62
     7
 10
94.814395
 20
80.709452
 11
94.809561
 21
80.744821
  0
LINE
  8
CSLAYER4
  6
CONTINUOUS
 62
     7
 10
93.691112
 20
80.744820
 11
94.809559
 21
80.744820
  0
LINE
  8
CSLAYER4
  6
CONTINUOUS
 62
     7
 10
93.691111
 20
80.744821
 11
93.701548
 21
80.620875
  0
LINE
  8
CSLAYER4
  6
CONTINUOUS
 62
     7
 10
93.701548
 20
80.620875
 11
93.715020
 21
80.496722
  0
LINE
  8
CSLAYER4
  6
CONTINUOUS
 62
     7
 10
93.715020
 20
80.496722
 11
93.731754
 21
80.372714
  0
LINE
  8
CSLAYER4
  6
CONTINUOUS
 62
     7
 10
93.731754
 20
80.372714
 11
93.751975
 21
80.249221
  0
LINE
  8
CSLAYER4
  6
CONTINUOUS
 62
     7
 10
93.751975
 20
80.249221
 11
93.775912
 21
80.126607
  0
LINE
  8
CSLAYER4
  6
CONTINUOUS
 62
     7
 10
93.775912
 20
80.126607
 11
93.803790
 21
80.005228
  0
LINE
  8
CSLAYER4
  6
CONTINUOUS
 62
     7
 10
93.803790
 20
80.005228
 11
93.835856
 21
79.885367
  0
LINE
  8
CSLAYER4
  6
CONTINUOUS
 62
     7
 10
93.835856
 20
79.885367
 11
93.872536
 21
79.766832
  0
LINE
  8
CSLAYER4
  6
CONTINUOUS
 62
     7
 10
93.872536
 20
79.766832
 11
93.914154
 21
79.649958
  0
LINE
  8
CSLAYER4
  6
CONTINUOUS
 62
     7
 10
93.914154
 20
79.649958
 11
93.961004
 21
79.535199
  0
LINE
  8
CSLAYER4
  6
CONTINUOUS
 62
     7
 10
93.961004
 20
79.535199
 11
94.013382
 21
79.423028
  0
LINE
  8
CSLAYER4
  6
CONTINUOUS
 62
     7
 10
94.013382
 20
79.423028
 11
94.071582
 21
79.313886
  0
LINE
  8
CSLAYER4
  6
CONTINUOUS
 62
     7
 10
94.071582
 20
79.313886
 11
94.135659
 21
79.208624
  0
LINE
  8
CSLAYER4
  6
CONTINUOUS
 62
     7
 10
94.135659
 20
79.208624
 11
94.205409
 21
79.108202
  0
LINE
  8
CSLAYER4
  6
CONTINUOUS
 62
     7
 10
94.205409
 20
79.108202
 11
94.281009
 21
79.012868
  0
LINE
  8
CSLAYER4
  6
CONTINUOUS
 62
     7
 10
94.281009
 20
79.012868
 11
94.362616
 21
78.922862
  0
LINE
  8
CSLAYER4
  6
CONTINUOUS
 62
     7
 10
94.362616
 20
78.922862
 11
94.450411
 21
78.838404
  0
LINE
  8
CSLAYER4
  6
CONTINUOUS
 62
     7
 10
94.450411
 20
78.838404
 11
94.544529
 21
78.759763
  0
LINE
  8
CSLAYER4
  6
CONTINUOUS
 62
     7
 10
94.544529
 20
78.759763
 11
94.643598
 21
78.688187
  0
LINE
  8
CSLAYER4
  6
CONTINUOUS
 62
     7
 10
94.643598
 20
78.688187
 11
94.746636
 21
78.624130
  0
LINE
  8
CSLAYER4
  6
CONTINUOUS
 62
     7
 10
94.746636
 20
78.624130
 11
94.853416
 21
78.567331
  0
LINE
  8
CSLAYER4
  6
CONTINUOUS
 62
     7
 10
94.853416
 20
78.567331
 11
94.963719
 21
78.517549
  0
LINE
  8
CSLAYER4
  6
CONTINUOUS
 62
     7
 10
94.963719
 20
78.517549
 11
95.077332
 21
78.474531
  0
LINE
  8
CSLAYER4
  6
CONTINUOUS
 62
     7
 10
95.077332
 20
78.474531
 11
95.194027
 21
78.438021
  0
ENDBLK
  8
0
  0
BLOCK
  8
CSLAYER1
  2
BLKF0007
 70
   64
 10
0.0
 20
0.0
 30
0.0
  0
LINE
  8
CSLAYER4
  6
CONTINUOUS
 62
     7
 10
108.455000
 20
81.971540
 11
108.477488
 21
81.617351
  0
LINE
  8
CSLAYER4
  6
CONTINUOUS
 62
     7
 10
108.477488
 20
81.617351
 11
108.536443
 21
81.259334
  0
LINE
  8
CSLAYER4
  6
CONTINUOUS
 62
     7
 10
108.536443
 20
81.259334
 11
108.632011
 21
80.904448
  0
LINE
  8
CSLAYER4
  6
CONTINUOUS
 62
     7
 10
108.632011
 20
80.904448
 11
108.764307
 21
80.559635
  0
LINE
  8
CSLAYER4
  6
CONTINUOUS
 62
     7
 10
108.764307
 20
80.559635
 11
108.931978
 21
80.231162
  0
LINE
  8
CSLAYER4
  6
CONTINUOUS
 62
     7
 10
108.931978
 20
80.231162
 11
109.130275
 21
79.923857
  0
LINE
  8
CSLAYER4
  6
CONTINUOUS
 62
     7
 10
109.130275
 20
79.923857
 11
109.353970
 21
79.642356
  0
LINE
  8
CSLAYER4
  6
CONTINUOUS
 62
     7
 10
109.353970
 20
79.642356
 11
109.598670
 21
79.390518
  0
LINE
  8
CSLAYER4
  6
CONTINUOUS
 62
     7
 10
109.598670
 20
79.390518
 11
109.871385
 21
79.161176
  0
LINE
  8
CSLAYER4
  6
CONTINUOUS
 62
     7
 10
109.871385
 20
79.161176
 11
110.171449
 21
78.955326
  0
LINE
  8
CSLAYER4
  6
CONTINUOUS
 62
     7
 10
110.171449
 20
78.955326
 11
110.494159
 21
78.778014
  0
LINE
  8
CSLAYER4
  6
CONTINUOUS
 62
     7
 10
110.494159
 20
78.778014
 11
110.834783
 21
78.634237
  0
LINE
  8
CSLAYER4
  6
CONTINUOUS
 62
     7
 10
110.834783
 20
78.634237
 11
111.187664
 21
78.526746
  0
LINE
  8
CSLAYER4
  6
CONTINUOUS
 62
     7
 10
111.187664
 20
78.526746
 11
111.545935
 21
78.455403
  0
LINE
  8
CSLAYER4
  6
CONTINUOUS
 62
     7
 10
111.545935
 20
78.455403
 11
111.902675
 21
78.419887
  0
LINE
  8
CSLAYER4
  6
CONTINUOUS
 62
     7
 10
111.902675
 20
78.419887
 11
112.253914
 21
78.419887
  0
LINE
  8
CSLAYER4
  6
CONTINUOUS
 62
     7
 10
112.253914
 20
78.419887
 11
112.610647
 21
78.455403
  0
LINE
  8
CSLAYER4
  6
CONTINUOUS
 62
     7
 10
112.610647
 20
78.455403
 11
112.968925
 21
78.526746
  0
LINE
  8
CSLAYER4
  6
CONTINUOUS
 62
     7
 10
112.968925
 20
78.526746
 11
113.321806
 21
78.634237
  0
LINE
  8
CSLAYER4
  6
CONTINUOUS
 62
     7
 10
113.321806
 20
78.634237
 11
113.662423
 21
78.778014
  0
LINE
  8
CSLAYER4
  6
CONTINUOUS
 62
     7
 10
113.662423
 20
78.778014
 11
113.985133
 21
78.955326
  0
LINE
  8
CSLAYER4
  6
CONTINUOUS
 62
     7
 10
113.985133
 20
78.955326
 11
114.285204
 21
79.161176
  0
LINE
  8
CSLAYER4
  6
CONTINUOUS
 62
     7
 10
114.285204
 20
79.161176
 11
114.557919
 21
79.390518
  0
LINE
  8
CSLAYER4
  6
CONTINUOUS
 62
     7
 10
114.557919
 20
79.390518
 11
114.802612
 21
79.642356
  0
LINE
  8
CSLAYER4
  6
CONTINUOUS
 62
     7
 10
114.802612
 20
79.642356
 11
115.026315
 21
79.923857
  0
LINE
  8
CSLAYER4
  6
CONTINUOUS
 62
     7
 10
115.026315
 20
79.923857
 11
115.224611
 21
80.231162
  0
LINE
  8
CSLAYER4
  6
CONTINUOUS
 62
     7
 10
115.224611
 20
80.231162
 11
115.392276
 21
80.559635
  0
LINE
  8
CSLAYER4
  6
CONTINUOUS
 62
     7
 10
115.392276
 20
80.559635
 11
115.524579
 21
80.904448
  0
LINE
  8
CSLAYER4
  6
CONTINUOUS
 62
     7
 10
115.524579
 20
80.904448
 11
115.620139
 21
81.259334
  0
LINE
  8
CSLAYER4
  6
CONTINUOUS
 62
     7
 10
115.620139
 20
81.259334
 11
115.679101
 21
81.617351
  0
LINE
  8
CSLAYER4
  6
CONTINUOUS
 62
     7
 10
115.679101
 20
81.617351
 11
115.701589
 21
81.971540
  0
LINE
  8
CSLAYER4
  6
CONTINUOUS
 62
     7
 10
115.701589
 20
81.971540
 11
115.701699
 21
81.981493
  0
LINE
  8
CSLAYER4
  6
CONTINUOUS
 62
     7
 10
115.701699
 20
81.981493
 11
115.687547
 21
82.341821
  0
LINE
  8
CSLAYER4
  6
CONTINUOUS
 62
     7
 10
115.687547
 20
82.341821
 11
115.638445
 21
82.698341
  0
LINE
  8
CSLAYER4
  6
CONTINUOUS
 62
     7
 10
115.638445
 20
82.698341
 11
115.554819
 21
83.048468
  0
LINE
  8
CSLAYER4
  6
CONTINUOUS
 62
     7
 10
115.554819
 20
83.048468
 11
115.437375
 21
83.388927
  0
LINE
  8
CSLAYER4
  6
CONTINUOUS
 62
     7
 10
115.437375
 20
83.388927
 11
115.287734
 21
83.715249
  0
LINE
  8
CSLAYER4
  6
CONTINUOUS
 62
     7
 10
115.287734
 20
83.715249
 11
115.107201
 21
84.025022
  0
LINE
  8
CSLAYER4
  6
CONTINUOUS
 62
     7
 10
115.107201
 20
84.025022
 11
114.897033
 21
84.315947
  0
LINE
  8
CSLAYER4
  6
CONTINUOUS
 62
     7
 10
114.897033
 20
84.315947
 11
114.659007
 21
84.585188
  0
LINE
  8
CSLAYER4
  6
CONTINUOUS
 62
     7
 10
114.659007
 20
84.585188
 11
114.396317
 21
84.829088
  0
LINE
  8
CSLAYER4
  6
CONTINUOUS
 62
     7
 10
114.396317
 20
84.829088
 11
114.111030
 21
85.045806
  0
LINE
  8
CSLAYER4
  6
CONTINUOUS
 62
     7
 10
114.111030
 20
85.045806
 11
113.805143
 21
85.233618
  0
LINE
  8
CSLAYER4
  6
CONTINUOUS
 62
     7
 10
113.805143
 20
85.233618
 11
113.481307
 21
85.390496
  0
LINE
  8
CSLAYER4
  6
CONTINUOUS
 62
     7
 10
113.481307
 20
85.390496
 11
113.143642
 21
85.514246
  0
LINE
  8
CSLAYER4
  6
CONTINUOUS
 62
     7
 10
113.143642
 20
85.514246
 11
112.794696
 21
85.603781
  0
LINE
  8
CSLAYER4
  6
CONTINUOUS
 62
     7
 10
112.794696
 20
85.603781
 11
112.438368
 21
85.657927
  0
LINE
  8
CSLAYER4
  6
CONTINUOUS
 62
     7
 10
112.438368
 20
85.657927
 11
112.078147
 21
85.676048
  0
LINE
  8
CSLAYER4
  6
CONTINUOUS
 62
     7
 10
112.078147
 20
85.676048
 11
111.718056
 21
85.657910
  0
LINE
  8
CSLAYER4
  6
CONTINUOUS
 62
     7
 10
111.718056
 20
85.657910
 11
111.361639
 21
85.603730
  0
LINE
  8
CSLAYER4
  6
CONTINUOUS
 62
     7
 10
111.361639
 20
85.603730
 11
111.012796
 21
85.514198
  0
LINE
  8
CSLAYER4
  6
CONTINUOUS
 62
     7
 10
111.012796
 20
85.514198
 11
110.674801
 21
85.390296
  0
LINE
  8
CSLAYER4
  6
CONTINUOUS
 62
     7
 10
110.674801
 20
85.390296
 11
110.351735
 21
85.233776
  0
LINE
  8
CSLAYER4
  6
CONTINUOUS
 62
     7
 10
110.351735
 20
85.233776
 11
110.045923
 21
85.046057
  0
LINE
  8
CSLAYER4
  6
CONTINUOUS
 62
     7
 10
110.045923
 20
85.046057
 11
109.759709
 21
84.828614
  0
LINE
  8
CSLAYER4
  6
CONTINUOUS
 62
     7
 10
109.759709
 20
84.828614
 11
109.496751
 21
84.584336
  0
LINE
  8
CSLAYER4
  6
CONTINUOUS
 62
     7
 10
109.496751
 20
84.584336
 11
109.259289
 21
84.315614
  0
LINE
  8
CSLAYER4
  6
CONTINUOUS
 62
     7
 10
109.259289
 20
84.315614
 11
109.049010
 21
84.024445
  0
LINE
  8
CSLAYER4
  6
CONTINUOUS
 62
     7
 10
109.049010
 20
84.024445
 11
108.868031
 21
83.713673
  0
LINE
  8
CSLAYER4
  6
CONTINUOUS
 62
     7
 10
108.868031
 20
83.713673
 11
108.718542
 21
83.387252
  0
LINE
  8
CSLAYER4
  6
CONTINUOUS
 62
     7
 10
108.718542
 20
83.387252
 11
108.601530
 21
83.047651
  0
LINE
  8
CSLAYER4
  6
CONTINUOUS
 62
     7
 10
108.601530
 20
83.047651
 11
108.517945
 21
82.697286
  0
LINE
  8
CSLAYER4
  6
CONTINUOUS
 62
     7
 10
108.517945
 20
82.697286
 11
108.468933
 21
82.340561
  0
LINE
  8
CSLAYER4
  6
CONTINUOUS
 62
     7
 10
108.468933
 20
82.340561
 11
108.454890
 21
81.981493
  0
LINE
  8
CSLAYER4
  6
CONTINUOUS
 62
     7
 10
108.454890
 20
81.981493
 11
108.455000
 21
81.971540
  0
CIRCLE
  8
CSLAYER4
  6
CONTINUOUS
 62
     7
 10
112.078295
 20
82.015464
 40
3.240000
  0
ENDBLK
  8
0
  0
ENDSEC
  0
SECTION
  2
ENTITIES
  0
TEXT
  8
CSLAYER1
 62
     7
 10
178.008575
 20
292.417236
 40
6.000000
 41
0.846774
  1
SMOLENSKY CHECK VALVE
 50
0.000000
 51
0.000000
  7
EASYDRAW_FONT
 72
     5
 11
283.008575
 21
292.417236
  0
TEXT
  8
CSLAYER1
 62
     7
 10
178.091736
 20
272.417206
 40
6.000000
 41
0.865385
  1
株式会社　イシザキ
 50
0.000000
 51
0.000000
  7
EASYDRAW_FONT
 72
     5
 11
223.091736
 21
272.417206
  0
TEXT
  8
CSLAYER1
 62
     7
 10
178.147064
 20
282.417206
 40
6.000000
 41
0.859375
  1
SMF 10K 25A
 50
0.000000
 51
0.000000
  7
EASYDRAW_FONT
 72
     5
 11
233.147064
 21
282.417206
  0
LINE
  8
CSLAYER1
  6
CONTINUOUS
 62
     7
 10
55.000005
 20
26.200000
 11
55.000005
 21
41.500000
  0
LINE
  8
CSLAYER1
  6
CONTINUOUS
 62
     7
 10
55.000005
 20
143.500000
 11
55.000005
 21
158.800000
  0
LINE
  8
CSLAYER1
  6
CONTINUOUS
 62
     7
 10
56.500005
 20
43.000000
 11
90.500005
 21
43.000000
  0
LINE
  8
CSLAYER1
  6
CONTINUOUS
 62
     7
 10
56.200005
 20
25.000000
 11
178.800005
 21
25.000000
  0
LINE
  8
CSLAYER1
  6
CONTINUOUS
 62
     7
 10
56.500005
 20
142.000000
 11
178.500005
 21
142.000000
  0
LINE
  8
CSLAYER1
  6
CENTER
 62
     7
 10
72.500005
 20
20.000000
 11
72.500005
 21
48.000000
  0
LINE
  8
CSLAYER1
  6
CENTER
 62
     7
 10
72.500005
 20
137.000000
 11
72.500005
 21
165.000000
  0
LINE
  8
CSLAYER1
  6
CONTINUOUS
 62
     7
 10
90.500005
 20
129.207259
 11
90.500005
 21
137.000000
  0
ARC
  8
CSLAYER1
  6
CONTINUOUS
 62
     7
 10
90.500005
 20
48.000000
 40
5.000000
 50
270.000000
 51
360.000000
  0
ARC
  8
CSLAYER1
  6
CONTINUOUS
 62
     7
 10
85.500005
 20
137.000000
 40
5.000000
 50
0.000000
 51
90.000000
  0
LINE
  8
CSLAYER1
  6
CONTINUOUS
 62
     7
 10
95.500005
 20
48.000000
 11
95.500005
 21
61.000000
  0
LINE
  8
CSLAYER1
  6
CENTER
 62
     2
 10
117.500005
 20
20.000000
 11
117.500005
 21
74.000000
  0
LINE
  8
CSLAYER1
  6
CONTINUOUS
 62
     7
 10
55.000005
 20
41.500000
 11
56.500005
 21
43.000000
  0
LINE
  8
CSLAYER1
  6
CONTINUOUS
 62
     7
 10
55.000005
 20
143.500000
 11
56.500005
 21
142.000000
  0
LINE
  8
CSLAYER1
  6
CONTINUOUS
 62
     7
 10
56.200005
 20
25.000000
 11
55.000005
 21
26.200000
  0
LINE
  8
CSLAYER1
  6
CONTINUOUS
 62
     7
 10
55.000005
 20
158.800000
 11
56.200005
 21
160.000000
  0
LINE
  8
CSLAYER1
  6
CONTINUOUS
 62
     7
 10
71.500005
 20
74.000000
 11
71.500005
 21
100.917096
  0
LINE
  8
CSLAYER1
  6
CONTINUOUS
 62
     7
 10
81.500005
 20
64.000000
 11
153.500005
 21
64.000000
  0
ARC
  8
CSLAYER1
  6
CONTINUOUS
 62
     7
 10
92.500005
 20
61.000000
 40
3.000000
 50
0.000000
 51
90.000000
  0
ARC
  8
CSLAYER1
  6
CONTINUOUS
 62
     7
 10
81.500005
 20
74.000000
 40
10.000000
 50
180.000000
 51
270.000000
  0
LINE
  8
CSLAYER1
  6
CONTINUOUS
 62
     7
 10
81.500005
 20
118.237604
 11
85.500005
 21
120.547005
  0
ARC
  8
CSLAYER1
  6
CONTINUOUS
 62
     7
 10
80.500005
 20
129.207259
 40
10.000000
 50
300.000000
 51
360.000000
  0
ARC
  8
CSLAYER1
  6
CONTINUOUS
 62
     7
 10
91.500005
 20
100.917096
 40
20.000000
 50
120.000000
 51
180.000000
  0
LINE
  8
CSLAYER1
  6
CONTINUOUS
 62
     7
 10
180.000005
 20
26.200000
 11
180.000005
 21
41.500000
  0
LINE
  8
CSLAYER1
  6
CONTINUOUS
 62
     7
 10
180.000005
 20
143.500000
 11
180.000005
 21
158.800000
  0
LINE
  8
CSLAYER1
  6
CONTINUOUS
 62
     7
 10
178.500005
 20
43.000000
 11
56.500005
 21
43.000000
  0
LINE
  8
CSLAYER1
  6
CONTINUOUS
 62
     7
 10
178.800005
 20
160.000000
 11
56.200005
 21
160.000000
  0
LINE
  8
CSLAYER1
  6
CENTER
 62
     7
 10
162.500005
 20
20.000000
 11
162.500005
 21
48.000000
  0
LINE
  8
CSLAYER1
  6
CENTER
 62
     7
 10
162.500005
 20
137.000000
 11
162.500005
 21
165.000000
  0
LINE
  8
CSLAYER1
  6
CONTINUOUS
 62
     7
 10
144.500005
 20
129.207259
 11
144.500005
 21
137.000000
  0
ARC
  8
CSLAYER1
  6
CONTINUOUS
 62
     7
 10
144.500005
 20
48.000000
 40
5.000000
 50
180.000000
 51
270.000000
  0
ARC
  8
CSLAYER1
  6
CONTINUOUS
 62
     7
 10
149.500005
 20
137.000000
 40
5.000000
 50
90.000000
 51
180.000000
  0
LINE
  8
CSLAYER1
  6
CONTINUOUS
 62
     7
 10
139.500005
 20
48.000000
 11
139.500005
 21
61.000000
  0
LINE
  8
CSLAYER1
  6
CONTINUOUS
 62
     7
 10
180.000005
 20
41.500000
 11
178.500005
 21
43.000000
  0
LINE
  8
CSLAYER1
  6
CONTINUOUS
 62
     7
 10
180.000005
 20
143.500000
 11
178.500005
 21
142.000000
  0
LINE
  8
CSLAYER1
  6
CONTINUOUS
 62
     7
 10
178.800005
 20
25.000000
 11
180.000005
 21
26.200000
  0
LINE
  8
CSLAYER1
  6
CONTINUOUS
 62
     7
 10
180.000005
 20
158.800000
 11
178.800005
 21
160.000000
  0
LINE
  8
CSLAYER1
  6
CONTINUOUS
 62
     7
 10
163.500005
 20
74.000000
 11
163.500005
 21
100.917096
  0
ARC
  8
CSLAYER1
  6
CONTINUOUS
 62
     7
 10
142.500005
 20
61.000000
 40
3.000000
 50
90.000000
 51
180.000000
  0
ARC
  8
CSLAYER1
  6
CONTINUOUS
 62
     7
 10
153.500005
 20
74.000000
 40
10.000000
 50
270.000000
 51
360.000000
  0
LINE
  8
CSLAYER1
  6
CONTINUOUS
 62
     7
 10
153.500005
 20
118.237604
 11
149.500005
 21
120.547005
  0
ARC
  8
CSLAYER1
  6
CONTINUOUS
 62
     7
 10
154.500005
 20
129.207259
 40
10.000000
 50
180.000000
 51
240.000000
  0
ARC
  8
CSLAYER1
  6
CONTINUOUS
 62
     7
 10
143.500005
 20
100.917096
 40
20.000000
 50
0.000000
 51
60.000000
  0
INSERT
  8
CSLAYER1
  2
BLKF0000
 10
0.0
 20
0.0
 30
0.0
  0
LINE
  8
CSLAYER1
  6
CENTER
 62
     7
 10
117.500005
 20
64.000000
 11
117.500005
 21
165.000000
  0
LINE
  8
CSLAYER1
  6
CENTER
 62
     7
 10
117.500005
 20
304.232513
 11
117.500005
 21
169.232513
  0
LINE
  8
CSLAYER1
  6
CENTER
 62
     7
 10
50.000005
 20
236.732513
 11
185.000005
 21
236.732513
  0
ARC
  8
CSLAYER1
  6
CENTER
 62
     7
 10
117.500005
 20
236.732513
 40
45.000000
 50
0.000000
 51
180.000000
  0
LINE
  8
CSLAYER1
  6
CENTER
 62
     7
 10
139.066762
 20
258.299270
 11
159.572859
 21
278.805367
  0
CIRCLE
  8
CSLAYER1
  6
CONTINUOUS
 62
     7
 10
149.319810
 20
268.552318
 40
9.500000
  0
LINE
  8
CSLAYER1
  6
CENTER
 62
     7
 10
95.933248
 20
258.299270
 11
75.427152
 21
278.805367
  0
CIRCLE
  8
CSLAYER1
  6
CONTINUOUS
 62
     7
 10
85.680200
 20
268.552318
 40
9.500000
  0
CIRCLE
  8
CSLAYER1
  6
CONTINUOUS
 62
     7
 10
117.500005
 20
236.732513
 40
62.500000
  0
CIRCLE
  8
CSLAYER1
  6
CENTER
 62
     7
 10
117.500005
 20
236.732513
 40
45.000000
  0
CIRCLE
  8
CSLAYER1
  6
CONTINUOUS
 62
     7
 10
117.500005
 20
236.732513
 40
21.500000
  0
LINE
  8
CSLAYER1
  6
CENTER
 62
     7
 10
139.066762
 20
215.165756
 11
159.572859
 21
194.659660
  0
CIRCLE
  8
CSLAYER1
  6
CONTINUOUS
 62
     7
 10
149.319810
 20
204.912708
 40
9.500000
  0
LINE
  8
CSLAYER1
  6
CENTER
 62
     7
 10
95.933248
 20
215.165756
 11
75.427152
 21
194.659660
  0
CIRCLE
  8
CSLAYER1
  6
CONTINUOUS
 62
     7
 10
85.680200
 20
204.912708
 40
9.500000
  0
INSERT
  8
CSLAYER4
  2
BLKF0001
 10
0.0
 20
0.0
 30
0.0
  0
LINE
  8
CSLAYER4
  6
CONTINUOUS
 62
     7
 10
110.283979
 20
107.158529
 11
110.282281
 21
107.179118
  0
INSERT
  8
CSLAYER4
  2
BLKF0002
 10
0.0
 20
0.0
 30
0.0
  0
LINE
  8
CSLAYER4
  6
CONTINUOUS
 62
     7
 10
125.198549
 20
107.179118
 11
125.196851
 21
107.158529
  0
LINE
  8
CSLAYER4
  6
CONTINUOUS
 62
     7
 10
90.987606
 20
90.181042
 11
88.570642
 21
90.181042
  0
LINE
  8
CSLAYER4
  6
CONTINUOUS
 62
     7
 10
86.117315
 20
94.992004
 11
90.987606
 21
90.181042
  0
LINE
  8
CSLAYER4
  6
CONTINUOUS
 62
     7
 10
86.117315
 20
94.992004
 11
86.117315
 21
81.540548
  0
LINE
  8
CSLAYER4
  6
CONTINUOUS
 62
     7
 10
88.570642
 20
81.540548
 11
86.117315
 21
81.540548
  0
LINE
  8
CSLAYER4
  6
CONTINUOUS
 62
     7
 10
88.570642
 20
81.540548
 11
88.570642
 21
90.181042
  0
LINE
  8
CSLAYER4
  6
CONTINUOUS
 62
     7
 10
129.039473
 20
85.194127
 11
127.388741
 21
82.384371
  0
LINE
  8
CSLAYER4
  6
CONTINUOUS
 62
     7
 10
127.388741
 20
82.384371
 11
129.215082
 21
77.994127
  0
LINE
  8
CSLAYER4
  6
CONTINUOUS
 62
     7
 10
129.215082
 20
77.994127
 11
128.056058
 21
77.994127
  0
LINE
  8
CSLAYER4
  6
CONTINUOUS
 62
     7
 10
128.056058
 20
77.994127
 11
126.791668
 21
81.295591
  0
LINE
  8
CSLAYER4
  6
CONTINUOUS
 62
     7
 10
126.791668
 20
81.295591
 11
126.335082
 21
80.558030
  0
LINE
  8
CSLAYER4
  6
CONTINUOUS
 62
     7
 10
126.335082
 20
77.994127
 11
126.335082
 21
80.558030
  0
LINE
  8
CSLAYER4
  6
CONTINUOUS
 62
     7
 10
126.335082
 20
77.994127
 11
125.351668
 21
77.994127
  0
LINE
  8
CSLAYER4
  6
CONTINUOUS
 62
     7
 10
125.351668
 20
85.194127
 11
125.351668
 21
77.994127
  0
LINE
  8
CSLAYER4
  6
CONTINUOUS
 62
     7
 10
125.351668
 20
85.194127
 11
126.335082
 21
85.194127
  0
LINE
  8
CSLAYER4
  6
CONTINUOUS
 62
     7
 10
126.335082
 20
82.489737
 11
126.335082
 21
85.194127
  0
LINE
  8
CSLAYER4
  6
CONTINUOUS
 62
     7
 10
126.335082
 20
82.489737
 11
127.845327
 21
85.194127
  0
LINE
  8
CSLAYER4
  6
CONTINUOUS
 62
     7
 10
127.845327
 20
85.194127
 11
129.039473
 21
85.194127
  0
LINE
  8
CSLAYER4
  6
CONTINUOUS
 62
     7
 10
133.710692
 20
81.014615
 11
133.710692
 21
81.998030
  0
LINE
  8
CSLAYER4
  6
CONTINUOUS
 62
     7
 10
133.710692
 20
81.014615
 11
129.741912
 21
81.014615
  0
LINE
  8
CSLAYER4
  6
CONTINUOUS
 62
     7
 10
129.741912
 20
81.998030
 11
129.741912
 21
81.014615
  0
LINE
  8
CSLAYER4
  6
CONTINUOUS
 62
     7
 10
129.741912
 20
81.998030
 11
133.710692
 21
81.998030
  0
LINE
  8
CSLAYER1
  6
CONTINUOUS
 62
     7
 10
99.678127
 20
87.388427
 11
99.678127
 21
94.609602
  0
LINE
  8
CSLAYER1
  6
CONTINUOUS
 62
     7
 10
99.678127
 20
94.609602
 11
100.716345
 21
94.609602
  0
LINE
  8
CSLAYER1
  6
CONTINUOUS
 62
     7
 10
99.678127
 20
87.388427
 11
100.345553
 21
87.388427
  0
LINE
  8
CSLAYER1
  6
CONTINUOUS
 62
     7
 10
102.051196
 20
87.388427
 11
102.746431
 21
87.388427
  0
LINE
  8
CSLAYER1
  6
CONTINUOUS
 62
     7
 10
104.442805
 20
87.388427
 11
105.082421
 21
87.388427
  0
LINE
  8
CSLAYER1
  6
CONTINUOUS
 62
     7
 10
100.345553
 20
87.388427
 11
100.345553
 21
93.330370
  0
LINE
  8
CSLAYER1
  6
CONTINUOUS
 62
     7
 10
105.082421
 20
87.388427
 11
105.082421
 21
94.609602
  0
LINE
  8
CSLAYER1
  6
CONTINUOUS
 62
     7
 10
104.442805
 20
87.388427
 11
104.442805
 21
93.330370
  0
LINE
  8
CSLAYER1
  6
CONTINUOUS
 62
     7
 10
100.345553
 20
93.330370
 11
100.401823
 21
93.330370
  0
LINE
  8
CSLAYER1
  6
CONTINUOUS
 62
     7
 10
100.401823
 20
93.330370
 11
102.051196
 21
87.388427
  0
LINE
  8
CSLAYER1
  6
CONTINUOUS
 62
     7
 10
104.442805
 20
93.330370
 11
104.393930
 21
93.330370
  0
LINE
  8
CSLAYER1
  6
CONTINUOUS
 62
     7
 10
102.746431
 20
87.388427
 11
104.393930
 21
93.330370
  0
LINE
  8
CSLAYER1
  6
CONTINUOUS
 62
     5
 10
102.368544
 20
88.735163
 11
102.431969
 21
88.735163
  0
LINE
  8
CSLAYER1
  6
CONTINUOUS
 62
     7
 10
105.082421
 20
94.609602
 11
104.106208
 21
94.609602
  0
LINE
  8
CSLAYER1
  6
CONTINUOUS
 62
     7
 10
100.716345
 20
94.609602
 11
102.368544
 21
88.735163
  0
LINE
  8
CSLAYER1
  6
CONTINUOUS
 62
     7
 10
102.431969
 20
88.735163
 11
104.106208
 21
94.609602
  0
LINE
  8
CSLAYER1
  6
CONTINUOUS
 62
     7
 10
111.922533
 20
94.609602
 11
111.922533
 21
87.388427
  0
LINE
  8
CSLAYER1
  6
CONTINUOUS
 62
     7
 10
111.922533
 20
87.388427
 11
115.748713
 21
87.388427
  0
LINE
  8
CSLAYER1
  6
CONTINUOUS
 62
     7
 10
115.748713
 20
87.388427
 11
115.748713
 21
88.318006
  0
LINE
  8
CSLAYER1
  6
CONTINUOUS
 62
     7
 10
115.748713
 20
88.318006
 11
112.556791
 21
88.318006
  0
LINE
  8
CSLAYER1
  6
CONTINUOUS
 62
     7
 10
112.556791
 20
88.318006
 11
112.556791
 21
94.609602
  0
LINE
  8
CSLAYER1
  6
CONTINUOUS
 62
     7
 10
111.922533
 20
94.609602
 11
112.556791
 21
94.609602
  0
LINE
  8
CSLAYER1
  6
CONTINUOUS
 62
     7
 10
117.750296
 20
94.609602
 11
117.750296
 21
87.388427
  0
LINE
  8
CSLAYER1
  6
CONTINUOUS
 62
     7
 10
117.750296
 20
94.609602
 11
121.774936
 21
94.609602
  0
LINE
  8
CSLAYER1
  6
CONTINUOUS
 62
     7
 10
121.774936
 20
94.609602
 11
121.774936
 21
93.653523
  0
LINE
  8
CSLAYER1
  6
CONTINUOUS
 62
     7
 10
121.774936
 20
93.653523
 11
118.404532
 21
93.653523
  0
LINE
  8
CSLAYER1
  6
CONTINUOUS
 62
     7
 10
118.404532
 20
93.653523
 11
118.404532
 21
91.644761
  0
LINE
  8
CSLAYER1
  6
CONTINUOUS
 62
     7
 10
118.404532
 20
91.644761
 11
121.441241
 21
91.644761
  0
LINE
  8
CSLAYER1
  6
CONTINUOUS
 62
     7
 10
121.441241
 20
91.644761
 11
121.441241
 21
90.707763
  0
LINE
  8
CSLAYER1
  6
CONTINUOUS
 62
     7
 10
121.441241
 20
90.707763
 11
118.404532
 21
90.707763
  0
LINE
  8
CSLAYER1
  6
CONTINUOUS
 62
     7
 10
118.404532
 20
90.707763
 11
118.404532
 21
88.309650
  0
LINE
  8
CSLAYER1
  6
CONTINUOUS
 62
     7
 10
118.404532
 20
88.309650
 11
121.774936
 21
88.309650
  0
LINE
  8
CSLAYER1
  6
CONTINUOUS
 62
     7
 10
117.750296
 20
87.388427
 11
121.774936
 21
87.388427
  0
LINE
  8
CSLAYER1
  6
CONTINUOUS
 62
     7
 10
123.830902
 20
94.609602
 11
123.830902
 21
87.388427
  0
LINE
  8
CSLAYER1
  6
CONTINUOUS
 62
     7
 10
123.830902
 20
87.388427
 11
124.508930
 21
87.388427
  0
LINE
  8
CSLAYER1
  6
CONTINUOUS
 62
     7
 10
124.508930
 20
87.388427
 11
124.508930
 21
93.131543
  0
LINE
  8
CSLAYER1
  6
CONTINUOUS
 62
     7
 10
123.830902
 20
94.609602
 11
124.552466
 21
94.609602
  0
LINE
  8
CSLAYER1
  6
CONTINUOUS
 62
     7
 10
127.400424
 20
94.609602
 11
128.078855
 21
94.609602
  0
LINE
  8
CSLAYER1
  6
CONTINUOUS
 62
     7
 10
127.400424
 20
88.850535
 11
127.400424
 21
94.609602
  0
LINE
  8
CSLAYER1
  6
CONTINUOUS
 62
     7
 10
128.078855
 20
94.609602
 11
128.078855
 21
87.388427
  0
LINE
  8
CSLAYER1
  6
CONTINUOUS
 62
     7
 10
128.078855
 20
87.388427
 11
127.350766
 21
87.388427
  0
LINE
  8
CSLAYER1
  6
CONTINUOUS
 62
     7
 10
127.400424
 20
88.850535
 11
127.346940
 21
88.850535
  0
LINE
  8
CSLAYER1
  6
CONTINUOUS
 62
     7
 10
124.508930
 20
93.131543
 11
124.573582
 21
93.131543
  0
LINE
  8
CSLAYER1
  6
CONTINUOUS
 62
     7
 10
124.573582
 20
93.131543
 11
127.350766
 21
87.388427
  0
LINE
  8
CSLAYER1
  6
CONTINUOUS
 62
     7
 10
127.346940
 20
88.850535
 11
124.552466
 21
94.609602
  0
LINE
  8
CSLAYER1
  6
CONTINUOUS
 62
     7
 10
135.402005
 20
94.609602
 11
135.402005
 21
87.388427
  0
LINE
  8
CSLAYER1
  6
CONTINUOUS
 62
     7
 10
135.402005
 20
94.609602
 11
136.100149
 21
94.609602
  0
LINE
  8
CSLAYER1
  6
CONTINUOUS
 62
     7
 10
135.402005
 20
87.388427
 11
136.118767
 21
87.388427
  0
LINE
  8
CSLAYER1
  6
CONTINUOUS
 62
     7
 10
136.118767
 20
87.388427
 11
136.118767
 21
89.828231
  0
LINE
  8
CSLAYER1
  6
CONTINUOUS
 62
     7
 10
136.100149
 20
94.609602
 11
136.100149
 21
91.038348
  0
LINE
  8
CSLAYER1
  6
CONTINUOUS
 62
     7
 10
138.855493
 20
94.609602
 11
139.789140
 21
94.609602
  0
LINE
  8
CSLAYER1
  6
CONTINUOUS
 62
     7
 10
139.116135
 20
87.388427
 11
140.140080
 21
87.388427
  0
LINE
  8
CSLAYER1
  6
CONTINUOUS
 62
     7
 10
138.855493
 20
94.609602
 11
136.100149
 21
91.038348
  0
LINE
  8
CSLAYER1
  6
CONTINUOUS
 62
     7
 10
139.789140
 20
94.609602
 11
137.653822
 21
91.841975
  0
LINE
  8
CSLAYER1
  6
CONTINUOUS
 62
     7
 10
140.140080
 20
87.388427
 11
137.653822
 21
91.841975
  0
LINE
  8
CSLAYER1
  6
CONTINUOUS
 62
     7
 10
139.116135
 20
87.388427
 11
137.124805
 21
91.156307
  0
LINE
  8
CSLAYER1
  6
CONTINUOUS
 62
     7
 10
137.124805
 20
91.156307
 11
136.100149
 21
89.828231
  0
LINE
  8
CSLAYER1
  6
CONTINUOUS
 62
     7
 10
141.001905
 20
94.609602
 11
141.829195
 21
94.609602
  0
LINE
  8
CSLAYER1
  6
CONTINUOUS
 62
     7
 10
144.690243
 20
94.609602
 11
145.534769
 21
94.609602
  0
LINE
  8
CSLAYER1
  6
CONTINUOUS
 62
     7
 10
142.915015
 20
87.388427
 11
143.604424
 21
87.388427
  0
LINE
  8
CSLAYER1
  6
CONTINUOUS
 62
     7
 10
142.915015
 20
87.388427
 11
142.915015
 21
90.418551
  0
LINE
  8
CSLAYER1
  6
CONTINUOUS
 62
     7
 10
143.604424
 20
87.388427
 11
143.604424
 21
90.418551
  0
LINE
  8
CSLAYER1
  6
CONTINUOUS
 62
     7
 10
142.915015
 20
90.418551
 11
141.001905
 21
94.609602
  0
LINE
  8
CSLAYER1
  6
CONTINUOUS
 62
     7
 10
143.604424
 20
90.418551
 11
145.534769
 21
94.609602
  0
LINE
  8
CSLAYER1
  6
CONTINUOUS
 62
     7
 10
143.237877
 20
91.241399
 11
143.306896
 21
91.241399
  0
LINE
  8
CSLAYER1
  6
CONTINUOUS
 62
     7
 10
143.106526
 20
91.239673
 11
141.829195
 21
94.609602
  0
LINE
  8
CSLAYER1
  6
CONTINUOUS
 62
     7
 10
143.306896
 20
91.241399
 11
144.690243
 21
94.609602
  0
LINE
  8
CSLAYER1
  6
CONTINUOUS
 62
     7
 10
121.774936
 20
88.309650
 11
121.774936
 21
87.388427
  0
INSERT
  8
CSLAYER1
  2
BLKF0003
 10
0.0
 20
0.0
 30
0.0
  0
INSERT
  8
CSLAYER1
  2
BLKF0004
 10
0.0
 20
0.0
 30
0.0
  0
INSERT
  8
CSLAYER1
  2
BLKF0005
 10
0.0
 20
0.0
 30
0.0
  0
LINE
  8
CSLAYER1
  6
CONTINUOUS
 62
     7
 10
99.678127
 20
78.418474
 11
99.678127
 21
85.639649
  0
LINE
  8
CSLAYER1
  6
CONTINUOUS
 62
     7
 10
99.678127
 20
85.639649
 11
100.716345
 21
85.639649
  0
LINE
  8
CSLAYER1
  6
CONTINUOUS
 62
     7
 10
99.678127
 20
78.418474
 11
100.345553
 21
78.418474
  0
LINE
  8
CSLAYER1
  6
CONTINUOUS
 62
     7
 10
102.051196
 20
78.418474
 11
102.746431
 21
78.418474
  0
LINE
  8
CSLAYER1
  6
CONTINUOUS
 62
     7
 10
104.442805
 20
78.418474
 11
105.082421
 21
78.418474
  0
LINE
  8
CSLAYER1
  6
CONTINUOUS
 62
     7
 10
100.345553
 20
78.418474
 11
100.345553
 21
84.360417
  0
LINE
  8
CSLAYER1
  6
CONTINUOUS
 62
     7
 10
105.082421
 20
78.418474
 11
105.082421
 21
85.639649
  0
LINE
  8
CSLAYER1
  6
CONTINUOUS
 62
     7
 10
104.442805
 20
78.418474
 11
104.442805
 21
84.360417
  0
LINE
  8
CSLAYER1
  6
CONTINUOUS
 62
     7
 10
100.345553
 20
84.360417
 11
100.401823
 21
84.360417
  0
LINE
  8
CSLAYER1
  6
CONTINUOUS
 62
     7
 10
100.401823
 20
84.360417
 11
102.051196
 21
78.418474
  0
LINE
  8
CSLAYER1
  6
CONTINUOUS
 62
     7
 10
104.442805
 20
84.360417
 11
104.393930
 21
84.360417
  0
LINE
  8
CSLAYER1
  6
CONTINUOUS
 62
     7
 10
102.746431
 20
78.418474
 11
104.393930
 21
84.360417
  0
LINE
  8
CSLAYER1
  6
CONTINUOUS
 62
     7
 10
105.082421
 20
85.639649
 11
104.106208
 21
85.639649
  0
LINE
  8
CSLAYER1
  6
CONTINUOUS
 62
     7
 10
100.716345
 20
85.639649
 11
102.368544
 21
79.765210
  0
LINE
  8
CSLAYER1
  6
CONTINUOUS
 62
     7
 10
102.431969
 20
79.765210
 11
104.106208
 21
85.639649
  0
INSERT
  8
CSLAYER1
  2
BLKF0006
 10
0.0
 20
0.0
 30
0.0
  0
INSERT
  8
CSLAYER1
  2
BLKF0007
 10
0.0
 20
0.0
 30
0.0
  0
LINE
  8
CSLAYER1
  6
CONTINUOUS
 62
     7
 10
110.990120
 20
83.842023
 11
112.574323
 21
83.842023
  0
LINE
  8
CSLAYER1
  6
CONTINUOUS
 62
     7
 10
110.990120
 20
83.842023
 11
110.990120
 21
79.974283
  0
LINE
  8
CSLAYER1
  6
CONTINUOUS
 62
     7
 10
110.990120
 20
79.974283
 11
111.339786
 21
79.974283
  0
LINE
  8
CSLAYER1
  6
CONTINUOUS
 62
     7
 10
111.339786
 20
79.974283
 11
111.339786
 21
81.508534
  0
LINE
  8
CSLAYER1
  6
CONTINUOUS
 62
     7
 10
111.339786
 20
81.508534
 11
112.203249
 21
81.508534
  0
LINE
  8
CSLAYER1
  6
CONTINUOUS
 62
     7
 10
112.973943
 20
79.974283
 11
113.487738
 21
79.974283
  0
LINE
  8
CSLAYER1
  6
CONTINUOUS
 62
     7
 10
111.339786
 20
82.008057
 11
111.339786
 21
83.349635
  0
LINE
  8
CSLAYER1
  6
CONTINUOUS
 62
     7
 10
111.339786
 20
83.349635
 11
112.460146
 21
83.349635
  0
LINE
  8
CSLAYER1
  6
CONTINUOUS
 62
     7
 10
111.339786
 20
82.008057
 11
112.517235
 21
82.008057
  0
LINE
  8
CSLAYER1
  6
CONTINUOUS
 62
     7
 10
112.973943
 20
79.974283
 11
112.203249
 21
81.508534
  0
ARC
  8
CSLAYER1
  6
CONTINUOUS
 62
     7
 10
112.435327
 20
83.000699
 40
0.852728
 50
16.813305
 51
80.618849
  0
ARC
  8
CSLAYER1
  6
CONTINUOUS
 62
     7
 10
111.582610
 20
82.700890
 40
1.756178
 50
-24.514508
 51
18.129563
  0
ARC
  8
CSLAYER1
  6
CONTINUOUS
 62
     7
 10
112.479870
 20
82.294133
 40
0.771040
 50
280.212276
 51
336.078889
  0
ARC
  8
CSLAYER1
  6
CONTINUOUS
 62
     7
 10
112.457932
 20
82.879650
 40
0.457636
 50
7.898580
 51
53.559298
  0
ARC
  8
CSLAYER1
  6
CONTINUOUS
 62
     7
 10
111.901105
 20
82.697404
 40
1.039441
 50
-25.395544
 51
13.640759
  0
ARC
  8
CSLAYER1
  6
CONTINUOUS
 62
     7
 10
112.443631
 20
82.441403
 40
0.439552
 50
279.639685
 51
334.420970
  0
LINE
  8
CSLAYER1
  6
CONTINUOUS
 62
     7
 10
112.616572
 20
81.535308
 11
113.487738
 21
79.974283
  0
ARC
  8
CSLAYER1
  6
CONTINUOUS
 62
     7
 10
112.444743
 20
82.900998
 40
0.448901
 50
50.585215
 51
88.033532
  0
LINE
  8
CSLAYER1
  6
CONTINUOUS
 62
     7
 10
118.091666
 20
77.994127
 11
118.991666
 21
77.994127
  0
LINE
  8
CSLAYER1
  6
CONTINUOUS
 62
     7
 10
118.091666
 20
85.194127
 11
118.991666
 21
85.194127
  0
LINE
  8
CSLAYER1
  6
CONTINUOUS
 62
     7
 10
118.091666
 20
83.941954
 11
118.091666
 21
77.994127
  0
LINE
  8
CSLAYER1
  6
CONTINUOUS
 62
     7
 10
121.626211
 20
85.194127
 11
122.717122
 21
85.194127
  0
LINE
  8
CSLAYER1
  6
CONTINUOUS
 62
     7
 10
117.778622
 20
83.941954
 11
118.091666
 21
83.941954
  0
LINE
  8
CSLAYER1
  6
CONTINUOUS
 62
     7
 10
118.091666
 20
85.194127
 11
117.778622
 21
83.941954
  0
LINE
  8
CSLAYER1
  6
CONTINUOUS
 62
     7
 10
120.071666
 20
83.628910
 11
120.071666
 21
79.559344
  0
LINE
  8
CSLAYER1
  6
CONTINUOUS
 62
     7
 10
120.971666
 20
83.639582
 11
120.971666
 21
79.559344
  0
LINE
  8
CSLAYER1
  6
CONTINUOUS
 62
     7
 10
121.626211
 20
84.294127
 11
122.717122
 21
84.294127
  0
ARC
  8
CSLAYER1
  6
CONTINUOUS
 62
     7
 10
121.626211
 20
83.639582
 40
0.654545
 50
90.000000
 51
180.000000
  0
ARC
  8
CSLAYER1
  6
CONTINUOUS
 62
     7
 10
121.626211
 20
83.639582
 40
1.554545
 50
90.000000
 51
180.000000
  0
ARC
  8
CSLAYER1
  6
CONTINUOUS
 62
     7
 10
121.626211
 20
79.548673
 40
0.654545
 50
180.000000
 51
270.000000
  0
ARC
  8
CSLAYER1
  6
CONTINUOUS
 62
     7
 10
121.626211
 20
79.548673
 40
1.554545
 50
180.000000
 51
270.000000
  0
LINE
  8
CSLAYER1
  6
CONTINUOUS
 62
     7
 10
124.271668
 20
83.628910
 11
124.271668
 21
79.559344
  0
LINE
  8
CSLAYER1
  6
CONTINUOUS
 62
     7
 10
123.371668
 20
83.639582
 11
123.371668
 21
79.559344
  0
ARC
  8
CSLAYER1
  6
CONTINUOUS
 62
     7
 10
122.717122
 20
83.639582
 40
0.654545
 50
0.000000
 51
90.000000
  0
ARC
  8
CSLAYER1
  6
CONTINUOUS
 62
     7
 10
122.717122
 20
83.639582
 40
1.554545
 50
0.000000
 51
90.000000
  0
ARC
  8
CSLAYER1
  6
CONTINUOUS
 62
     7
 10
122.717122
 20
79.548673
 40
0.654545
 50
270.000000
 51
360.000000
  0
ARC
  8
CSLAYER1
  6
CONTINUOUS
 62
     7
 10
122.717122
 20
79.548673
 40
1.554545
 50
270.000000
 51
360.000000
  0
LINE
  8
CSLAYER1
  6
CONTINUOUS
 62
     7
 10
121.626211
 20
78.894127
 11
122.717122
 21
78.894127
  0
LINE
  8
CSLAYER1
  6
CONTINUOUS
 62
     7
 10
121.626211
 20
77.994127
 11
122.717122
 21
77.994127
  0
LINE
  8
CSLAYER1
  6
CONTINUOUS
 62
     7
 10
118.991666
 20
85.194127
 11
118.991666
 21
77.994127
  0
LINE
  8
CSLAYER1
  6
CONTINUOUS
 62
     7
 10
142.008035
 20
85.147864
 11
142.451515
 21
85.147864
  0
LINE
  8
CSLAYER1
  6
CONTINUOUS
 62
     7
 10
142.008035
 20
84.247864
 11
142.451515
 21
84.247864
  0
LINE
  8
CSLAYER1
  6
CONTINUOUS
 62
     7
 10
136.728033
 20
77.947864
 11
137.171513
 21
77.947864
  0
LINE
  8
CSLAYER1
  6
CONTINUOUS
 62
     7
 10
136.728033
 20
78.847864
 11
137.171513
 21
78.847864
  0
LINE
  8
CSLAYER1
  6
CONTINUOUS
 62
     7
 10
136.728033
 20
85.147864
 11
137.171513
 21
85.147864
  0
LINE
  8
CSLAYER1
  6
CONTINUOUS
 62
     7
 10
134.849772
 20
83.269604
 11
135.749772
 21
83.269604
  0
ARC
  8
CSLAYER1
  6
CONTINUOUS
 62
     7
 10
136.728033
 20
83.269604
 40
1.878261
 50
90.000000
 51
180.000000
  0
LINE
  8
CSLAYER1
  6
CONTINUOUS
 62
     7
 10
136.728033
 20
84.247864
 11
137.171513
 21
84.247864
  0
LINE
  8
CSLAYER1
  6
CONTINUOUS
 62
     7
 10
140.188385
 20
85.141591
 11
140.188385
 21
81.072026
  0
LINE
  8
CSLAYER1
  6
CONTINUOUS
 62
     7
 10
140.188385
 20
85.141591
 11
144.388388
 21
85.141591
  0
LINE
  8
CSLAYER1
  6
CONTINUOUS
 62
     7
 10
142.066646
 20
77.941591
 11
142.510127
 21
77.941591
  0
LINE
  8
CSLAYER1
  6
CONTINUOUS
 62
     7
 10
142.066646
 20
82.950287
 11
142.510127
 21
82.950287
  0
LINE
  8
CSLAYER1
  6
CONTINUOUS
 62
     7
 10
140.188385
 20
81.072026
 11
141.088385
 21
81.072026
  0
LINE
  8
CSLAYER1
  6
CONTINUOUS
 62
     7
 10
140.188385
 20
79.819852
 11
141.088385
 21
79.819852
  0
LINE
  8
CSLAYER1
  6
CONTINUOUS
 62
     7
 10
144.388388
 20
81.072026
 11
144.388388
 21
79.819852
  0
ARC
  8
CSLAYER1
  6
CONTINUOUS
 62
     7
 10
142.066646
 20
79.819852
 40
1.878261
 50
180.000000
 51
270.000000
  0
ARC
  8
CSLAYER1
  6
CONTINUOUS
 62
     7
 10
142.510127
 20
79.819852
 40
1.878261
 50
270.000000
 51
360.000000
  0
ARC
  8
CSLAYER1
  6
CONTINUOUS
 62
     7
 10
142.510127
 20
81.072026
 40
1.878261
 50
0.000000
 51
90.000000
  0
ARC
  8
CSLAYER1
  6
CONTINUOUS
 62
     7
 10
142.066646
 20
81.072026
 40
1.878261
 50
90.000000
 51
121.388166
  0
LINE
  8
CSLAYER1
  6
CONTINUOUS
 62
     7
 10
141.088385
 20
84.241591
 11
144.388388
 21
84.241591
  0
LINE
  8
CSLAYER1
  6
CONTINUOUS
 62
     7
 10
144.388388
 20
85.141591
 11
144.388388
 21
84.241591
  0
LINE
  8
CSLAYER1
  6
CONTINUOUS
 62
     7
 10
141.088385
 20
84.241591
 11
141.088385
 21
82.675419
  0
ARC
  8
CSLAYER1
  6
CONTINUOUS
 62
     7
 10
142.066646
 20
79.819852
 40
0.978261
 50
180.000000
 51
270.000000
  0
LINE
  8
CSLAYER1
  6
CONTINUOUS
 62
     7
 10
142.066646
 20
78.841591
 11
142.510127
 21
78.841591
  0
ARC
  8
CSLAYER1
  6
CONTINUOUS
 62
     7
 10
142.510127
 20
79.819852
 40
0.979570
 50
270.000000
 51
360.000000
  0
LINE
  8
CSLAYER1
  6
CONTINUOUS
 62
     7
 10
143.488388
 20
81.072026
 11
143.488388
 21
79.819852
  0
ARC
  8
CSLAYER1
  6
CONTINUOUS
 62
     7
 10
142.510127
 20
81.072026
 40
0.978261
 50
0.000000
 51
90.000000
  0
LINE
  8
CSLAYER1
  6
CONTINUOUS
 62
     7
 10
142.066646
 20
82.050287
 11
142.510127
 21
82.050287
  0
ARC
  8
CSLAYER1
  6
CONTINUOUS
 62
     7
 10
142.066646
 20
81.072026
 40
0.978261
 50
90.000000
 51
180.000000
  0
LINE
  8
CSLAYER1
  6
CONTINUOUS
 62
     7
 10
134.908383
 20
77.941591
 11
134.908383
 21
79.741591
  0
LINE
  8
CSLAYER1
  6
CONTINUOUS
 62
     7
 10
134.908383
 20
77.941591
 11
139.108385
 21
77.941591
  0
LINE
  8
CSLAYER1
  6
CONTINUOUS
 62
     7
 10
136.786644
 20
85.141591
 11
137.230125
 21
85.141591
  0
LINE
  8
CSLAYER1
  6
CONTINUOUS
 62
     7
 10
134.908383
 20
83.263330
 11
135.808383
 21
83.263330
  0
LINE
  8
CSLAYER1
  6
CONTINUOUS
 62
     7
 10
139.108385
 20
82.598112
 11
139.108385
 21
83.263330
  0
ARC
  8
CSLAYER1
  6
CONTINUOUS
 62
     7
 10
137.230125
 20
83.263330
 40
1.878261
 50
0.000000
 51
90.000000
  0
LINE
  8
CSLAYER1
  6
CONTINUOUS
 62
     7
 10
135.808383
 20
78.841591
 11
139.108385
 21
78.841591
  0
LINE
  8
CSLAYER1
  6
CONTINUOUS
 62
     7
 10
139.108385
 20
77.941591
 11
139.108385
 21
78.841591
  0
ARC
  8
CSLAYER1
  6
CONTINUOUS
 62
     7
 10
136.786644
 20
83.263330
 40
0.978261
 50
90.000000
 51
180.000000
  0
LINE
  8
CSLAYER1
  6
CONTINUOUS
 62
     7
 10
136.786644
 20
84.241591
 11
137.230125
 21
84.241591
  0
ARC
  8
CSLAYER1
  6
CONTINUOUS
 62
     7
 10
137.230125
 20
83.263330
 40
0.979570
 50
0.000000
 51
90.000000
  0
LINE
  8
CSLAYER1
  6
CONTINUOUS
 62
     7
 10
138.208385
 20
82.598112
 11
138.208385
 21
83.263330
  0
ARC
  8
CSLAYER1
  6
CONTINUOUS
 62
     7
 10
137.230125
 20
82.598112
 40
0.978261
 50
270.000000
 51
360.000000
  0
LINE
  8
CSLAYER1
  6
CONTINUOUS
 62
     7
 10
136.786644
 20
81.619852
 11
137.230125
 21
81.619852
  0
ARC
  8
CSLAYER1
  6
CONTINUOUS
 62
     7
 10
136.786644
 20
79.741591
 40
1.878261
 50
90.000000
 51
180.000000
  0
ARC
  8
CSLAYER1
  6
CONTINUOUS
 62
     7
 10
136.786644
 20
79.741591
 40
0.978261
 50
90.000000
 51
180.000000
  0
LINE
  8
CSLAYER1
  6
CONTINUOUS
 62
     7
 10
136.786644
 20
80.719852
 11
137.230125
 21
80.719852
  0
LINE
  8
CSLAYER1
  6
CONTINUOUS
 62
     7
 10
135.808383
 20
78.841591
 11
135.808383
 21
79.741591
  0
ARC
  8
CSLAYER1
  6
CONTINUOUS
 62
     7
 10
137.230125
 20
82.598112
 40
1.878261
 50
270.000000
 51
360.000000
  0
ENDSEC
  0
EOF
