  0
SECTION
  2
HEADER
  9
$ACADVER
  1
AC1006
  9
$INSBASE
 10
0.000000
 20
0.000000
 30
0.0
  9
$EXTMIN
 10
0.000000
 20
0.000000
  9
$EXTMAX
 10
988.599997
 20
917.951782
  9
$LIMMIN
 10
0.000000
 20
0.000000
  9
$LIMMAX
 10
988.599997
 20
917.951782
  9
$VIEWCTR
 10
494.299999
 20
458.975891
  9
$VIEWSIZE
 40
917.951782
  9
$SNAPMODE
 70
     0
  9
$SNAPUNIT
 10
1.0
 20
1.0
  9
$SNAPBASE
 10
0.0
 20
0.0
  9
$SNAPANG
 50
0.0
  9
$SNAPSTYLE
 70
     0
  9
$SNAPISOPAIR
 70
     0
  9
$GRIDMODE
 70
     0
  9
$GRIDUNIT
 10
0.0
 20
0.0
  9
$ORTHOMODE
 70
     0
  9
$REGENMODE
 70
     1
  9
$FILLMODE
 70
     1
  9
$QTEXTMODE
 70
     0
  9
$DRAGMODE
 70
     2
  9
$LTSCALE
 40
15.000000
  9
$OSMODE
 70
     0
  9
$ATTMODE
 70
     1
  9
$TEXTSIZE
 40
0.2
  9
$TRACEWID
 40
0.05
  9
$TEXTSTYLE
  7
STANDARD
  9
$CLAYER
  8
CSLAYER1
  9
$CELTYPE
  6
BYLAYER
  9
$CECOLOR
 62
   256
  9
$DIMSCALE
 40
1.0
  9
$DIMASZ
 40
0.18
  9
$DIMEXO
 40
0.0625
  9
$DIMDLI
 40
0.38
  9
$DIMRND
 40
0.0
  9
$DIMDLE
 40
0.0
  9
$DIMEXE
 40
0.18
  9
$DIMTP
 40
0.0
  9
$DIMTM
 40
0.0
  9
$DIMTXT
 40
0.18
  9
$DIMCEN
 40
0.09
  9
$DIMTSZ
 40
0.0
  9
$DIMTOL
 70
     0
  9
$DIMLIM
 70
     0
  9
$DIMTIH
 70
     1
  9
$DIMTOH
 70
     1
  9
$DIMSE1
 70
     0
  9
$DIMSE2
 70
     0
  9
$DIMTAD
 70
     0
  9
$DIMZIN
 70
     0
  9
$DIMBLK
  1

  9
$LUNITS
 70
     2
  9
$LUPREC
 70
     4
  9
$AXISMODE
 70
     0
  9
$AXISUNIT
 10
0.0
 20
0.0
  9
$SKETCHINC
 40
0.1
  9
$FILLETRAD
 40
0.0
  9
$AUNITS
 70
     0
  9
$AUPREC
 70
     0
  9
$MENU
  1
ACAD
  9
$ELEVATION
 40
0.0
  9
$THICKNESS
 40
0.0
  9
$VIEWDIR
 10
0.0
 20
0.0
 30
1.0
  9
$LIMCHECK
 70
     0
  9
$BLIPMODE
 70
     1
  9
$CHAMFERA
 40
0.0
  9
$CHAMFERB
 40
0.0
  9
$FASTZOOM
 70
     1
  9
$SKPOLY
 70
     0
  9
$TDCREATE
 40
2456637.000000
  9
$TDUPDATE
 40
2456637.000000
  9
$TDINDWG
 40
0.0
  9
$TDUSRTIMER
 40
0.0
  9
$USRTIMER
 70
     1
  9
$ANGBASE
 50
0.0
  9
$ANGDIR
 70
     0
  9
$PDMODE
 70
     0
  9
$PDSIZE
 40
0.0
  9
$PLINEWID
 40
0.0
  9
$COORDS
 70
     0
  9
$USERI1
 70
     0
  9
$USERI2
 70
     0
  9
$USERI3
 70
     0
  9
$USERI4
 70
     0
  9
$USERI5
 70
     0
  9
$USERR1
 40
0.0
  9
$USERR2
 40
0.0
  9
$USERR3
 40
0.0
  9
$USERR4
 40
0.0
  9
$USERR5
 40
0.0
  0
ENDSEC
  0
SECTION
  2
TABLES
  0
TABLE
  2
LTYPE
 70
     9
  0
LTYPE
  2
CONTINUOUS
 70
    64
  3
Solid line
 72
    65
 73
     0
 40
0.0
  0
LTYPE
  2
DASHED
 70
    64
  3
__ __ __ __ __ __ __ __ __ __ __ __ __ __ __
 72
    65
 73
     2
 40
0.75
 49
0.5
 49
-0.25
  0
LTYPE
  2
HIDDEN
 70
    64
  3
_ _ _ _ _ _ _ _ _ _ _ _ _ _ _ _ _ _ _ _ _ _ _
 72
    65
 73
     2
 40
0.375
 49
0.25
 49
-0.125
  0
LTYPE
  2
DOT
 70
    64
  3
...............................................
 72
    65
 73
     2
 40
0.25
 49
0.0
 49
-0.25
  0
LTYPE
  2
DASHDOT
 70
    64
  3
__ . __ . __ . __ . __ . __ . __ . __ . __ . __
 72
    65
 73
     4
 40
1.0
 49
0.5
 49
-0.25
 49
0.0
 49
-0.25
  0
LTYPE
  2
DIVIDE
 70
    64
  3
__ . . __ . . __ . . __ . . __ . . __ . . __
 72
    65
 73
     6
 40
1.25
 49
0.5
 49
-0.25
 49
0.0
 49
-0.25
 49
0.0
 49
-0.25
  0
LTYPE
  2
CENTER
 70
    64
  3
____ _ ____ _ ____ _ ____ _ ____ _ ____ _ ____ 
 72
    65
 73
     4
 40
2.0
 49
1.25
 49
-0.25
 49
0.25
 49
-0.25
  0
LTYPE
  2
PHANTOM
 70
    64
  3
______  __  __  ______  __  __  ______  __  __ 
 72
    65
 73
     6
 40
2.5
 49
1.25
 49
-0.25
 49
0.25
 49
-0.25
 49
0.25
 49
-0.25
  0
LTYPE
  2
BORDER
 70
    64
  3
__ __ . __ __ . __ __ . __ __ . __ __ . __ __ .
 72
    65
 73
     6
 40
1.75
 49
0.5
 49
-0.25
 49
0.5
 49
-0.25
 49
0.0
 49
-0.25
  0
ENDTAB
  0
TABLE
  2
LAYER
 70
    16
  0
LAYER
  2
CSLAYER1
 70
    64
 62
     7
  6
CONTINUOUS
  0
LAYER
  2
CSLAYER2
 70
    64
 62
     7
  6
CONTINUOUS
  0
LAYER
  2
CSLAYER3
 70
    64
 62
     7
  6
CONTINUOUS
  0
LAYER
  2
CSLAYER4
 70
    64
 62
     7
  6
CONTINUOUS
  0
LAYER
  2
CSLAYER5
 70
    64
 62
     7
  6
CONTINUOUS
  0
LAYER
  2
CSLAYER6
 70
    64
 62
     7
  6
CONTINUOUS
  0
LAYER
  2
CSLAYER7
 70
    64
 62
     7
  6
CONTINUOUS
  0
LAYER
  2
CSLAYER8
 70
    64
 62
     7
  6
CONTINUOUS
  0
LAYER
  2
CSLAYER9
 70
    64
 62
     7
  6
CONTINUOUS
  0
LAYER
  2
CSLAYER10
 70
    64
 62
     7
  6
CONTINUOUS
  0
LAYER
  2
CSLAYER11
 70
    64
 62
     7
  6
CONTINUOUS
  0
LAYER
  2
CSLAYER12
 70
    64
 62
     7
  6
CONTINUOUS
  0
LAYER
  2
CSLAYER13
 70
    64
 62
     7
  6
CONTINUOUS
  0
LAYER
  2
CSLAYER14
 70
    64
 62
     7
  6
CONTINUOUS
  0
LAYER
  2
CSLAYER15
 70
    64
 62
     7
  6
CONTINUOUS
  0
LAYER
  2
CSLAYER16
 70
    64
 62
     7
  6
CONTINUOUS
  0
ENDTAB
  0
TABLE
  2
STYLE
 70
     1
  0
STYLE
  2
EASYDRAW_FONT
 70
     0
 40
1.0
 41
1.0
 50
0.0
 71
     0
 42
1.0
  3
monotxt
  4
bigfont
  0
ENDTAB
  0
TABLE
  2
VIEW
 70
     0
  0
ENDTAB
  0
ENDSEC
  0
SECTION
  2
BLOCKS
  0
BLOCK
  8
CSLAYER1
  2
BLKF0000
 70
   64
 10
0.0
 20
0.0
 30
0.0
  0
LINE
  8
CSLAYER1
  6
CONTINUOUS
 62
     7
 10
856.799997
 20
41.000000
 11
968.599997
 21
41.000000
  0
LINE
  8
CSLAYER1
  6
CONTINUOUS
 62
     7
 10
948.599997
 20
249.000000
 11
968.599997
 21
249.000000
  0
LINE
  8
CSLAYER1
  6
CONTINUOUS
 62
     7
 10
967.599997
 20
41.000000
 11
967.599997
 21
249.000000
  0
LINE
  8
CSLAYER1
  6
CONTINUOUS
 62
     7
 10
967.599997
 20
41.000000
 11
966.823540
 21
43.897778
  0
LINE
  8
CSLAYER1
  6
CONTINUOUS
 62
     7
 10
967.599997
 20
41.000000
 11
968.376454
 21
43.897778
  0
LINE
  8
CSLAYER1
  6
CONTINUOUS
 62
     7
 10
967.599997
 20
249.000000
 11
966.823540
 21
246.102223
  0
LINE
  8
CSLAYER1
  6
CONTINUOUS
 62
     7
 10
967.599997
 20
249.000000
 11
968.376454
 21
246.102223
  0
TEXT
  8
CSLAYER1
 62
     7
 10
966.599976
 20
140.499954
 40
4.000000
 41
0.843750
  1
208
 50
90.000000
 51
0.000000
  7
EASYDRAW_FONT
 72
     5
 11
966.599976
 21
149.499954
  0
ENDBLK
  8
0
  0
BLOCK
  8
CSLAYER1
  2
BLKF0001
 70
   64
 10
0.0
 20
0.0
 30
0.0
  0
LINE
  8
CSLAYER1
  6
CONTINUOUS
 62
     7
 10
856.799997
 20
457.000000
 11
968.599997
 21
457.000000
  0
LINE
  8
CSLAYER1
  6
CONTINUOUS
 62
     7
 10
967.599997
 20
249.000000
 11
967.599997
 21
457.000000
  0
LINE
  8
CSLAYER1
  6
CONTINUOUS
 62
     7
 10
967.599997
 20
249.000000
 11
966.823540
 21
251.897778
  0
LINE
  8
CSLAYER1
  6
CONTINUOUS
 62
     7
 10
967.599997
 20
249.000000
 11
968.376454
 21
251.897778
  0
LINE
  8
CSLAYER1
  6
CONTINUOUS
 62
     7
 10
967.599997
 20
457.000000
 11
966.823540
 21
454.102223
  0
LINE
  8
CSLAYER1
  6
CONTINUOUS
 62
     7
 10
967.599997
 20
457.000000
 11
968.376454
 21
454.102223
  0
TEXT
  8
CSLAYER1
 62
     7
 10
966.599976
 20
348.499939
 40
4.000000
 41
0.843750
  1
208
 50
90.000000
 51
0.000000
  7
EASYDRAW_FONT
 72
     5
 11
966.599976
 21
357.499939
  0
ENDBLK
  8
0
  0
BLOCK
  8
CSLAYER1
  2
BLKF0002
 70
   64
 10
0.0
 20
0.0
 30
0.0
  0
LINE
  8
CSLAYER1
  6
CONTINUOUS
 62
     7
 10
692.799997
 20
35.000000
 11
692.799997
 21
20.000000
  0
LINE
  8
CSLAYER1
  6
CONTINUOUS
 62
     7
 10
942.599997
 20
248.000000
 11
942.599997
 21
20.000000
  0
LINE
  8
CSLAYER1
  6
CONTINUOUS
 62
     7
 10
692.799997
 20
21.000000
 11
942.599997
 21
21.000000
  0
LINE
  8
CSLAYER1
  6
CONTINUOUS
 62
     7
 10
692.799997
 20
21.000000
 11
695.697775
 21
21.776458
  0
LINE
  8
CSLAYER1
  6
CONTINUOUS
 62
     7
 10
692.799997
 20
21.000000
 11
695.697775
 21
20.223543
  0
LINE
  8
CSLAYER1
  6
CONTINUOUS
 62
     7
 10
942.599997
 20
21.000000
 11
939.702220
 21
21.776458
  0
LINE
  8
CSLAYER1
  6
CONTINUOUS
 62
     7
 10
942.599997
 20
21.000000
 11
939.702220
 21
20.223543
  0
TEXT
  8
CSLAYER1
 62
     7
 10
813.199951
 20
22.000004
 40
4.000000
 41
0.843750
  1
250
 50
0.000000
 51
0.000000
  7
EASYDRAW_FONT
 72
     5
 11
822.199951
 21
22.000004
  0
ENDBLK
  8
0
  0
BLOCK
  8
CSLAYER1
  2
BLKF0003
 70
   64
 10
0.0
 20
0.0
 30
0.0
  0
LINE
  8
CSLAYER1
  6
CONTINUOUS
 62
     7
 10
130.799997
 20
41.000000
 11
23.999997
 21
41.000000
  0
LINE
  8
CSLAYER1
  6
CONTINUOUS
 62
     7
 10
130.799997
 20
457.000000
 11
23.999997
 21
457.000000
  0
LINE
  8
CSLAYER1
  6
CONTINUOUS
 62
     7
 10
24.999997
 20
41.000000
 11
24.999997
 21
457.000000
  0
LINE
  8
CSLAYER1
  6
CONTINUOUS
 62
     7
 10
24.999997
 20
41.000000
 11
24.223540
 21
43.897778
  0
LINE
  8
CSLAYER1
  6
CONTINUOUS
 62
     7
 10
24.999997
 20
41.000000
 11
25.776454
 21
43.897778
  0
LINE
  8
CSLAYER1
  6
CONTINUOUS
 62
     7
 10
24.999997
 20
457.000000
 11
24.223540
 21
454.102223
  0
LINE
  8
CSLAYER1
  6
CONTINUOUS
 62
     7
 10
24.999997
 20
457.000000
 11
25.776454
 21
454.102223
  0
TEXT
  8
CSLAYER1
 62
     7
 10
24.000000
 20
244.500000
 40
4.000000
 41
0.843750
  1
416
 50
90.000000
 51
0.000000
  7
EASYDRAW_FONT
 72
     5
 11
24.000000
 21
253.500000
  0
ENDBLK
  8
0
  0
ENDSEC
  0
SECTION
  2
ENTITIES
  0
TEXT
  8
CSLAYER1
 62
     7
 10
843.994629
 20
891.951782
 40
6.000000
 41
0.846774
  1
SMOLENSKY CHECK VALVE
 50
0.000000
 51
0.000000
  7
EASYDRAW_FONT
 72
     5
 11
948.994629
 21
891.951782
  0
TEXT
  8
CSLAYER1
 62
     7
 10
844.077820
 20
871.951782
 40
6.000000
 41
0.865385
  1
株式会社　イシザキ
 50
0.000000
 51
0.000000
  7
EASYDRAW_FONT
 72
     5
 11
889.077820
 21
871.951782
  0
TEXT
  8
CSLAYER1
 62
     7
 10
843.961609
 20
881.951782
 40
6.000000
 41
0.850000
  1
SM ・ SMC 10K 200A
 50
0.000000
 51
0.000000
  7
EASYDRAW_FONT
 72
     5
 11
928.961609
 21
881.951782
  0
LINE
  8
CSLAYER1
  6
CONTINUOUS
 62
     7
 10
129.799997
 20
66.079109
 11
129.799997
 21
43.000000
  0
LINE
  8
CSLAYER1
  6
CONTINUOUS
 62
     7
 10
165.299997
 20
140.000000
 11
155.799997
 21
140.000000
  0
LINE
  8
CSLAYER1
  6
CONTINUOUS
 62
     7
 10
125.799997
 20
151.226652
 11
125.799997
 21
347.000000
  0
LINE
  8
CSLAYER1
  6
CENTER
 62
     7
 10
149.799997
 20
36.000000
 11
149.799997
 21
73.242227
  0
LINE
  8
CSLAYER1
  6
CONTINUOUS
 62
     7
 10
131.799997
 20
41.000000
 11
294.799997
 21
41.000000
  0
LINE
  8
CSLAYER1
  6
CONTINUOUS
 62
     7
 10
459.799997
 20
66.078336
 11
459.799997
 21
43.000000
  0
LINE
  8
CSLAYER1
  6
CENTER
 62
     7
 10
439.799997
 20
36.000000
 11
439.799997
 21
73.242227
  0
LINE
  8
CSLAYER1
  6
CONTINUOUS
 62
     7
 10
457.799997
 20
41.000000
 11
294.799997
 21
41.000000
  0
LINE
  8
CSLAYER1
  6
CONTINUOUS
 62
     7
 10
459.799997
 20
43.000000
 11
457.799997
 21
41.000000
  0
LINE
  8
CSLAYER1
  6
CONTINUOUS
 62
     7
 10
463.799997
 20
170.000000
 11
463.799997
 21
347.000000
  0
ARC
  8
CSLAYER1
  6
CONTINUOUS
 62
     7
 10
155.799997
 20
170.000000
 40
30.000000
 50
180.000000
 51
270.000000
  0
LINE
  8
CSLAYER1
  6
CONTINUOUS
 62
     7
 10
459.799997
 20
455.000000
 11
459.799997
 21
432.000000
  0
LINE
  8
CSLAYER1
  6
CONTINUOUS
 62
     7
 10
433.799997
 20
377.000000
 11
425.299997
 21
377.000000
  0
LINE
  8
CSLAYER1
  6
CENTER
 62
     7
 10
439.799997
 20
424.733334
 11
439.799997
 21
462.000000
  0
LINE
  8
CSLAYER1
  6
CONTINUOUS
 62
     7
 10
457.799997
 20
457.000000
 11
294.799997
 21
457.000000
  0
LINE
  8
CSLAYER1
  6
CONTINUOUS
 62
     7
 10
459.799997
 20
455.000000
 11
457.799997
 21
457.000000
  0
LINE
  8
CSLAYER1
  6
CONTINUOUS
 62
     7
 10
417.299997
 20
385.000000
 11
417.299997
 21
423.229518
  0
ARC
  8
CSLAYER1
  6
CONTINUOUS
 62
     7
 10
425.299997
 20
385.000000
 40
8.000000
 50
180.000000
 51
270.000000
  0
LINE
  8
CSLAYER1
  6
CONTINUOUS
 62
     7
 10
457.533331
 20
429.733334
 11
422.087424
 21
428.224997
  0
LINE
  8
CSLAYER1
  6
CONTINUOUS
 62
     7
 10
459.799997
 20
432.000000
 11
457.533331
 21
429.733334
  0
ARC
  8
CSLAYER1
  6
CONTINUOUS
 62
     7
 10
422.299997
 20
423.229518
 40
5.000000
 50
92.436648
 51
180.000000
  0
ARC
  8
CSLAYER1
  6
CONTINUOUS
 62
     7
 10
433.799997
 20
347.000000
 40
30.000000
 50
0.000000
 51
90.000000
  0
LINE
  8
CSLAYER1
  6
CONTINUOUS
 62
     7
 10
175.299997
 20
74.802060
 11
175.299997
 21
130.000000
  0
LINE
  8
CSLAYER1
  6
CONTINUOUS
 62
     7
 10
131.795106
 20
68.242227
 11
170.501853
 21
69.806136
  0
ARC
  8
CSLAYER1
  6
CONTINUOUS
 62
     7
 10
170.299997
 20
74.802060
 40
5.000000
 50
272.313722
 51
360.000000
  0
LINE
  8
CSLAYER1
  6
CONTINUOUS
 62
     7
 10
131.795106
 20
68.242227
 11
129.799997
 21
66.079109
  0
ARC
  8
CSLAYER1
  6
CONTINUOUS
 62
     7
 10
165.299997
 20
130.000000
 40
10.000000
 50
0.000000
 51
90.000000
  0
LINE
  8
CSLAYER1
  6
CONTINUOUS
 62
     7
 10
457.804889
 20
68.242227
 11
419.098142
 21
69.806136
  0
ARC
  8
CSLAYER1
  6
CONTINUOUS
 62
     7
 10
419.299997
 20
74.802060
 40
5.000000
 50
180.000000
 51
267.686278
  0
LINE
  8
CSLAYER1
  6
CONTINUOUS
 62
     7
 10
457.804889
 20
68.242227
 11
459.799997
 21
66.079109
  0
LINE
  8
CSLAYER1
  6
CONTINUOUS
 62
     7
 10
414.299997
 20
74.802060
 11
414.299997
 21
130.000000
  0
LINE
  8
CSLAYER1
  6
CONTINUOUS
 62
     7
 10
129.799997
 20
455.000000
 11
129.799997
 21
432.000000
  0
LINE
  8
CSLAYER1
  6
CONTINUOUS
 62
     7
 10
155.799997
 20
377.000000
 11
164.299997
 21
377.000000
  0
LINE
  8
CSLAYER1
  6
CENTER
 62
     7
 10
149.799997
 20
424.733334
 11
149.799997
 21
462.000000
  0
LINE
  8
CSLAYER1
  6
CONTINUOUS
 62
     7
 10
131.799997
 20
457.000000
 11
294.799997
 21
457.000000
  0
LINE
  8
CSLAYER1
  6
CONTINUOUS
 62
     7
 10
172.299997
 20
385.000000
 11
172.299997
 21
423.229518
  0
ARC
  8
CSLAYER1
  6
CONTINUOUS
 62
     7
 10
164.299997
 20
385.000000
 40
8.000000
 50
270.000000
 51
360.000000
  0
LINE
  8
CSLAYER1
  6
CONTINUOUS
 62
     7
 10
132.066664
 20
429.733334
 11
167.512571
 21
428.224997
  0
LINE
  8
CSLAYER1
  6
CONTINUOUS
 62
     7
 10
129.799997
 20
432.000000
 11
132.066664
 21
429.733334
  0
ARC
  8
CSLAYER1
  6
CONTINUOUS
 62
     7
 10
167.299997
 20
423.229518
 40
5.000000
 50
0.000000
 51
87.563352
  0
ARC
  8
CSLAYER1
  6
CONTINUOUS
 62
     7
 10
155.799997
 20
347.000000
 40
30.000000
 50
90.000000
 51
180.000000
  0
LINE
  8
CSLAYER1
  6
CENTER
 62
     7
 10
294.799997
 20
462.000000
 11
294.799997
 21
36.000000
  0
LINE
  8
CSLAYER1
  6
CONTINUOUS
 62
     7
 10
129.799997
 20
455.000000
 11
131.799997
 21
457.000000
  0
LINE
  8
CSLAYER1
  6
CONTINUOUS
 62
     7
 10
129.799997
 20
43.000000
 11
131.799997
 21
41.000000
  0
LINE
  8
CSLAYER1
  6
CONTINUOUS
 62
     7
 10
131.795106
 20
68.242227
 11
294.799997
 21
68.242227
  0
LINE
  8
CSLAYER1
  6
CONTINUOUS
 62
     7
 10
457.804889
 20
68.242227
 11
294.799997
 21
68.242227
  0
LINE
  8
CSLAYER1
  6
CONTINUOUS
 62
     7
 10
165.299997
 20
140.000000
 11
294.799997
 21
140.000000
  0
LINE
  8
CSLAYER1
  6
CONTINUOUS
 62
     7
 10
164.299997
 20
377.000000
 11
294.799997
 21
377.000000
  0
LINE
  8
CSLAYER1
  6
CONTINUOUS
 62
     7
 10
132.066664
 20
429.733334
 11
294.799997
 21
429.733334
  0
LINE
  8
CSLAYER1
  6
CONTINUOUS
 62
     7
 10
424.299997
 20
140.000000
 11
294.799997
 21
140.000000
  0
ARC
  8
CSLAYER1
  6
CONTINUOUS
 62
     7
 10
433.799997
 20
170.000000
 40
30.000000
 50
270.000000
 51
360.000000
  0
LINE
  8
CSLAYER1
  6
CONTINUOUS
 62
     7
 10
424.299997
 20
140.000000
 11
433.799997
 21
140.000000
  0
ARC
  8
CSLAYER1
  6
CONTINUOUS
 62
     7
 10
424.299997
 20
130.000000
 40
10.000000
 50
90.000000
 51
180.000000
  0
LINE
  8
CSLAYER1
  6
CONTINUOUS
 62
     7
 10
425.299997
 20
377.000000
 11
294.799997
 21
377.000000
  0
LINE
  8
CSLAYER1
  6
CONTINUOUS
 62
     7
 10
457.533331
 20
429.733334
 11
294.799997
 21
429.733334
  0
LINE
  8
CSLAYER1
  6
CONTINUOUS
 62
     7
 10
527.799997
 20
66.079109
 11
527.799997
 21
43.000000
  0
LINE
  8
CSLAYER1
  6
CONTINUOUS
 62
     7
 10
563.299997
 20
140.000000
 11
553.799997
 21
140.000000
  0
LINE
  8
CSLAYER1
  6
CONTINUOUS
 62
     7
 10
523.799997
 20
170.000000
 11
523.799997
 21
347.000000
  0
LINE
  8
CSLAYER1
  6
CENTER
 62
     7
 10
547.799997
 20
36.000000
 11
547.799997
 21
73.242227
  0
LINE
  8
CSLAYER1
  6
CONTINUOUS
 62
     7
 10
529.799997
 20
41.000000
 11
692.799997
 21
41.000000
  0
LINE
  8
CSLAYER1
  6
CONTINUOUS
 62
     7
 10
857.799997
 20
66.078336
 11
857.799997
 21
43.000000
  0
LINE
  8
CSLAYER1
  6
CONTINUOUS
 62
     7
 10
861.799997
 20
165.000000
 11
861.799997
 21
249.000000
  0
LINE
  8
CSLAYER1
  6
CENTER
 62
     7
 10
837.799997
 20
36.000000
 11
837.799997
 21
73.242227
  0
LINE
  8
CSLAYER1
  6
CONTINUOUS
 62
     7
 10
855.799997
 20
41.000000
 11
692.799997
 21
41.000000
  0
LINE
  8
CSLAYER1
  6
CONTINUOUS
 62
     7
 10
857.799997
 20
43.000000
 11
855.799997
 21
41.000000
  0
LINE
  8
CSLAYER1
  6
CONTINUOUS
 62
     7
 10
868.799997
 20
278.100004
 11
868.799997
 21
249.000000
  0
LINE
  8
CSLAYER1
  6
CONTINUOUS
 62
     7
 10
868.799997
 20
219.899997
 11
868.799997
 21
249.000000
  0
LINE
  8
CSLAYER1
  6
CONTINUOUS
 62
     7
 10
861.799997
 20
249.000000
 11
861.799997
 21
347.000000
  0
LINE
  8
CSLAYER1
  6
CONTINUOUS
 62
     7
 10
861.799997
 20
165.000000
 11
861.799997
 21
151.226652
  0
LINE
  8
CSLAYER1
  6
CONTINUOUS
 62
     7
 10
864.650184
 20
279.357491
 11
867.804988
 21
279.199751
  0
ARC
  8
CSLAYER1
  6
CONTINUOUS
 62
     7
 10
864.799997
 20
282.353748
 40
3.000000
 50
180.000000
 51
267.137595
  0
LINE
  8
CSLAYER1
  6
CONTINUOUS
 62
     7
 10
867.804988
 20
279.199751
 11
868.799997
 21
278.100004
  0
LINE
  8
CSLAYER1
  6
CONTINUOUS
 62
     7
 10
864.650184
 20
218.642510
 11
867.804988
 21
218.800250
  0
ARC
  8
CSLAYER1
  6
CONTINUOUS
 62
     7
 10
864.799997
 20
215.646253
 40
3.000000
 50
92.862405
 51
180.000000
  0
LINE
  8
CSLAYER1
  6
CONTINUOUS
 62
     7
 10
867.804988
 20
218.800250
 11
868.799997
 21
219.899997
  0
ARC
  8
CSLAYER1
  6
CONTINUOUS
 62
     7
 10
553.799997
 20
170.000000
 40
30.000000
 50
180.000000
 51
270.000000
  0
LINE
  8
CSLAYER1
  6
CONTINUOUS
 62
     7
 10
857.799997
 20
455.000000
 11
857.799997
 21
432.000000
  0
LINE
  8
CSLAYER1
  6
CONTINUOUS
 62
     7
 10
831.799997
 20
377.000000
 11
823.299997
 21
377.000000
  0
LINE
  8
CSLAYER1
  6
CENTER
 62
     7
 10
837.799997
 20
424.733334
 11
837.799997
 21
462.000000
  0
LINE
  8
CSLAYER1
  6
CONTINUOUS
 62
     7
 10
855.799997
 20
457.000000
 11
692.799997
 21
457.000000
  0
LINE
  8
CSLAYER1
  6
CONTINUOUS
 62
     7
 10
857.799997
 20
455.000000
 11
855.799997
 21
457.000000
  0
LINE
  8
CSLAYER1
  6
CONTINUOUS
 62
     7
 10
815.299997
 20
385.000000
 11
815.299997
 21
423.229518
  0
ARC
  8
CSLAYER1
  6
CONTINUOUS
 62
     7
 10
823.299997
 20
385.000000
 40
8.000000
 50
180.000000
 51
270.000000
  0
LINE
  8
CSLAYER1
  6
CONTINUOUS
 62
     7
 10
855.533331
 20
429.733334
 11
820.087424
 21
428.224997
  0
LINE
  8
CSLAYER1
  6
CONTINUOUS
 62
     7
 10
857.799997
 20
432.000000
 11
855.533331
 21
429.733334
  0
ARC
  8
CSLAYER1
  6
CONTINUOUS
 62
     7
 10
820.299997
 20
423.229518
 40
5.000000
 50
92.436648
 51
180.000000
  0
ARC
  8
CSLAYER1
  6
CONTINUOUS
 62
     7
 10
831.799997
 20
347.000000
 40
30.000000
 50
0.000000
 51
90.000000
  0
LINE
  8
CSLAYER1
  6
CONTINUOUS
 62
     7
 10
573.299997
 20
74.802060
 11
573.299997
 21
130.000000
  0
LINE
  8
CSLAYER1
  6
CONTINUOUS
 62
     7
 10
529.795106
 20
68.242227
 11
568.501853
 21
69.806136
  0
ARC
  8
CSLAYER1
  6
CONTINUOUS
 62
     7
 10
568.299997
 20
74.802060
 40
5.000000
 50
272.313722
 51
360.000000
  0
LINE
  8
CSLAYER1
  6
CONTINUOUS
 62
     7
 10
529.795106
 20
68.242227
 11
527.799997
 21
66.079109
  0
ARC
  8
CSLAYER1
  6
CONTINUOUS
 62
     7
 10
563.299997
 20
130.000000
 40
10.000000
 50
0.000000
 51
90.000000
  0
LINE
  8
CSLAYER1
  6
CONTINUOUS
 62
     7
 10
855.804889
 20
68.242227
 11
817.098142
 21
69.806136
  0
ARC
  8
CSLAYER1
  6
CONTINUOUS
 62
     7
 10
817.299997
 20
74.802060
 40
5.000000
 50
180.000000
 51
267.686278
  0
LINE
  8
CSLAYER1
  6
CONTINUOUS
 62
     7
 10
855.804889
 20
68.242227
 11
857.799997
 21
66.079109
  0
LINE
  8
CSLAYER1
  6
CONTINUOUS
 62
     7
 10
812.299997
 20
74.802060
 11
812.299997
 21
130.000000
  0
LINE
  8
CSLAYER1
  6
CONTINUOUS
 62
     7
 10
813.978178
 20
97.491717
 11
853.409093
 21
132.541419
  0
ARC
  8
CSLAYER1
  6
CONTINUOUS
 62
     7
 10
836.799997
 20
151.226652
 40
25.000000
 50
311.633539
 51
360.000000
  0
ARC
  8
CSLAYER1
  6
CONTINUOUS
 62
     7
 10
817.299997
 20
93.754670
 40
5.000000
 50
131.633539
 51
180.000000
  0
LINE
  8
CSLAYER1
  6
CONTINUOUS
 62
     7
 10
527.799997
 20
455.000000
 11
527.799997
 21
432.000000
  0
LINE
  8
CSLAYER1
  6
CONTINUOUS
 62
     7
 10
553.799997
 20
377.000000
 11
562.299997
 21
377.000000
  0
LINE
  8
CSLAYER1
  6
CENTER
 62
     7
 10
547.799997
 20
424.733334
 11
547.799997
 21
462.000000
  0
LINE
  8
CSLAYER1
  6
CONTINUOUS
 62
     7
 10
529.799997
 20
457.000000
 11
692.799997
 21
457.000000
  0
LINE
  8
CSLAYER1
  6
CONTINUOUS
 62
     7
 10
570.299997
 20
385.000000
 11
570.299997
 21
423.229518
  0
ARC
  8
CSLAYER1
  6
CONTINUOUS
 62
     7
 10
562.299997
 20
385.000000
 40
8.000000
 50
270.000000
 51
360.000000
  0
LINE
  8
CSLAYER1
  6
CONTINUOUS
 62
     7
 10
530.066664
 20
429.733334
 11
565.512571
 21
428.224997
  0
LINE
  8
CSLAYER1
  6
CONTINUOUS
 62
     7
 10
527.799997
 20
432.000000
 11
530.066664
 21
429.733334
  0
ARC
  8
CSLAYER1
  6
CONTINUOUS
 62
     7
 10
565.299997
 20
423.229518
 40
5.000000
 50
0.000000
 51
87.563352
  0
ARC
  8
CSLAYER1
  6
CONTINUOUS
 62
     7
 10
553.799997
 20
347.000000
 40
30.000000
 50
90.000000
 51
180.000000
  0
LINE
  8
CSLAYER1
  6
CENTER
 62
     7
 10
692.799997
 20
462.000000
 11
692.799997
 21
36.000000
  0
LINE
  8
CSLAYER1
  6
CENTER
 62
     7
 10
947.599997
 20
249.000000
 11
523.799997
 21
249.000000
  0
LINE
  8
CSLAYER1
  6
CONTINUOUS
 62
     7
 10
527.799997
 20
455.000000
 11
529.799997
 21
457.000000
  0
LINE
  8
CSLAYER1
  6
CONTINUOUS
 62
     7
 10
527.799997
 20
43.000000
 11
529.799997
 21
41.000000
  0
LINE
  8
CSLAYER1
  6
CONTINUOUS
 62
     7
 10
529.795106
 20
68.242227
 11
692.799997
 21
68.242227
  0
LINE
  8
CSLAYER1
  6
CONTINUOUS
 62
     7
 10
855.804889
 20
68.242227
 11
692.799997
 21
68.242227
  0
LINE
  8
CSLAYER1
  6
CONTINUOUS
 62
     7
 10
563.299997
 20
140.000000
 11
692.799997
 21
140.000000
  0
LINE
  8
CSLAYER1
  6
CONTINUOUS
 62
     7
 10
562.299997
 20
377.000000
 11
692.799997
 21
377.000000
  0
LINE
  8
CSLAYER1
  6
CONTINUOUS
 62
     7
 10
530.066664
 20
429.733334
 11
692.799997
 21
429.733334
  0
LINE
  8
CSLAYER1
  6
CONTINUOUS
 62
     7
 10
822.299997
 20
140.000000
 11
692.799997
 21
140.000000
  0
ARC
  8
CSLAYER1
  6
CONTINUOUS
 62
     7
 10
831.799997
 20
170.000000
 40
30.000000
 50
270.000000
 51
360.000000
  0
LINE
  8
CSLAYER1
  6
CONTINUOUS
 62
     7
 10
822.299997
 20
140.000000
 11
831.799997
 21
140.000000
  0
ARC
  8
CSLAYER1
  6
CONTINUOUS
 62
     7
 10
822.299997
 20
130.000000
 40
10.000000
 50
90.000000
 51
180.000000
  0
LINE
  8
CSLAYER1
  6
CONTINUOUS
 62
     7
 10
823.299997
 20
377.000000
 11
692.799997
 21
377.000000
  0
LINE
  8
CSLAYER1
  6
CONTINUOUS
 62
     7
 10
855.533331
 20
429.733334
 11
692.799997
 21
429.733334
  0
LINE
  8
CSLAYER1
  6
CONTINUOUS
 62
     7
 10
867.804988
 20
279.199751
 11
867.804988
 21
218.800250
  0
LINE
  8
CSLAYER1
  6
CONTINUOUS
 62
     7
 10
875.273763
 20
267.160979
 11
885.299997
 21
266.897859
  0
ARC
  8
CSLAYER1
  6
CONTINUOUS
 62
     7
 10
875.299997
 20
268.160635
 40
1.000000
 50
245.593193
 51
268.496721
  0
LINE
  8
CSLAYER1
  6
CONTINUOUS
 62
     7
 10
873.299997
 20
271.000000
 11
873.299997
 21
249.000000
  0
LINE
  8
CSLAYER1
  6
CONTINUOUS
 62
     7
 10
869.299997
 20
272.000000
 11
872.299997
 21
272.000000
  0
ARC
  8
CSLAYER1
  6
CONTINUOUS
 62
     7
 10
872.299997
 20
271.000000
 40
1.000000
 50
0.000000
 51
90.000000
  0
LINE
  8
CSLAYER1
  6
CONTINUOUS
 62
     7
 10
874.299997
 20
267.250000
 11
874.886785
 21
267.250000
  0
ARC
  8
CSLAYER1
  6
CONTINUOUS
 62
     7
 10
874.299997
 20
268.250000
 40
1.000000
 50
180.000000
 51
270.000000
  0
LINE
  8
CSLAYER1
  6
CONTINUOUS
 62
     7
 10
885.299997
 20
266.897859
 11
886.799997
 21
262.000000
  0
LINE
  8
CSLAYER1
  6
CONTINUOUS
 62
     7
 10
886.799997
 20
262.000000
 11
894.299997
 21
262.000000
  0
LINE
  8
CSLAYER1
  6
CONTINUOUS
 62
     7
 10
888.099035
 20
261.250000
 11
894.299997
 21
261.250000
  0
LINE
  8
CSLAYER1
  6
CONTINUOUS
 62
     7
 10
886.799997
 20
262.000000
 11
888.099035
 21
261.250000
  0
LINE
  8
CSLAYER1
  6
CONTINUOUS
 62
     7
 10
888.099035
 20
261.250000
 11
888.099035
 21
249.000000
  0
LINE
  8
CSLAYER1
  6
CONTINUOUS
 62
     7
 10
912.233185
 20
255.700000
 11
923.599997
 21
255.700000
  0
LINE
  8
CSLAYER1
  6
CONTINUOUS
 62
     7
 10
912.233185
 20
242.300000
 11
923.599997
 21
242.300000
  0
LINE
  8
CSLAYER1
  6
CONTINUOUS
 62
     7
 10
909.129999
 20
267.475209
 11
896.017735
 21
267.475209
  0
LINE
  8
CSLAYER1
  6
CONTINUOUS
 62
     7
 10
894.299997
 20
264.500000
 11
894.299997
 21
249.000000
  0
ARC
  8
CSLAYER1
  6
CONTINUOUS
 62
     7
 10
864.828005
 20
249.000000
 40
48.000000
 50
9.029410
 51
22.637543
  0
LINE
  8
CSLAYER1
  6
CONTINUOUS
 62
     7
 10
894.299997
 20
264.500000
 11
896.017735
 21
267.475209
  0
LINE
  8
CSLAYER1
  6
CONTINUOUS
 62
     7
 10
912.233185
 20
256.533189
 11
912.233185
 21
249.000000
  0
LINE
  8
CSLAYER1
  6
CONTINUOUS
 62
     7
 10
875.273763
 20
230.839022
 11
885.299997
 21
231.102142
  0
ARC
  8
CSLAYER1
  6
CONTINUOUS
 62
     7
 10
875.299997
 20
229.839366
 40
1.000000
 50
91.503279
 51
114.406807
  0
LINE
  8
CSLAYER1
  6
CONTINUOUS
 62
     7
 10
873.299997
 20
227.000000
 11
873.299997
 21
249.000000
  0
LINE
  8
CSLAYER1
  6
CONTINUOUS
 62
     7
 10
869.299997
 20
226.000000
 11
872.299997
 21
226.000000
  0
ARC
  8
CSLAYER1
  6
CONTINUOUS
 62
     7
 10
872.299997
 20
227.000000
 40
1.000000
 50
270.000000
 51
360.000000
  0
LINE
  8
CSLAYER1
  6
CONTINUOUS
 62
     7
 10
874.299997
 20
230.750000
 11
874.886785
 21
230.750000
  0
ARC
  8
CSLAYER1
  6
CONTINUOUS
 62
     7
 10
874.299997
 20
229.750000
 40
1.000000
 50
90.000000
 51
180.000000
  0
LINE
  8
CSLAYER1
  6
CONTINUOUS
 62
     7
 10
885.299997
 20
231.102142
 11
886.799997
 21
236.000000
  0
LINE
  8
CSLAYER1
  6
CONTINUOUS
 62
     7
 10
886.799997
 20
236.000000
 11
894.299997
 21
236.000000
  0
LINE
  8
CSLAYER1
  6
CONTINUOUS
 62
     7
 10
888.099035
 20
236.750000
 11
894.299997
 21
236.750000
  0
LINE
  8
CSLAYER1
  6
CONTINUOUS
 62
     7
 10
886.799997
 20
236.000000
 11
888.099035
 21
236.750000
  0
LINE
  8
CSLAYER1
  6
CONTINUOUS
 62
     7
 10
888.099035
 20
249.000000
 11
888.099035
 21
236.000000
  0
LINE
  8
CSLAYER1
  6
CONTINUOUS
 62
     7
 10
909.129999
 20
230.524792
 11
896.017735
 21
230.524792
  0
LINE
  8
CSLAYER1
  6
CONTINUOUS
 62
     7
 10
894.299997
 20
233.500000
 11
894.299997
 21
249.000000
  0
ARC
  8
CSLAYER1
  6
CONTINUOUS
 62
     7
 10
864.828005
 20
249.000000
 40
48.000000
 50
337.362457
 51
350.970590
  0
LINE
  8
CSLAYER1
  6
CONTINUOUS
 62
     7
 10
894.299997
 20
233.500000
 11
896.017735
 21
230.524792
  0
LINE
  8
CSLAYER1
  6
CONTINUOUS
 62
     7
 10
912.233185
 20
241.466812
 11
912.233185
 21
249.000000
  0
LINE
  8
CSLAYER1
  6
CONTINUOUS
 62
     7
 10
886.799997
 20
262.000000
 11
886.799997
 21
236.000000
  0
LINE
  8
CSLAYER1
  6
CONTINUOUS
 62
     7
 10
909.233183
 20
258.237605
 11
895.950923
 21
258.237605
  0
ARC
  8
CSLAYER1
  6
CONTINUOUS
 62
     7
 10
902.765779
 20
262.856407
 40
8.232593
 50
145.872350
 51
214.127650
  0
ARC
  8
CSLAYER1
  6
CONTINUOUS
 62
     7
 10
901.082640
 20
262.856407
 40
9.368283
 50
-29.539633
 51
29.539633
  0
ARC
  8
CSLAYER1
  6
CONTINUOUS
 62
     7
 10
874.804399
 20
249.000000
 40
35.646524
 50
0.000000
 51
15.019312
  0
ARC
  8
CSLAYER1
  6
CONTINUOUS
 62
     7
 10
925.336953
 20
249.000000
 40
30.803768
 50
162.549272
 51
180.000000
  0
LINE
  8
CSLAYER1
  6
CONTINUOUS
 62
     7
 10
909.233183
 20
239.762396
 11
895.950923
 21
239.762396
  0
ARC
  8
CSLAYER1
  6
CONTINUOUS
 62
     7
 10
925.336953
 20
249.000000
 40
30.803768
 50
180.000000
 51
197.450728
  0
ARC
  8
CSLAYER1
  6
CONTINUOUS
 62
     7
 10
902.765779
 20
235.143594
 40
8.232593
 50
145.872350
 51
214.127650
  0
ARC
  8
CSLAYER1
  6
CONTINUOUS
 62
     7
 10
901.082640
 20
235.143594
 40
9.368283
 50
-29.539633
 51
29.539633
  0
ARC
  8
CSLAYER1
  6
CONTINUOUS
 62
     7
 10
874.804399
 20
249.000000
 40
35.646524
 50
344.980688
 51
360.000000
  0
LINE
  8
CSLAYER1
  6
CONTINUOUS
 62
     7
 10
885.299997
 20
257.948930
 11
873.299997
 21
257.948930
  0
LINE
  8
CSLAYER1
  6
CONTINUOUS
 62
     7
 10
885.299997
 20
240.051071
 11
873.299997
 21
240.051071
  0
ARC
  8
CSLAYER1
  6
CONTINUOUS
 62
     7
 10
875.789907
 20
235.576607
 40
10.510122
 50
-25.196822
 51
25.196822
  0
ARC
  8
CSLAYER1
  6
CONTINUOUS
 62
     7
 10
845.758331
 20
249.000000
 40
40.541667
 50
-12.752155
 51
12.752155
  0
ARC
  8
CSLAYER1
  6
CONTINUOUS
 62
     7
 10
875.789907
 20
262.423394
 40
10.510122
 50
-25.196822
 51
25.196822
  0
LINE
  8
CSLAYER1
  6
CONTINUOUS
 62
     7
 10
923.599997
 20
257.500000
 11
924.099997
 21
257.500000
  0
LINE
  8
CSLAYER1
  6
CONTINUOUS
 62
     7
 10
923.599997
 20
257.500000
 11
923.599997
 21
249.000000
  0
LINE
  8
CSLAYER1
  6
CONTINUOUS
 62
     7
 10
925.099997
 20
289.000000
 11
931.099997
 21
289.000000
  0
ARC
  8
CSLAYER1
  6
CONTINUOUS
 62
     7
 10
931.099997
 20
283.000000
 40
6.000000
 50
-41.409622
 51
90.000000
  0
LINE
  8
CSLAYER1
  6
CONTINUOUS
 62
     7
 10
924.099997
 20
288.000000
 11
924.099997
 21
249.000000
  0
ARC
  8
CSLAYER1
  6
CONTINUOUS
 62
     7
 10
931.099997
 20
249.000000
 40
6.000000
 50
0.000000
 51
33.557310
  0
LINE
  8
CSLAYER1
  6
CONTINUOUS
 62
     7
 10
935.599997
 20
279.031373
 11
935.599997
 21
278.016568
  0
LINE
  8
CSLAYER1
  6
CONTINUOUS
 62
     7
 10
935.599997
 20
268.066694
 11
935.599997
 21
253.974938
  0
ARC
  8
CSLAYER1
  6
CONTINUOUS
 62
     7
 10
938.599997
 20
278.016568
 40
3.000000
 50
180.000000
 51
213.557310
  0
ARC
  8
CSLAYER1
  6
CONTINUOUS
 62
     7
 10
938.599997
 20
268.066694
 40
3.000000
 50
146.442690
 51
180.000000
  0
ARC
  8
CSLAYER1
  6
CONTINUOUS
 62
     7
 10
938.599997
 20
253.974938
 40
3.000000
 50
180.000000
 51
213.557310
  0
ARC
  8
CSLAYER1
  6
CONTINUOUS
 62
     7
 10
931.099997
 20
273.041631
 40
6.000000
 50
-33.557310
 51
90.000000
  0
LINE
  8
CSLAYER1
  6
CONTINUOUS
 62
     7
 10
931.099997
 20
279.041631
 11
925.099997
 21
279.041631
  0
ARC
  8
CSLAYER1
  6
CONTINUOUS
 62
     7
 10
925.099997
 20
288.000000
 40
1.000000
 50
90.000000
 51
180.000000
  0
ARC
  8
CSLAYER1
  6
CONTINUOUS
 62
     7
 10
925.099997
 20
278.041631
 40
1.000000
 50
90.000000
 51
180.000000
  0
LINE
  8
CSLAYER1
  6
CONTINUOUS
 62
     7
 10
935.773809
 20
252.968627
 11
924.099997
 21
252.968627
  0
LINE
  8
CSLAYER1
  6
CONTINUOUS
 62
     7
 10
935.773809
 20
269.073004
 11
924.099997
 21
269.073004
  0
LINE
  8
CSLAYER1
  6
CONTINUOUS
 62
     7
 10
923.599997
 20
240.500000
 11
924.099997
 21
240.500000
  0
LINE
  8
CSLAYER1
  6
CONTINUOUS
 62
     7
 10
923.599997
 20
240.500000
 11
923.599997
 21
249.000000
  0
LINE
  8
CSLAYER1
  6
CONTINUOUS
 62
     7
 10
925.099997
 20
209.000000
 11
931.099997
 21
209.000000
  0
ARC
  8
CSLAYER1
  6
CONTINUOUS
 62
     7
 10
931.099997
 20
215.000000
 40
6.000000
 50
-90.000000
 51
41.409622
  0
LINE
  8
CSLAYER1
  6
CONTINUOUS
 62
     7
 10
924.099997
 20
210.000000
 11
924.099997
 21
249.000000
  0
ARC
  8
CSLAYER1
  6
CONTINUOUS
 62
     7
 10
931.099997
 20
249.000000
 40
6.000000
 50
326.442690
 51
360.000000
  0
LINE
  8
CSLAYER1
  6
CONTINUOUS
 62
     7
 10
935.599997
 20
218.968627
 11
935.599997
 21
219.983433
  0
LINE
  8
CSLAYER1
  6
CONTINUOUS
 62
     7
 10
935.599997
 20
229.933307
 11
935.599997
 21
244.025063
  0
ARC
  8
CSLAYER1
  6
CONTINUOUS
 62
     7
 10
938.599997
 20
219.983433
 40
3.000000
 50
146.442690
 51
180.000000
  0
ARC
  8
CSLAYER1
  6
CONTINUOUS
 62
     7
 10
938.599997
 20
229.933307
 40
3.000000
 50
180.000000
 51
213.557310
  0
ARC
  8
CSLAYER1
  6
CONTINUOUS
 62
     7
 10
938.599997
 20
244.025063
 40
3.000000
 50
146.442690
 51
180.000000
  0
ARC
  8
CSLAYER1
  6
CONTINUOUS
 62
     7
 10
931.099997
 20
224.958370
 40
6.000000
 50
-90.000000
 51
33.557310
  0
LINE
  8
CSLAYER1
  6
CONTINUOUS
 62
     7
 10
931.099997
 20
218.958370
 11
925.099997
 21
218.958370
  0
ARC
  8
CSLAYER1
  6
CONTINUOUS
 62
     7
 10
925.099997
 20
210.000000
 40
1.000000
 50
180.000000
 51
270.000000
  0
ARC
  8
CSLAYER1
  6
CONTINUOUS
 62
     7
 10
925.099997
 20
219.958370
 40
1.000000
 50
180.000000
 51
270.000000
  0
LINE
  8
CSLAYER1
  6
CONTINUOUS
 62
     7
 10
935.773809
 20
245.031373
 11
924.099997
 21
245.031373
  0
LINE
  8
CSLAYER1
  6
CONTINUOUS
 62
     7
 10
935.773809
 20
228.926997
 11
924.099997
 21
228.926997
  0
LINE
  8
CSLAYER1
  6
CONTINUOUS
 62
     7
 10
941.599997
 20
253.000000
 11
941.099997
 21
253.000000
  0
LINE
  8
CSLAYER1
  6
CONTINUOUS
 62
     7
 10
941.901239
 20
252.375000
 11
941.099997
 21
252.375000
  0
ARC
  8
CSLAYER1
  6
CONTINUOUS
 62
     7
 10
934.099997
 20
249.000000
 40
8.500000
 50
0.000000
 51
28.072487
  0
LINE
  8
CSLAYER1
  6
CONTINUOUS
 62
     7
 10
941.599997
 20
253.000000
 11
941.599997
 21
249.000000
  0
LINE
  8
CSLAYER1
  6
CONTINUOUS
 62
     7
 10
940.519441
 20
256.505554
 11
935.599997
 21
256.505554
  0
LINE
  8
CSLAYER1
  6
CONTINUOUS
 62
     7
 10
941.099997
 20
255.500000
 11
941.099997
 21
249.000000
  0
LINE
  8
CSLAYER1
  6
CONTINUOUS
 62
     7
 10
940.519441
 20
252.752777
 11
935.860230
 21
252.752777
  0
LINE
  8
CSLAYER1
  6
CONTINUOUS
 62
     7
 10
941.099997
 20
255.500000
 11
940.519441
 21
256.505554
  0
ARC
  8
CSLAYER1
  6
CONTINUOUS
 62
     7
 10
937.096432
 20
254.629166
 40
3.903565
 50
-28.730202
 51
28.730202
  0
ARC
  8
CSLAYER1
  6
CONTINUOUS
 62
     7
 10
926.106571
 20
249.000000
 40
14.893426
 50
0.000000
 51
14.594436
  0
LINE
  8
CSLAYER1
  6
CONTINUOUS
 62
     7
 10
941.599997
 20
245.000000
 11
941.099997
 21
245.000000
  0
LINE
  8
CSLAYER1
  6
CONTINUOUS
 62
     7
 10
941.901239
 20
245.625000
 11
941.099997
 21
245.625000
  0
ARC
  8
CSLAYER1
  6
CONTINUOUS
 62
     7
 10
934.099997
 20
249.000000
 40
8.500000
 50
331.927513
 51
360.000000
  0
LINE
  8
CSLAYER1
  6
CONTINUOUS
 62
     7
 10
941.599997
 20
245.000000
 11
941.599997
 21
249.000000
  0
LINE
  8
CSLAYER1
  6
CONTINUOUS
 62
     7
 10
940.519441
 20
241.494447
 11
935.599997
 21
241.494447
  0
LINE
  8
CSLAYER1
  6
CONTINUOUS
 62
     7
 10
941.099997
 20
242.500000
 11
941.099997
 21
249.000000
  0
LINE
  8
CSLAYER1
  6
CONTINUOUS
 62
     7
 10
940.519441
 20
245.247224
 11
935.860230
 21
245.247224
  0
LINE
  8
CSLAYER1
  6
CONTINUOUS
 62
     7
 10
941.099997
 20
242.500000
 11
940.519441
 21
241.494447
  0
ARC
  8
CSLAYER1
  6
CONTINUOUS
 62
     7
 10
937.096432
 20
243.370835
 40
3.903565
 50
-28.730202
 51
28.730202
  0
ARC
  8
CSLAYER1
  6
CONTINUOUS
 62
     7
 10
926.106571
 20
249.000000
 40
14.893426
 50
345.405564
 51
360.000000
  0
LINE
  8
CSLAYER1
  6
CONTINUOUS
 62
     7
 10
869.299997
 20
226.000000
 11
868.799997
 21
226.500000
  0
LINE
  8
CSLAYER1
  6
CONTINUOUS
 62
     7
 10
869.299997
 20
272.000000
 11
868.799997
 21
271.500000
  0
LINE
  8
CSLAYER1
  6
CENTER
 62
     7
 10
468.799997
 20
692.000000
 11
39.999997
 21
692.000000
  0
LINE
  8
CSLAYER1
  6
CENTER
 62
     7
 10
294.799997
 20
518.000000
 11
294.799997
 21
880.000000
  0
CIRCLE
  8
CSLAYER1
  6
CONTINUOUS
 62
     7
 10
294.799997
 20
692.000000
 40
165.000000
  0
LINE
  8
CSLAYER1
  6
CONTINUOUS
 62
     7
 10
118.799997
 20
662.899997
 11
118.799997
 21
692.000000
  0
LINE
  8
CSLAYER1
  6
CONTINUOUS
 62
     7
 10
118.799997
 20
721.100004
 11
118.799997
 21
692.000000
  0
LINE
  8
CSLAYER1
  6
CONTINUOUS
 62
     7
 10
126.247405
 20
661.477630
 11
119.795007
 21
661.800250
  0
LINE
  8
CSLAYER1
  6
CONTINUOUS
 62
     7
 10
119.795007
 20
661.800250
 11
118.799997
 21
662.899997
  0
LINE
  8
CSLAYER1
  6
CONTINUOUS
 62
     7
 10
126.247405
 20
722.522371
 11
119.795007
 21
722.199751
  0
LINE
  8
CSLAYER1
  6
CONTINUOUS
 62
     7
 10
119.795007
 20
722.199751
 11
118.799997
 21
721.100004
  0
LINE
  8
CSLAYER1
  6
CONTINUOUS
 62
     7
 10
119.795007
 20
661.800250
 11
119.795007
 21
722.199751
  0
LINE
  8
CSLAYER1
  6
CONTINUOUS
 62
     7
 10
112.326231
 20
673.839022
 11
102.299997
 21
674.102142
  0
ARC
  8
CSLAYER1
  6
CONTINUOUS
 62
     7
 10
112.299997
 20
672.839366
 40
1.000000
 50
65.593193
 51
88.496721
  0
LINE
  8
CSLAYER1
  6
CONTINUOUS
 62
     7
 10
114.299997
 20
670.000000
 11
114.299997
 21
692.000000
  0
LINE
  8
CSLAYER1
  6
CONTINUOUS
 62
     7
 10
118.299997
 20
669.000000
 11
115.299997
 21
669.000000
  0
ARC
  8
CSLAYER1
  6
CONTINUOUS
 62
     7
 10
115.299997
 20
670.000000
 40
1.000000
 50
180.000000
 51
270.000000
  0
LINE
  8
CSLAYER1
  6
CONTINUOUS
 62
     7
 10
113.299997
 20
673.750000
 11
112.713210
 21
673.750000
  0
ARC
  8
CSLAYER1
  6
CONTINUOUS
 62
     7
 10
113.299997
 20
672.750000
 40
1.000000
 50
0.000000
 51
90.000000
  0
LINE
  8
CSLAYER1
  6
CONTINUOUS
 62
     7
 10
102.299997
 20
674.102142
 11
100.799997
 21
679.000000
  0
LINE
  8
CSLAYER1
  6
CONTINUOUS
 62
     7
 10
100.799997
 20
679.000000
 11
93.299997
 21
679.000000
  0
LINE
  8
CSLAYER1
  6
CONTINUOUS
 62
     7
 10
99.500959
 20
679.750000
 11
93.299997
 21
679.750000
  0
LINE
  8
CSLAYER1
  6
CONTINUOUS
 62
     7
 10
100.799997
 20
679.000000
 11
99.500959
 21
679.750000
  0
LINE
  8
CSLAYER1
  6
CONTINUOUS
 62
     7
 10
99.500959
 20
679.750000
 11
99.500959
 21
692.000000
  0
LINE
  8
CSLAYER1
  6
CONTINUOUS
 62
     7
 10
75.366809
 20
685.300000
 11
63.999997
 21
685.300000
  0
LINE
  8
CSLAYER1
  6
CONTINUOUS
 62
     7
 10
75.366809
 20
698.700000
 11
63.999997
 21
698.700000
  0
LINE
  8
CSLAYER1
  6
CONTINUOUS
 62
     7
 10
78.469995
 20
673.524792
 11
91.582260
 21
673.524792
  0
LINE
  8
CSLAYER1
  6
CONTINUOUS
 62
     7
 10
93.299997
 20
676.500000
 11
93.299997
 21
692.000000
  0
ARC
  8
CSLAYER1
  6
CONTINUOUS
 62
     7
 10
122.771989
 20
692.000000
 40
48.000000
 50
189.029410
 51
202.637543
  0
LINE
  8
CSLAYER1
  6
CONTINUOUS
 62
     7
 10
93.299997
 20
676.500000
 11
91.582260
 21
673.524792
  0
LINE
  8
CSLAYER1
  6
CONTINUOUS
 62
     7
 10
75.366809
 20
684.466812
 11
75.366809
 21
692.000000
  0
LINE
  8
CSLAYER1
  6
CONTINUOUS
 62
     7
 10
112.326231
 20
710.160979
 11
102.299997
 21
709.897859
  0
ARC
  8
CSLAYER1
  6
CONTINUOUS
 62
     7
 10
112.299997
 20
711.160635
 40
1.000000
 50
271.503279
 51
294.406807
  0
LINE
  8
CSLAYER1
  6
CONTINUOUS
 62
     7
 10
114.299997
 20
714.000000
 11
114.299997
 21
692.000000
  0
LINE
  8
CSLAYER1
  6
CONTINUOUS
 62
     7
 10
118.299997
 20
715.000000
 11
115.299997
 21
715.000000
  0
ARC
  8
CSLAYER1
  6
CONTINUOUS
 62
     7
 10
115.299997
 20
714.000000
 40
1.000000
 50
90.000000
 51
180.000000
  0
LINE
  8
CSLAYER1
  6
CONTINUOUS
 62
     7
 10
113.299997
 20
710.250000
 11
112.713210
 21
710.250000
  0
ARC
  8
CSLAYER1
  6
CONTINUOUS
 62
     7
 10
113.299997
 20
711.250000
 40
1.000000
 50
270.000000
 51
360.000000
  0
LINE
  8
CSLAYER1
  6
CONTINUOUS
 62
     7
 10
102.299997
 20
709.897859
 11
100.799997
 21
705.000000
  0
LINE
  8
CSLAYER1
  6
CONTINUOUS
 62
     7
 10
100.799997
 20
705.000000
 11
93.299997
 21
705.000000
  0
LINE
  8
CSLAYER1
  6
CONTINUOUS
 62
     7
 10
99.500959
 20
704.250000
 11
93.299997
 21
704.250000
  0
LINE
  8
CSLAYER1
  6
CONTINUOUS
 62
     7
 10
100.799997
 20
705.000000
 11
99.500959
 21
704.250000
  0
LINE
  8
CSLAYER1
  6
CONTINUOUS
 62
     7
 10
99.500959
 20
692.000000
 11
99.500959
 21
705.000000
  0
LINE
  8
CSLAYER1
  6
CONTINUOUS
 62
     7
 10
78.469995
 20
710.475209
 11
91.582260
 21
710.475209
  0
LINE
  8
CSLAYER1
  6
CONTINUOUS
 62
     7
 10
93.299997
 20
707.500000
 11
93.299997
 21
692.000000
  0
ARC
  8
CSLAYER1
  6
CONTINUOUS
 62
     7
 10
122.771989
 20
692.000000
 40
48.000000
 50
157.362457
 51
170.970590
  0
LINE
  8
CSLAYER1
  6
CONTINUOUS
 62
     7
 10
93.299997
 20
707.500000
 11
91.582260
 21
710.475209
  0
LINE
  8
CSLAYER1
  6
CONTINUOUS
 62
     7
 10
75.366809
 20
699.533189
 11
75.366809
 21
692.000000
  0
LINE
  8
CSLAYER1
  6
CONTINUOUS
 62
     7
 10
100.799997
 20
679.000000
 11
100.799997
 21
705.000000
  0
LINE
  8
CSLAYER1
  6
CONTINUOUS
 62
     7
 10
78.366812
 20
682.762396
 11
91.649072
 21
682.762396
  0
ARC
  8
CSLAYER1
  6
CONTINUOUS
 62
     7
 10
84.834216
 20
678.143594
 40
8.232593
 50
-34.127650
 51
34.127650
  0
ARC
  8
CSLAYER1
  6
CONTINUOUS
 62
     7
 10
86.517354
 20
678.143594
 40
9.368283
 50
150.460367
 51
209.539633
  0
ARC
  8
CSLAYER1
  6
CONTINUOUS
 62
     7
 10
112.795596
 20
692.000000
 40
35.646524
 50
180.000000
 51
195.019312
  0
ARC
  8
CSLAYER1
  6
CONTINUOUS
 62
     7
 10
62.263041
 20
692.000000
 40
30.803768
 50
342.549272
 51
360.000000
  0
LINE
  8
CSLAYER1
  6
CONTINUOUS
 62
     7
 10
78.366812
 20
701.237605
 11
91.649072
 21
701.237605
  0
ARC
  8
CSLAYER1
  6
CONTINUOUS
 62
     7
 10
62.263041
 20
692.000000
 40
30.803768
 50
0.000000
 51
17.450728
  0
ARC
  8
CSLAYER1
  6
CONTINUOUS
 62
     7
 10
84.834216
 20
705.856407
 40
8.232593
 50
-34.127650
 51
34.127650
  0
ARC
  8
CSLAYER1
  6
CONTINUOUS
 62
     7
 10
86.517354
 20
705.856407
 40
9.368283
 50
150.460367
 51
209.539633
  0
ARC
  8
CSLAYER1
  6
CONTINUOUS
 62
     7
 10
112.795596
 20
692.000000
 40
35.646524
 50
164.980688
 51
180.000000
  0
LINE
  8
CSLAYER1
  6
CONTINUOUS
 62
     7
 10
102.299997
 20
683.051071
 11
114.299997
 21
683.051071
  0
LINE
  8
CSLAYER1
  6
CONTINUOUS
 62
     7
 10
102.299997
 20
700.948930
 11
114.299997
 21
700.948930
  0
ARC
  8
CSLAYER1
  6
CONTINUOUS
 62
     7
 10
111.810088
 20
705.423394
 40
10.510122
 50
154.803178
 51
205.196822
  0
ARC
  8
CSLAYER1
  6
CONTINUOUS
 62
     7
 10
141.841664
 20
692.000000
 40
40.541667
 50
167.247845
 51
192.752155
  0
ARC
  8
CSLAYER1
  6
CONTINUOUS
 62
     7
 10
111.810088
 20
678.576607
 40
10.510122
 50
154.803178
 51
205.196822
  0
LINE
  8
CSLAYER1
  6
CONTINUOUS
 62
     7
 10
63.999997
 20
683.500000
 11
63.499997
 21
683.500000
  0
LINE
  8
CSLAYER1
  6
CONTINUOUS
 62
     7
 10
63.999997
 20
683.500000
 11
63.999997
 21
692.000000
  0
LINE
  8
CSLAYER1
  6
CONTINUOUS
 62
     7
 10
62.499997
 20
652.000000
 11
56.499997
 21
652.000000
  0
ARC
  8
CSLAYER1
  6
CONTINUOUS
 62
     7
 10
56.499997
 20
658.000000
 40
6.000000
 50
138.590378
 51
270.000000
  0
LINE
  8
CSLAYER1
  6
CONTINUOUS
 62
     7
 10
63.499997
 20
653.000000
 11
63.499997
 21
692.000000
  0
ARC
  8
CSLAYER1
  6
CONTINUOUS
 62
     7
 10
56.499997
 20
692.000000
 40
6.000000
 50
180.000000
 51
213.557310
  0
LINE
  8
CSLAYER1
  6
CONTINUOUS
 62
     7
 10
51.999997
 20
661.968627
 11
51.999997
 21
662.983433
  0
LINE
  8
CSLAYER1
  6
CONTINUOUS
 62
     7
 10
51.999997
 20
672.933307
 11
51.999997
 21
687.025063
  0
ARC
  8
CSLAYER1
  6
CONTINUOUS
 62
     7
 10
48.999997
 20
662.983433
 40
3.000000
 50
0.000000
 51
33.557310
  0
ARC
  8
CSLAYER1
  6
CONTINUOUS
 62
     7
 10
48.999997
 20
672.933307
 40
3.000000
 50
326.442690
 51
360.000000
  0
ARC
  8
CSLAYER1
  6
CONTINUOUS
 62
     7
 10
48.999997
 20
687.025063
 40
3.000000
 50
0.000000
 51
33.557310
  0
ARC
  8
CSLAYER1
  6
CONTINUOUS
 62
     7
 10
56.499997
 20
667.958370
 40
6.000000
 50
146.442690
 51
270.000000
  0
LINE
  8
CSLAYER1
  6
CONTINUOUS
 62
     7
 10
56.499997
 20
661.958370
 11
62.499997
 21
661.958370
  0
ARC
  8
CSLAYER1
  6
CONTINUOUS
 62
     7
 10
62.499997
 20
653.000000
 40
1.000000
 50
270.000000
 51
360.000000
  0
ARC
  8
CSLAYER1
  6
CONTINUOUS
 62
     7
 10
62.499997
 20
662.958370
 40
1.000000
 50
270.000000
 51
360.000000
  0
LINE
  8
CSLAYER1
  6
CONTINUOUS
 62
     7
 10
51.826185
 20
688.031373
 11
63.499997
 21
688.031373
  0
LINE
  8
CSLAYER1
  6
CONTINUOUS
 62
     7
 10
51.826185
 20
671.926997
 11
63.499997
 21
671.926997
  0
LINE
  8
CSLAYER1
  6
CONTINUOUS
 62
     7
 10
63.999997
 20
700.500000
 11
63.499997
 21
700.500000
  0
LINE
  8
CSLAYER1
  6
CONTINUOUS
 62
     7
 10
63.999997
 20
700.500000
 11
63.999997
 21
692.000000
  0
LINE
  8
CSLAYER1
  6
CONTINUOUS
 62
     7
 10
62.499997
 20
732.000000
 11
56.499997
 21
732.000000
  0
ARC
  8
CSLAYER1
  6
CONTINUOUS
 62
     7
 10
56.499997
 20
726.000000
 40
6.000000
 50
90.000000
 51
221.409622
  0
LINE
  8
CSLAYER1
  6
CONTINUOUS
 62
     7
 10
63.499997
 20
731.000000
 11
63.499997
 21
692.000000
  0
ARC
  8
CSLAYER1
  6
CONTINUOUS
 62
     7
 10
56.499997
 20
692.000000
 40
6.000000
 50
146.442690
 51
180.000000
  0
LINE
  8
CSLAYER1
  6
CONTINUOUS
 62
     7
 10
51.999997
 20
722.031373
 11
51.999997
 21
721.016568
  0
LINE
  8
CSLAYER1
  6
CONTINUOUS
 62
     7
 10
51.999997
 20
711.066694
 11
51.999997
 21
696.974938
  0
ARC
  8
CSLAYER1
  6
CONTINUOUS
 62
     7
 10
48.999997
 20
721.016568
 40
3.000000
 50
326.442690
 51
360.000000
  0
ARC
  8
CSLAYER1
  6
CONTINUOUS
 62
     7
 10
48.999997
 20
711.066694
 40
3.000000
 50
0.000000
 51
33.557310
  0
ARC
  8
CSLAYER1
  6
CONTINUOUS
 62
     7
 10
48.999997
 20
696.974938
 40
3.000000
 50
326.442690
 51
360.000000
  0
ARC
  8
CSLAYER1
  6
CONTINUOUS
 62
     7
 10
56.499997
 20
716.041631
 40
6.000000
 50
90.000000
 51
213.557310
  0
LINE
  8
CSLAYER1
  6
CONTINUOUS
 62
     7
 10
56.499997
 20
722.041631
 11
62.499997
 21
722.041631
  0
ARC
  8
CSLAYER1
  6
CONTINUOUS
 62
     7
 10
62.499997
 20
731.000000
 40
1.000000
 50
0.000000
 51
90.000000
  0
ARC
  8
CSLAYER1
  6
CONTINUOUS
 62
     7
 10
62.499997
 20
721.041631
 40
1.000000
 50
0.000000
 51
90.000000
  0
LINE
  8
CSLAYER1
  6
CONTINUOUS
 62
     7
 10
51.826185
 20
695.968627
 11
63.499997
 21
695.968627
  0
LINE
  8
CSLAYER1
  6
CONTINUOUS
 62
     7
 10
51.826185
 20
712.073004
 11
63.499997
 21
712.073004
  0
LINE
  8
CSLAYER1
  6
CONTINUOUS
 62
     7
 10
45.999997
 20
688.000000
 11
46.499997
 21
688.000000
  0
LINE
  8
CSLAYER1
  6
CONTINUOUS
 62
     7
 10
45.698755
 20
688.625000
 11
46.499997
 21
688.625000
  0
ARC
  8
CSLAYER1
  6
CONTINUOUS
 62
     7
 10
53.499997
 20
692.000000
 40
8.500000
 50
180.000000
 51
208.072487
  0
LINE
  8
CSLAYER1
  6
CONTINUOUS
 62
     7
 10
45.999997
 20
688.000000
 11
45.999997
 21
692.000000
  0
LINE
  8
CSLAYER1
  6
CONTINUOUS
 62
     7
 10
47.080554
 20
684.494447
 11
51.999997
 21
684.494447
  0
LINE
  8
CSLAYER1
  6
CONTINUOUS
 62
     7
 10
46.499997
 20
685.500000
 11
46.499997
 21
692.000000
  0
LINE
  8
CSLAYER1
  6
CONTINUOUS
 62
     7
 10
47.080554
 20
688.247224
 11
51.739764
 21
688.247224
  0
LINE
  8
CSLAYER1
  6
CONTINUOUS
 62
     7
 10
46.499997
 20
685.500000
 11
47.080554
 21
684.494447
  0
ARC
  8
CSLAYER1
  6
CONTINUOUS
 62
     7
 10
50.503562
 20
686.370835
 40
3.903565
 50
151.269798
 51
208.730202
  0
ARC
  8
CSLAYER1
  6
CONTINUOUS
 62
     7
 10
61.493423
 20
692.000000
 40
14.893426
 50
180.000000
 51
194.594436
  0
LINE
  8
CSLAYER1
  6
CONTINUOUS
 62
     7
 10
45.999997
 20
696.000000
 11
46.499997
 21
696.000000
  0
LINE
  8
CSLAYER1
  6
CONTINUOUS
 62
     7
 10
45.698755
 20
695.375000
 11
46.499997
 21
695.375000
  0
ARC
  8
CSLAYER1
  6
CONTINUOUS
 62
     7
 10
53.499997
 20
692.000000
 40
8.500000
 50
151.927513
 51
180.000000
  0
LINE
  8
CSLAYER1
  6
CONTINUOUS
 62
     7
 10
45.999997
 20
696.000000
 11
45.999997
 21
692.000000
  0
LINE
  8
CSLAYER1
  6
CONTINUOUS
 62
     7
 10
47.080554
 20
699.505554
 11
51.999997
 21
699.505554
  0
LINE
  8
CSLAYER1
  6
CONTINUOUS
 62
     7
 10
46.499997
 20
698.500000
 11
46.499997
 21
692.000000
  0
LINE
  8
CSLAYER1
  6
CONTINUOUS
 62
     7
 10
47.080554
 20
695.752777
 11
51.739764
 21
695.752777
  0
LINE
  8
CSLAYER1
  6
CONTINUOUS
 62
     7
 10
46.499997
 20
698.500000
 11
47.080554
 21
699.505554
  0
ARC
  8
CSLAYER1
  6
CONTINUOUS
 62
     7
 10
50.503562
 20
697.629166
 40
3.903565
 50
151.269798
 51
208.730202
  0
ARC
  8
CSLAYER1
  6
CONTINUOUS
 62
     7
 10
61.493423
 20
692.000000
 40
14.893426
 50
165.405564
 51
180.000000
  0
LINE
  8
CSLAYER1
  6
CONTINUOUS
 62
     7
 10
118.299997
 20
715.000000
 11
118.799997
 21
714.500000
  0
LINE
  8
CSLAYER1
  6
CONTINUOUS
 62
     7
 10
118.299997
 20
669.000000
 11
118.799997
 21
669.500000
  0
CIRCLE
  8
CSLAYER1
  6
CONTINUOUS
 62
     7
 10
294.799997
 20
692.000000
 40
169.000000
  0
ARC
  8
CSLAYER1
  6
CONTINUOUS
 62
     7
 10
126.097592
 20
725.518628
 40
3.000000
 50
272.862405
 51
348.762535
  0
ARC
  8
CSLAYER1
  6
CONTINUOUS
 62
     7
 10
126.097592
 20
658.481373
 40
3.000000
 50
11.237465
 51
87.137595
  0
CIRCLE
  8
CSLAYER1
  6
CENTER
 62
     7
 10
294.799997
 20
692.000000
 40
145.000000
  0
LINE
  8
CSLAYER1
  6
CENTER
 62
     7
 10
203.936776
 20
782.863222
 11
180.602252
 21
806.197746
  0
LINE
  8
CSLAYER1
  6
CENTER
 62
     7
 10
261.541750
 20
816.121469
 11
253.000721
 21
847.997021
  0
CIRCLE
  8
CSLAYER1
  6
CONTINUOUS
 62
     7
 10
257.271236
 20
832.059245
 40
11.500000
  0
CIRCLE
  8
CSLAYER1
  6
CONTINUOUS
 62
     7
 10
192.269514
 20
794.530484
 40
11.500000
  0
LINE
  8
CSLAYER1
  6
CENTER
 62
     7
 10
170.678529
 20
725.258248
 11
138.802976
 21
733.799276
  0
CIRCLE
  8
CSLAYER1
  6
CONTINUOUS
 62
     7
 10
154.740752
 20
729.528762
 40
11.500000
  0
LINE
  8
CSLAYER1
  6
CENTER
 62
     7
 10
385.663219
 20
782.863222
 11
408.997742
 21
806.197746
  0
LINE
  8
CSLAYER1
  6
CENTER
 62
     7
 10
328.058245
 20
816.121469
 11
336.599273
 21
847.997021
  0
CIRCLE
  8
CSLAYER1
  6
CONTINUOUS
 62
     7
 10
332.328759
 20
832.059245
 40
11.500000
  0
CIRCLE
  8
CSLAYER1
  6
CONTINUOUS
 62
     7
 10
397.330481
 20
794.530484
 40
11.500000
  0
LINE
  8
CSLAYER1
  6
CENTER
 62
     7
 10
418.921466
 20
725.258248
 11
450.797018
 21
733.799276
  0
CIRCLE
  8
CSLAYER1
  6
CONTINUOUS
 62
     7
 10
434.859242
 20
729.528762
 40
11.500000
  0
LINE
  8
CSLAYER1
  6
CENTER
 62
     7
 10
203.936776
 20
601.136779
 11
180.602252
 21
577.802255
  0
LINE
  8
CSLAYER1
  6
CENTER
 62
     7
 10
261.541750
 20
567.878532
 11
253.000721
 21
536.002980
  0
CIRCLE
  8
CSLAYER1
  6
CONTINUOUS
 62
     7
 10
257.271236
 20
551.940756
 40
11.500000
  0
CIRCLE
  8
CSLAYER1
  6
CONTINUOUS
 62
     7
 10
192.269514
 20
589.469517
 40
11.500000
  0
LINE
  8
CSLAYER1
  6
CENTER
 62
     7
 10
170.678529
 20
658.741753
 11
138.802976
 21
650.200725
  0
CIRCLE
  8
CSLAYER1
  6
CONTINUOUS
 62
     7
 10
154.740752
 20
654.471239
 40
11.500000
  0
LINE
  8
CSLAYER1
  6
CENTER
 62
     7
 10
385.663219
 20
601.136779
 11
408.997742
 21
577.802255
  0
LINE
  8
CSLAYER1
  6
CENTER
 62
     7
 10
328.058245
 20
567.878532
 11
336.599273
 21
536.002980
  0
CIRCLE
  8
CSLAYER1
  6
CONTINUOUS
 62
     7
 10
332.328759
 20
551.940756
 40
11.500000
  0
CIRCLE
  8
CSLAYER1
  6
CONTINUOUS
 62
     7
 10
397.330481
 20
589.469517
 40
11.500000
  0
LINE
  8
CSLAYER1
  6
CENTER
 62
     7
 10
418.921466
 20
658.741753
 11
450.797018
 21
650.200725
  0
CIRCLE
  8
CSLAYER1
  6
CONTINUOUS
 62
     7
 10
434.859242
 20
654.471239
 40
11.500000
  0
CIRCLE
  8
CSLAYER1
  6
CONTINUOUS
 62
     7
 10
294.799997
 20
692.000000
 40
100.000000
  0
INSERT
  8
CSLAYER1
  2
BLKF0000
 10
0.0
 20
0.0
 30
0.0
  0
INSERT
  8
CSLAYER1
  2
BLKF0001
 10
0.0
 20
0.0
 30
0.0
  0
INSERT
  8
CSLAYER1
  2
BLKF0002
 10
0.0
 20
0.0
 30
0.0
  0
LINE
  8
CSLAYER1
  6
CONTINUOUS
 62
     7
 10
670.799997
 20
197.000000
 11
714.799997
 21
197.000000
  0
LINE
  8
CSLAYER1
  6
CONTINUOUS
 62
     7
 10
670.799997
 20
147.000000
 11
714.799997
 21
147.000000
  0
LINE
  8
CSLAYER1
  6
CONTINUOUS
 62
     7
 10
667.799997
 20
194.000000
 11
667.799997
 21
150.000000
  0
LINE
  8
CSLAYER1
  6
CONTINUOUS
 62
     7
 10
717.799997
 20
194.000000
 11
717.799997
 21
150.000000
  0
ARC
  8
CSLAYER1
  6
CONTINUOUS
 62
     7
 10
670.799997
 20
194.000000
 40
3.000000
 50
90.000000
 51
180.000000
  0
ARC
  8
CSLAYER1
  6
CONTINUOUS
 62
     7
 10
714.799997
 20
194.000000
 40
3.000000
 50
0.000000
 51
90.000000
  0
ARC
  8
CSLAYER1
  6
CONTINUOUS
 62
     7
 10
670.799997
 20
150.000000
 40
3.000000
 50
180.000000
 51
270.000000
  0
ARC
  8
CSLAYER1
  6
CONTINUOUS
 62
     7
 10
714.799997
 20
150.000000
 40
3.000000
 50
270.000000
 51
360.000000
  0
LINE
  8
CSLAYER2
  6
CONTINUOUS
 62
     7
 10
213.799997
 20
294.000000
 11
213.799997
 21
219.000000
  0
LINE
  8
CSLAYER1
  6
CONTINUOUS
 62
     7
 10
208.799997
 20
219.000000
 11
213.799997
 21
219.000000
  0
LINE
  8
CSLAYER1
  6
CONTINUOUS
 62
     7
 10
208.799997
 20
264.000000
 11
198.799997
 21
264.000000
  0
LINE
  8
CSLAYER2
  6
CONTINUOUS
 62
     7
 10
208.799997
 20
264.000000
 11
208.799997
 21
219.000000
  0
LINE
  8
CSLAYER1
  6
CONTINUOUS
 62
     7
 10
213.799997
 20
294.000000
 11
198.799997
 21
264.000000
  0
CIRCLE
  8
CSLAYER1
  6
CONTINUOUS
 62
     7
 10
294.799997
 20
324.000000
 40
15.000000
  0
LINE
  8
CSLAYER1
  6
CONTINUOUS
 62
     7
 10
227.904716
 20
266.999994
 11
231.279717
 21
266.999994
  0
LINE
  8
CSLAYER1
  6
CONTINUOUS
 62
     7
 10
227.904716
 20
294.000000
 11
231.279717
 21
294.000000
  0
LINE
  8
CSLAYER1
  6
CONTINUOUS
 62
     7
 10
227.904716
 20
294.000000
 11
227.904716
 21
266.999994
  0
LINE
  8
CSLAYER1
  6
CONTINUOUS
 62
     7
 10
231.279717
 20
294.000000
 11
231.279717
 21
266.999994
  0
LINE
  8
CSLAYER1
  6
CONTINUOUS
 62
     7
 10
237.279717
 20
289.499999
 11
237.279717
 21
284.316041
  0
LINE
  8
CSLAYER1
  6
CONTINUOUS
 62
     7
 10
253.029721
 20
289.499999
 11
253.029721
 21
287.812499
  0
LINE
  8
CSLAYER1
  6
CONTINUOUS
 62
     7
 10
240.654717
 20
288.374999
 11
240.654717
 21
285.179284
  0
LINE
  8
CSLAYER1
  6
CONTINUOUS
 62
     7
 10
259.029721
 20
294.000000
 11
259.029721
 21
266.999994
  0
LINE
  8
CSLAYER1
  6
CONTINUOUS
 62
     7
 10
262.404721
 20
294.000000
 11
262.404721
 21
282.187497
  0
LINE
  8
CSLAYER1
  6
CONTINUOUS
 62
     7
 10
271.404724
 20
294.000000
 11
271.404724
 21
282.187497
  0
LINE
  8
CSLAYER1
  6
CONTINUOUS
 62
     7
 10
274.779724
 20
294.000000
 11
274.779724
 21
266.999994
  0
LINE
  8
CSLAYER1
  6
CONTINUOUS
 62
     7
 10
262.404721
 20
282.187497
 11
271.404724
 21
282.187497
  0
LINE
  8
CSLAYER1
  6
CONTINUOUS
 62
     7
 10
262.404721
 20
278.812497
 11
271.404724
 21
278.812497
  0
LINE
  8
CSLAYER1
  6
CONTINUOUS
 62
     7
 10
280.779724
 20
294.000000
 11
280.779724
 21
266.999994
  0
LINE
  8
CSLAYER1
  6
CONTINUOUS
 62
     7
 10
284.154725
 20
294.000000
 11
284.154725
 21
266.999994
  0
LINE
  8
CSLAYER1
  6
CONTINUOUS
 62
     7
 10
290.154725
 20
294.000000
 11
290.154725
 21
290.625000
  0
LINE
  8
CSLAYER1
  6
CONTINUOUS
 62
     7
 10
305.904729
 20
294.000000
 11
305.904729
 21
290.062499
  0
LINE
  8
CSLAYER1
  6
CONTINUOUS
 62
     7
 10
290.154725
 20
290.625000
 11
301.735611
 21
290.625000
  0
LINE
  8
CSLAYER1
  6
CONTINUOUS
 62
     7
 10
294.323844
 20
270.374995
 11
305.904729
 21
270.374995
  0
LINE
  8
CSLAYER1
  6
CONTINUOUS
 62
     7
 10
301.735611
 20
290.625000
 11
290.154725
 21
270.937495
  0
LINE
  8
CSLAYER1
  6
CONTINUOUS
 62
     7
 10
294.323844
 20
270.374995
 11
305.904729
 21
290.062499
  0
LINE
  8
CSLAYER1
  6
CONTINUOUS
 62
     7
 10
305.904729
 20
270.374995
 11
305.904729
 21
266.999994
  0
LINE
  8
CSLAYER1
  6
CONTINUOUS
 62
     7
 10
290.154725
 20
270.937495
 11
290.154725
 21
266.999994
  0
LINE
  8
CSLAYER1
  6
CONTINUOUS
 62
     7
 10
318.948209
 20
294.000000
 11
311.904729
 21
266.999994
  0
LINE
  8
CSLAYER1
  6
CONTINUOUS
 62
     7
 10
323.154732
 20
294.000000
 11
330.198212
 21
266.999994
  0
LINE
  8
CSLAYER1
  6
CONTINUOUS
 62
     7
 10
321.051471
 20
288.692027
 11
324.509174
 21
275.437496
  0
LINE
  8
CSLAYER1
  6
CONTINUOUS
 62
     7
 10
321.051471
 20
288.692027
 11
317.593767
 21
275.437496
  0
LINE
  8
CSLAYER1
  6
CONTINUOUS
 62
     7
 10
316.713332
 20
272.062495
 11
325.389609
 21
272.062495
  0
LINE
  8
CSLAYER1
  6
CONTINUOUS
 62
     7
 10
317.593767
 20
275.437496
 11
324.509174
 21
275.437496
  0
LINE
  8
CSLAYER1
  6
CONTINUOUS
 62
     7
 10
316.713332
 20
272.062495
 11
315.392679
 21
266.999994
  0
LINE
  8
CSLAYER1
  6
CONTINUOUS
 62
     7
 10
325.389609
 20
272.062495
 11
326.710262
 21
266.999994
  0
LINE
  8
CSLAYER1
  6
CONTINUOUS
 62
     7
 10
336.198212
 20
294.000000
 11
336.198212
 21
266.999994
  0
LINE
  8
CSLAYER1
  6
CONTINUOUS
 62
     7
 10
339.573213
 20
294.000000
 11
339.573213
 21
284.437498
  0
LINE
  8
CSLAYER1
  6
CONTINUOUS
 62
     7
 10
347.940403
 20
294.000000
 11
339.573213
 21
284.437498
  0
LINE
  8
CSLAYER1
  6
CONTINUOUS
 62
     7
 10
352.424996
 20
294.000000
 11
345.732198
 21
286.351088
  0
LINE
  8
CSLAYER1
  6
CONTINUOUS
 62
     7
 10
345.732198
 20
286.351088
 11
352.134314
 21
266.999994
  0
LINE
  8
CSLAYER1
  6
CONTINUOUS
 62
     7
 10
343.152629
 20
283.403009
 11
348.579402
 21
266.999994
  0
LINE
  8
CSLAYER1
  6
CONTINUOUS
 62
     7
 10
339.573213
 20
279.312248
 11
339.573213
 21
266.999994
  0
LINE
  8
CSLAYER1
  6
CONTINUOUS
 62
     7
 10
343.152629
 20
283.403009
 11
339.573213
 21
279.312248
  0
LINE
  8
CSLAYER1
  6
CONTINUOUS
 62
     7
 10
358.424996
 20
294.000000
 11
358.424996
 21
266.999994
  0
LINE
  8
CSLAYER1
  6
CONTINUOUS
 62
     7
 10
361.799997
 20
294.000000
 11
361.799997
 21
266.999994
  0
LINE
  8
CSLAYER1
  6
CONTINUOUS
 62
     7
 10
242.904718
 20
290.625000
 11
247.404719
 21
290.625000
  0
LINE
  8
CSLAYER1
  6
CONTINUOUS
 62
     7
 10
242.904718
 20
270.374995
 11
247.404719
 21
270.374995
  0
LINE
  8
CSLAYER1
  6
CONTINUOUS
 62
     7
 10
249.654720
 20
287.812499
 11
253.029721
 21
287.812499
  0
LINE
  8
CSLAYER1
  6
CONTINUOUS
 62
     7
 10
237.279717
 20
273.187495
 11
240.654717
 21
273.187495
  0
LINE
  8
CSLAYER1
  6
CONTINUOUS
 62
     7
 10
237.279717
 20
273.187495
 11
237.279717
 21
271.499995
  0
LINE
  8
CSLAYER1
  6
CONTINUOUS
 62
     7
 10
249.654720
 20
275.820710
 11
249.654720
 21
272.624995
  0
LINE
  8
CSLAYER1
  6
CONTINUOUS
 62
     7
 10
242.322375
 20
283.005950
 11
249.694405
 21
281.030621
  0
LINE
  8
CSLAYER1
  6
CONTINUOUS
 62
     7
 10
240.615032
 20
279.969374
 11
247.987062
 21
277.994044
  0
ARC
  8
CSLAYER1
  6
CONTINUOUS
 62
     7
 10
242.904718
 20
288.374999
 40
2.250001
 50
90.000000
 51
180.000000
  0
ARC
  8
CSLAYER1
  6
CONTINUOUS
 62
     7
 10
247.404719
 20
288.374999
 40
2.250001
 50
0.000000
 51
90.000000
  0
ARC
  8
CSLAYER1
  6
CONTINUOUS
 62
     7
 10
242.904718
 20
285.179284
 40
2.250001
 50
180.000000
 51
255.000000
  0
ARC
  8
CSLAYER1
  6
CONTINUOUS
 62
     7
 10
247.404719
 20
275.820710
 40
2.250001
 50
0.000000
 51
75.000000
  0
ARC
  8
CSLAYER1
  6
CONTINUOUS
 62
     7
 10
247.404719
 20
272.624995
 40
2.250001
 50
270.000000
 51
360.000000
  0
ARC
  8
CSLAYER1
  6
CONTINUOUS
 62
     7
 10
242.904718
 20
272.624995
 40
2.250001
 50
180.000000
 51
270.000000
  0
LINE
  8
CSLAYER1
  6
CONTINUOUS
 62
     7
 10
241.779718
 20
294.000000
 11
248.529719
 21
294.000000
  0
LINE
  8
CSLAYER1
  6
CONTINUOUS
 62
     7
 10
241.779718
 20
266.999994
 11
248.529719
 21
266.999994
  0
LINE
  8
CSLAYER1
  6
CONTINUOUS
 62
     7
 10
259.029721
 20
294.000000
 11
262.404721
 21
294.000000
  0
LINE
  8
CSLAYER1
  6
CONTINUOUS
 62
     7
 10
259.029721
 20
266.999994
 11
262.404721
 21
266.999994
  0
LINE
  8
CSLAYER1
  6
CONTINUOUS
 62
     7
 10
280.779724
 20
266.999994
 11
284.154725
 21
266.999994
  0
LINE
  8
CSLAYER1
  6
CONTINUOUS
 62
     7
 10
280.779724
 20
294.000000
 11
284.154725
 21
294.000000
  0
LINE
  8
CSLAYER1
  6
CONTINUOUS
 62
     7
 10
271.404724
 20
294.000000
 11
274.779724
 21
294.000000
  0
LINE
  8
CSLAYER1
  6
CONTINUOUS
 62
     7
 10
271.404724
 20
266.999994
 11
274.779724
 21
266.999994
  0
LINE
  8
CSLAYER1
  6
CONTINUOUS
 62
     7
 10
290.154725
 20
294.000000
 11
305.904729
 21
294.000000
  0
LINE
  8
CSLAYER1
  6
CONTINUOUS
 62
     7
 10
290.154725
 20
266.999994
 11
305.904729
 21
266.999994
  0
LINE
  8
CSLAYER1
  6
CONTINUOUS
 62
     7
 10
318.801470
 20
294.000000
 11
323.301471
 21
294.000000
  0
LINE
  8
CSLAYER1
  6
CONTINUOUS
 62
     7
 10
311.904729
 20
266.999994
 11
315.392679
 21
266.999994
  0
LINE
  8
CSLAYER1
  6
CONTINUOUS
 62
     7
 10
326.710262
 20
266.999994
 11
330.198212
 21
266.999994
  0
LINE
  8
CSLAYER1
  6
CONTINUOUS
 62
     7
 10
336.198212
 20
266.999994
 11
339.573213
 21
266.999994
  0
LINE
  8
CSLAYER1
  6
CONTINUOUS
 62
     7
 10
348.579402
 20
266.999994
 11
352.134314
 21
266.999994
  0
LINE
  8
CSLAYER1
  6
CONTINUOUS
 62
     7
 10
358.424996
 20
266.999994
 11
361.799997
 21
266.999994
  0
LINE
  8
CSLAYER1
  6
CONTINUOUS
 62
     7
 10
358.424996
 20
294.000000
 11
361.799997
 21
294.000000
  0
LINE
  8
CSLAYER1
  6
CONTINUOUS
 62
     7
 10
347.940403
 20
294.000000
 11
352.424996
 21
294.000000
  0
LINE
  8
CSLAYER1
  6
CONTINUOUS
 62
     7
 10
336.198212
 20
294.000000
 11
339.573213
 21
294.000000
  0
ARC
  8
CSLAYER1
  6
CONTINUOUS
 62
     7
 10
241.779718
 20
289.499999
 40
4.500001
 50
90.000000
 51
180.000000
  0
ARC
  8
CSLAYER1
  6
CONTINUOUS
 62
     7
 10
248.529719
 20
289.499999
 40
4.500001
 50
0.000000
 51
90.000000
  0
ARC
  8
CSLAYER1
  6
CONTINUOUS
 62
     7
 10
241.779718
 20
284.316041
 40
4.500001
 50
180.000000
 51
255.000000
  0
ARC
  8
CSLAYER1
  6
CONTINUOUS
 62
     7
 10
248.529719
 20
276.683953
 40
4.500001
 50
0.000000
 51
75.000000
  0
ARC
  8
CSLAYER1
  6
CONTINUOUS
 62
     7
 10
248.529719
 20
271.499995
 40
4.500001
 50
270.000000
 51
360.000000
  0
ARC
  8
CSLAYER1
  6
CONTINUOUS
 62
     7
 10
241.779718
 20
271.499995
 40
4.500001
 50
180.000000
 51
270.000000
  0
LINE
  8
CSLAYER1
  6
CONTINUOUS
 62
     7
 10
262.404721
 20
278.812497
 11
262.404721
 21
266.999994
  0
LINE
  8
CSLAYER1
  6
CONTINUOUS
 62
     7
 10
271.404724
 20
278.812497
 11
271.404724
 21
266.999994
  0
LINE
  8
CSLAYER1
  6
CONTINUOUS
 62
     7
 10
253.029721
 20
276.683953
 11
253.029721
 21
271.499995
  0
LINE
  8
CSLAYER1
  6
CONTINUOUS
 62
     7
 10
249.654720
 20
287.812499
 11
249.654720
 21
288.374999
  0
LINE
  8
CSLAYER1
  6
CONTINUOUS
 62
     7
 10
240.654717
 20
272.624995
 11
240.654717
 21
273.187495
  0
LINE
  8
CSLAYER1
  6
CONTINUOUS
 62
     7
 10
234.361251
 20
219.000003
 11
237.736251
 21
219.000003
  0
LINE
  8
CSLAYER1
  6
CONTINUOUS
 62
     7
 10
234.361251
 20
246.000000
 11
237.736251
 21
246.000000
  0
LINE
  8
CSLAYER1
  6
CONTINUOUS
 62
     7
 10
234.361251
 20
241.304349
 11
234.361251
 21
219.000003
  0
LINE
  8
CSLAYER1
  6
CONTINUOUS
 62
     7
 10
249.565796
 20
246.000000
 11
253.656713
 21
246.000000
  0
LINE
  8
CSLAYER1
  6
CONTINUOUS
 62
     7
 10
287.713042
 20
231.344690
 11
301.799997
 21
231.344690
  0
LINE
  8
CSLAYER1
  6
CONTINUOUS
 62
     7
 10
287.713042
 20
233.692516
 11
301.799997
 21
233.692516
  0
LINE
  8
CSLAYER1
  6
CONTINUOUS
 62
     7
 10
287.713042
 20
233.692516
 11
287.713042
 21
231.344690
  0
LINE
  8
CSLAYER1
  6
CONTINUOUS
 62
     7
 10
301.799997
 20
233.692516
 11
301.799997
 21
231.344690
  0
LINE
  8
CSLAYER1
  6
CONTINUOUS
 62
     7
 10
233.187338
 20
241.304349
 11
234.361251
 21
241.304349
  0
LINE
  8
CSLAYER1
  6
CONTINUOUS
 62
     7
 10
234.361251
 20
246.000000
 11
233.187338
 21
241.304349
  0
LINE
  8
CSLAYER1
  6
CONTINUOUS
 62
     7
 10
243.736251
 20
240.130436
 11
243.736251
 21
224.869567
  0
LINE
  8
CSLAYER1
  6
CONTINUOUS
 62
     7
 10
247.111250
 20
240.170455
 11
247.111250
 21
224.869567
  0
LINE
  8
CSLAYER1
  6
CONTINUOUS
 62
     7
 10
249.565796
 20
242.625001
 11
253.656713
 21
242.625001
  0
ARC
  8
CSLAYER1
  6
CONTINUOUS
 62
     7
 10
249.565796
 20
240.170455
 40
2.454545
 50
90.000000
 51
180.000000
  0
ARC
  8
CSLAYER1
  6
CONTINUOUS
 62
     7
 10
249.565796
 20
240.170455
 40
5.829545
 50
90.000000
 51
180.000000
  0
ARC
  8
CSLAYER1
  6
CONTINUOUS
 62
     7
 10
249.565796
 20
224.829548
 40
2.454545
 50
180.000000
 51
270.000000
  0
ARC
  8
CSLAYER1
  6
CONTINUOUS
 62
     7
 10
249.565796
 20
224.829548
 40
5.829545
 50
180.000000
 51
270.000000
  0
LINE
  8
CSLAYER1
  6
CONTINUOUS
 62
     7
 10
259.486258
 20
240.130436
 11
259.486258
 21
224.869567
  0
LINE
  8
CSLAYER1
  6
CONTINUOUS
 62
     7
 10
256.111258
 20
240.170455
 11
256.111258
 21
224.869567
  0
ARC
  8
CSLAYER1
  6
CONTINUOUS
 62
     7
 10
253.656713
 20
240.170455
 40
2.454545
 50
0.000000
 51
90.000000
  0
ARC
  8
CSLAYER1
  6
CONTINUOUS
 62
     7
 10
253.656713
 20
240.170455
 40
5.829545
 50
0.000000
 51
90.000000
  0
ARC
  8
CSLAYER1
  6
CONTINUOUS
 62
     7
 10
253.656713
 20
224.829548
 40
2.454545
 50
270.000000
 51
360.000000
  0
ARC
  8
CSLAYER1
  6
CONTINUOUS
 62
     7
 10
253.656713
 20
224.829548
 40
5.829545
 50
270.000000
 51
360.000000
  0
LINE
  8
CSLAYER1
  6
CONTINUOUS
 62
     7
 10
249.565796
 20
222.375002
 11
253.656713
 21
222.375002
  0
LINE
  8
CSLAYER1
  6
CONTINUOUS
 62
     7
 10
249.565796
 20
219.000003
 11
253.656713
 21
219.000003
  0
LINE
  8
CSLAYER1
  6
CONTINUOUS
 62
     7
 10
237.736251
 20
246.000000
 11
237.736251
 21
219.000003
  0
LINE
  8
CSLAYER1
  6
CONTINUOUS
 62
     7
 10
335.379550
 20
246.000000
 11
339.470467
 21
246.000000
  0
LINE
  8
CSLAYER1
  6
CONTINUOUS
 62
     7
 10
329.550005
 20
240.130436
 11
329.550005
 21
224.869567
  0
LINE
  8
CSLAYER1
  6
CONTINUOUS
 62
     7
 10
332.925005
 20
240.170455
 11
332.925005
 21
224.869567
  0
LINE
  8
CSLAYER1
  6
CONTINUOUS
 62
     7
 10
335.379550
 20
242.625001
 11
339.470467
 21
242.625001
  0
ARC
  8
CSLAYER1
  6
CONTINUOUS
 62
     7
 10
335.379550
 20
240.170455
 40
2.454545
 50
90.000000
 51
180.000000
  0
ARC
  8
CSLAYER1
  6
CONTINUOUS
 62
     7
 10
335.379550
 20
240.170455
 40
5.829545
 50
90.000000
 51
180.000000
  0
ARC
  8
CSLAYER1
  6
CONTINUOUS
 62
     7
 10
335.379550
 20
224.829548
 40
2.454545
 50
180.000000
 51
270.000000
  0
ARC
  8
CSLAYER1
  6
CONTINUOUS
 62
     7
 10
335.379550
 20
224.829548
 40
5.829545
 50
180.000000
 51
270.000000
  0
LINE
  8
CSLAYER1
  6
CONTINUOUS
 62
     7
 10
345.300012
 20
240.130436
 11
345.300012
 21
224.869567
  0
LINE
  8
CSLAYER1
  6
CONTINUOUS
 62
     7
 10
341.925013
 20
240.170455
 11
341.925013
 21
224.869567
  0
ARC
  8
CSLAYER1
  6
CONTINUOUS
 62
     7
 10
339.470467
 20
240.170455
 40
2.454545
 50
0.000000
 51
90.000000
  0
ARC
  8
CSLAYER1
  6
CONTINUOUS
 62
     7
 10
339.470467
 20
240.170455
 40
5.829545
 50
0.000000
 51
90.000000
  0
ARC
  8
CSLAYER1
  6
CONTINUOUS
 62
     7
 10
339.470467
 20
224.829548
 40
2.454545
 50
270.000000
 51
360.000000
  0
ARC
  8
CSLAYER1
  6
CONTINUOUS
 62
     7
 10
339.470467
 20
224.829548
 40
5.829545
 50
270.000000
 51
360.000000
  0
LINE
  8
CSLAYER1
  6
CONTINUOUS
 62
     7
 10
335.379550
 20
222.375002
 11
339.470467
 21
222.375002
  0
LINE
  8
CSLAYER1
  6
CONTINUOUS
 62
     7
 10
335.379550
 20
219.000003
 11
339.470467
 21
219.000003
  0
LINE
  8
CSLAYER1
  6
CONTINUOUS
 62
     7
 10
307.799997
 20
219.000000
 11
307.799997
 21
225.750000
  0
LINE
  8
CSLAYER1
  6
CONTINUOUS
 62
     7
 10
307.799997
 20
219.000000
 11
323.550005
 21
219.000000
  0
LINE
  8
CSLAYER1
  6
CONTINUOUS
 62
     7
 10
314.843475
 20
246.000000
 11
316.506527
 21
246.000000
  0
LINE
  8
CSLAYER1
  6
CONTINUOUS
 62
     7
 10
307.799997
 20
238.956522
 11
311.174997
 21
238.956522
  0
LINE
  8
CSLAYER1
  6
CONTINUOUS
 62
     7
 10
323.550005
 20
236.461957
 11
323.550005
 21
238.956522
  0
ARC
  8
CSLAYER1
  6
CONTINUOUS
 62
     7
 10
314.843475
 20
238.956522
 40
7.043478
 50
90.000000
 51
180.000000
  0
ARC
  8
CSLAYER1
  6
CONTINUOUS
 62
     7
 10
316.506527
 20
238.956522
 40
7.043478
 50
0.000000
 51
90.000000
  0
LINE
  8
CSLAYER1
  6
CONTINUOUS
 62
     7
 10
311.174997
 20
222.375000
 11
323.550005
 21
222.375000
  0
LINE
  8
CSLAYER1
  6
CONTINUOUS
 62
     7
 10
323.550005
 20
219.000000
 11
323.550005
 21
222.375000
  0
ARC
  8
CSLAYER1
  6
CONTINUOUS
 62
     7
 10
314.843475
 20
238.956522
 40
3.668478
 50
90.000000
 51
180.000000
  0
LINE
  8
CSLAYER1
  6
CONTINUOUS
 62
     7
 10
314.843475
 20
242.625000
 11
316.506527
 21
242.625000
  0
ARC
  8
CSLAYER1
  6
CONTINUOUS
 62
     7
 10
316.506527
 20
238.956522
 40
3.673387
 50
0.000000
 51
90.000000
  0
LINE
  8
CSLAYER1
  6
CONTINUOUS
 62
     7
 10
320.175005
 20
236.461957
 11
320.175005
 21
238.956522
  0
ARC
  8
CSLAYER1
  6
CONTINUOUS
 62
     7
 10
316.506527
 20
236.461957
 40
3.668478
 50
270.000000
 51
360.000000
  0
LINE
  8
CSLAYER1
  6
CONTINUOUS
 62
     7
 10
314.843475
 20
232.793479
 11
316.506527
 21
232.793479
  0
ARC
  8
CSLAYER1
  6
CONTINUOUS
 62
     7
 10
314.843475
 20
225.750000
 40
7.043478
 50
90.000000
 51
180.000000
  0
ARC
  8
CSLAYER1
  6
CONTINUOUS
 62
     7
 10
314.843475
 20
225.750000
 40
3.668478
 50
90.000000
 51
180.000000
  0
LINE
  8
CSLAYER1
  6
CONTINUOUS
 62
     7
 10
314.843475
 20
229.418479
 11
316.506527
 21
229.418479
  0
LINE
  8
CSLAYER1
  6
CONTINUOUS
 62
     7
 10
311.174997
 20
222.375000
 11
311.174997
 21
225.750000
  0
ARC
  8
CSLAYER1
  6
CONTINUOUS
 62
     7
 10
316.506527
 20
236.461957
 40
7.043478
 50
270.000000
 51
360.000000
  0
LINE
  8
CSLAYER1
  6
CONTINUOUS
 62
     7
 10
234.361251
 20
241.304349
 11
234.361251
 21
219.000003
  0
LINE
  8
CSLAYER1
  6
CONTINUOUS
 62
     7
 10
345.300012
 20
240.130436
 11
345.300012
 21
224.869567
  0
LINE
  8
CSLAYER1
  6
CONTINUOUS
 62
     7
 10
329.550005
 20
230.739131
 11
329.550005
 21
226.043479
  0
LINE
  8
CSLAYER1
  6
CONTINUOUS
 62
     7
 10
357.129557
 20
246.000000
 11
361.220474
 21
246.000000
  0
LINE
  8
CSLAYER1
  6
CONTINUOUS
 62
     7
 10
351.300012
 20
240.130436
 11
351.300012
 21
224.869567
  0
LINE
  8
CSLAYER1
  6
CONTINUOUS
 62
     7
 10
354.675012
 20
240.170455
 11
354.675012
 21
224.869567
  0
LINE
  8
CSLAYER1
  6
CONTINUOUS
 62
     7
 10
357.129557
 20
242.625001
 11
361.220474
 21
242.625001
  0
ARC
  8
CSLAYER1
  6
CONTINUOUS
 62
     7
 10
357.129557
 20
240.170455
 40
2.454545
 50
90.000000
 51
180.000000
  0
ARC
  8
CSLAYER1
  6
CONTINUOUS
 62
     7
 10
357.129557
 20
240.170455
 40
5.829545
 50
90.000000
 51
180.000000
  0
ARC
  8
CSLAYER1
  6
CONTINUOUS
 62
     7
 10
357.129557
 20
224.829548
 40
2.454545
 50
180.000000
 51
270.000000
  0
ARC
  8
CSLAYER1
  6
CONTINUOUS
 62
     7
 10
357.129557
 20
224.829548
 40
5.829545
 50
180.000000
 51
270.000000
  0
LINE
  8
CSLAYER1
  6
CONTINUOUS
 62
     7
 10
367.050019
 20
240.130436
 11
367.050019
 21
224.869567
  0
LINE
  8
CSLAYER1
  6
CONTINUOUS
 62
     7
 10
363.675020
 20
240.170455
 11
363.675020
 21
224.869567
  0
ARC
  8
CSLAYER1
  6
CONTINUOUS
 62
     7
 10
361.220474
 20
240.170455
 40
2.454545
 50
0.000000
 51
90.000000
  0
ARC
  8
CSLAYER1
  6
CONTINUOUS
 62
     7
 10
361.220474
 20
240.170455
 40
5.829545
 50
0.000000
 51
90.000000
  0
ARC
  8
CSLAYER1
  6
CONTINUOUS
 62
     7
 10
361.220474
 20
224.829548
 40
2.454545
 50
270.000000
 51
360.000000
  0
ARC
  8
CSLAYER1
  6
CONTINUOUS
 62
     7
 10
361.220474
 20
224.829548
 40
5.829545
 50
270.000000
 51
360.000000
  0
LINE
  8
CSLAYER1
  6
CONTINUOUS
 62
     7
 10
357.129557
 20
222.375002
 11
361.220474
 21
222.375002
  0
LINE
  8
CSLAYER1
  6
CONTINUOUS
 62
     7
 10
357.129557
 20
219.000003
 11
361.220474
 21
219.000003
  0
LINE
  8
CSLAYER1
  6
CONTINUOUS
 62
     7
 10
367.050019
 20
240.130436
 11
367.050019
 21
224.869567
  0
LINE
  8
CSLAYER1
  6
CONTINUOUS
 62
     7
 10
351.300012
 20
230.739131
 11
351.300012
 21
226.043479
  0
LINE
  8
CSLAYER2
  6
CONTINUOUS
 62
     7
 10
262.299997
 20
199.000000
 11
327.299997
 21
199.000000
  0
LINE
  8
CSLAYER2
  6
CONTINUOUS
 62
     7
 10
262.299997
 20
179.000000
 11
327.299997
 21
179.000000
  0
LINE
  8
CSLAYER2
  6
CONTINUOUS
 62
     7
 10
262.299997
 20
199.000000
 11
262.299997
 21
179.000000
  0
LINE
  8
CSLAYER2
  6
CONTINUOUS
 62
     7
 10
327.299997
 20
199.000000
 11
327.299997
 21
179.000000
  0
LINE
  8
CSLAYER1
  6
CONTINUOUS
 62
     7
 10
265.486258
 20
246.000009
 11
265.486258
 21
219.000003
  0
LINE
  8
CSLAYER1
  6
CONTINUOUS
 62
     7
 10
268.861258
 20
246.000009
 11
268.861258
 21
236.437507
  0
LINE
  8
CSLAYER1
  6
CONTINUOUS
 62
     7
 10
277.228448
 20
246.000009
 11
268.861258
 21
236.437507
  0
LINE
  8
CSLAYER1
  6
CONTINUOUS
 62
     7
 10
281.713042
 20
246.000009
 11
275.020244
 21
238.351097
  0
LINE
  8
CSLAYER1
  6
CONTINUOUS
 62
     7
 10
275.020244
 20
238.351097
 11
281.422359
 21
219.000003
  0
LINE
  8
CSLAYER1
  6
CONTINUOUS
 62
     7
 10
272.440675
 20
235.403018
 11
277.867448
 21
219.000003
  0
LINE
  8
CSLAYER1
  6
CONTINUOUS
 62
     7
 10
268.861258
 20
231.312257
 11
268.861258
 21
219.000003
  0
LINE
  8
CSLAYER1
  6
CONTINUOUS
 62
     7
 10
272.440675
 20
235.403018
 11
268.861258
 21
231.312257
  0
LINE
  8
CSLAYER1
  6
CONTINUOUS
 62
     7
 10
265.486258
 20
219.000003
 11
268.861258
 21
219.000003
  0
LINE
  8
CSLAYER1
  6
CONTINUOUS
 62
     7
 10
277.867448
 20
219.000003
 11
281.422359
 21
219.000003
  0
LINE
  8
CSLAYER1
  6
CONTINUOUS
 62
     7
 10
277.228448
 20
246.000009
 11
281.713042
 21
246.000009
  0
LINE
  8
CSLAYER1
  6
CONTINUOUS
 62
     7
 10
265.486258
 20
246.000009
 11
268.861258
 21
246.000009
  0
LINE
  8
CSLAYER1
  6
CONTINUOUS
 62
     7
 10
118.799997
 20
278.100004
 11
118.799997
 21
249.000000
  0
LINE
  8
CSLAYER1
  6
CONTINUOUS
 62
     7
 10
118.799997
 20
219.899997
 11
118.799997
 21
249.000000
  0
LINE
  8
CSLAYER1
  6
CONTINUOUS
 62
     7
 10
122.949810
 20
279.357491
 11
119.795007
 21
279.199751
  0
ARC
  8
CSLAYER1
  6
CONTINUOUS
 62
     7
 10
122.799997
 20
282.353748
 40
3.000000
 50
272.862405
 51
360.000000
  0
LINE
  8
CSLAYER1
  6
CONTINUOUS
 62
     7
 10
119.795007
 20
279.199751
 11
118.799997
 21
278.100004
  0
LINE
  8
CSLAYER1
  6
CONTINUOUS
 62
     7
 10
122.949810
 20
218.642510
 11
119.795007
 21
218.800250
  0
ARC
  8
CSLAYER1
  6
CONTINUOUS
 62
     7
 10
122.799997
 20
215.646253
 40
3.000000
 50
0.000000
 51
87.137595
  0
LINE
  8
CSLAYER1
  6
CONTINUOUS
 62
     7
 10
119.795007
 20
218.800250
 11
118.799997
 21
219.899997
  0
LINE
  8
CSLAYER1
  6
CONTINUOUS
 62
     7
 10
119.795007
 20
279.199751
 11
119.795007
 21
218.800250
  0
LINE
  8
CSLAYER1
  6
CONTINUOUS
 62
     7
 10
112.326231
 20
267.160979
 11
102.299997
 21
266.897859
  0
ARC
  8
CSLAYER1
  6
CONTINUOUS
 62
     7
 10
112.299997
 20
268.160635
 40
1.000000
 50
271.503279
 51
294.406807
  0
LINE
  8
CSLAYER1
  6
CONTINUOUS
 62
     7
 10
114.299997
 20
271.000000
 11
114.299997
 21
249.000000
  0
LINE
  8
CSLAYER1
  6
CONTINUOUS
 62
     7
 10
118.299997
 20
272.000000
 11
115.299997
 21
272.000000
  0
ARC
  8
CSLAYER1
  6
CONTINUOUS
 62
     7
 10
115.299997
 20
271.000000
 40
1.000000
 50
90.000000
 51
180.000000
  0
LINE
  8
CSLAYER1
  6
CONTINUOUS
 62
     7
 10
113.299997
 20
267.250000
 11
112.713210
 21
267.250000
  0
ARC
  8
CSLAYER1
  6
CONTINUOUS
 62
     7
 10
113.299997
 20
268.250000
 40
1.000000
 50
270.000000
 51
360.000000
  0
LINE
  8
CSLAYER1
  6
CONTINUOUS
 62
     7
 10
102.299997
 20
266.897859
 11
100.799997
 21
262.000000
  0
LINE
  8
CSLAYER1
  6
CONTINUOUS
 62
     7
 10
100.799997
 20
262.000000
 11
93.299997
 21
262.000000
  0
LINE
  8
CSLAYER1
  6
CONTINUOUS
 62
     7
 10
99.500959
 20
261.250000
 11
93.299997
 21
261.250000
  0
LINE
  8
CSLAYER1
  6
CONTINUOUS
 62
     7
 10
100.799997
 20
262.000000
 11
99.500959
 21
261.250000
  0
LINE
  8
CSLAYER1
  6
CONTINUOUS
 62
     7
 10
99.500959
 20
261.250000
 11
99.500959
 21
249.000000
  0
LINE
  8
CSLAYER1
  6
CONTINUOUS
 62
     7
 10
75.366809
 20
255.700000
 11
63.999997
 21
255.700000
  0
LINE
  8
CSLAYER1
  6
CONTINUOUS
 62
     7
 10
75.366809
 20
242.300000
 11
63.999997
 21
242.300000
  0
LINE
  8
CSLAYER1
  6
CONTINUOUS
 62
     7
 10
78.469995
 20
267.475209
 11
91.582260
 21
267.475209
  0
LINE
  8
CSLAYER1
  6
CONTINUOUS
 62
     7
 10
93.299997
 20
264.500000
 11
93.299997
 21
249.000000
  0
ARC
  8
CSLAYER1
  6
CONTINUOUS
 62
     7
 10
122.771989
 20
249.000000
 40
48.000000
 50
157.362457
 51
170.970590
  0
LINE
  8
CSLAYER1
  6
CONTINUOUS
 62
     7
 10
93.299997
 20
264.500000
 11
91.582260
 21
267.475209
  0
LINE
  8
CSLAYER1
  6
CONTINUOUS
 62
     7
 10
75.366809
 20
256.533189
 11
75.366809
 21
249.000000
  0
LINE
  8
CSLAYER1
  6
CONTINUOUS
 62
     7
 10
112.326231
 20
230.839022
 11
102.299997
 21
231.102142
  0
ARC
  8
CSLAYER1
  6
CONTINUOUS
 62
     7
 10
112.299997
 20
229.839366
 40
1.000000
 50
65.593193
 51
88.496721
  0
LINE
  8
CSLAYER1
  6
CONTINUOUS
 62
     7
 10
114.299997
 20
227.000000
 11
114.299997
 21
249.000000
  0
LINE
  8
CSLAYER1
  6
CONTINUOUS
 62
     7
 10
118.299997
 20
226.000000
 11
115.299997
 21
226.000000
  0
ARC
  8
CSLAYER1
  6
CONTINUOUS
 62
     7
 10
115.299997
 20
227.000000
 40
1.000000
 50
180.000000
 51
270.000000
  0
LINE
  8
CSLAYER1
  6
CONTINUOUS
 62
     7
 10
113.299997
 20
230.750000
 11
112.713210
 21
230.750000
  0
ARC
  8
CSLAYER1
  6
CONTINUOUS
 62
     7
 10
113.299997
 20
229.750000
 40
1.000000
 50
0.000000
 51
90.000000
  0
LINE
  8
CSLAYER1
  6
CONTINUOUS
 62
     7
 10
102.299997
 20
231.102142
 11
100.799997
 21
236.000000
  0
LINE
  8
CSLAYER1
  6
CONTINUOUS
 62
     7
 10
100.799997
 20
236.000000
 11
93.299997
 21
236.000000
  0
LINE
  8
CSLAYER1
  6
CONTINUOUS
 62
     7
 10
99.500959
 20
236.750000
 11
93.299997
 21
236.750000
  0
LINE
  8
CSLAYER1
  6
CONTINUOUS
 62
     7
 10
100.799997
 20
236.000000
 11
99.500959
 21
236.750000
  0
LINE
  8
CSLAYER1
  6
CONTINUOUS
 62
     7
 10
99.500959
 20
249.000000
 11
99.500959
 21
236.000000
  0
LINE
  8
CSLAYER1
  6
CONTINUOUS
 62
     7
 10
78.469995
 20
230.524792
 11
91.582260
 21
230.524792
  0
LINE
  8
CSLAYER1
  6
CONTINUOUS
 62
     7
 10
93.299997
 20
233.500000
 11
93.299997
 21
249.000000
  0
ARC
  8
CSLAYER1
  6
CONTINUOUS
 62
     7
 10
122.771989
 20
249.000000
 40
48.000000
 50
189.029410
 51
202.637543
  0
LINE
  8
CSLAYER1
  6
CONTINUOUS
 62
     7
 10
93.299997
 20
233.500000
 11
91.582260
 21
230.524792
  0
LINE
  8
CSLAYER1
  6
CONTINUOUS
 62
     7
 10
75.366809
 20
241.466812
 11
75.366809
 21
249.000000
  0
LINE
  8
CSLAYER1
  6
CONTINUOUS
 62
     7
 10
100.799997
 20
262.000000
 11
100.799997
 21
236.000000
  0
LINE
  8
CSLAYER1
  6
CONTINUOUS
 62
     7
 10
78.366812
 20
258.237605
 11
91.649072
 21
258.237605
  0
ARC
  8
CSLAYER1
  6
CONTINUOUS
 62
     7
 10
84.834216
 20
262.856407
 40
8.232593
 50
-34.127650
 51
34.127650
  0
ARC
  8
CSLAYER1
  6
CONTINUOUS
 62
     7
 10
86.517354
 20
262.856407
 40
9.368283
 50
150.460367
 51
209.539633
  0
ARC
  8
CSLAYER1
  6
CONTINUOUS
 62
     7
 10
112.795596
 20
249.000000
 40
35.646524
 50
164.980688
 51
180.000000
  0
ARC
  8
CSLAYER1
  6
CONTINUOUS
 62
     7
 10
62.263041
 20
249.000000
 40
30.803768
 50
0.000000
 51
17.450728
  0
LINE
  8
CSLAYER1
  6
CONTINUOUS
 62
     7
 10
78.366812
 20
239.762396
 11
91.649072
 21
239.762396
  0
ARC
  8
CSLAYER1
  6
CONTINUOUS
 62
     7
 10
62.263041
 20
249.000000
 40
30.803768
 50
342.549272
 51
360.000000
  0
ARC
  8
CSLAYER1
  6
CONTINUOUS
 62
     7
 10
84.834216
 20
235.143594
 40
8.232593
 50
-34.127650
 51
34.127650
  0
ARC
  8
CSLAYER1
  6
CONTINUOUS
 62
     7
 10
86.517354
 20
235.143594
 40
9.368283
 50
150.460367
 51
209.539633
  0
ARC
  8
CSLAYER1
  6
CONTINUOUS
 62
     7
 10
112.795596
 20
249.000000
 40
35.646524
 50
180.000000
 51
195.019312
  0
LINE
  8
CSLAYER1
  6
CONTINUOUS
 62
     7
 10
102.299997
 20
257.948930
 11
114.299997
 21
257.948930
  0
LINE
  8
CSLAYER1
  6
CONTINUOUS
 62
     7
 10
102.299997
 20
240.051071
 11
114.299997
 21
240.051071
  0
ARC
  8
CSLAYER1
  6
CONTINUOUS
 62
     7
 10
111.810088
 20
235.576607
 40
10.510122
 50
154.803178
 51
205.196822
  0
ARC
  8
CSLAYER1
  6
CONTINUOUS
 62
     7
 10
141.841664
 20
249.000000
 40
40.541667
 50
167.247845
 51
192.752155
  0
ARC
  8
CSLAYER1
  6
CONTINUOUS
 62
     7
 10
111.810088
 20
262.423394
 40
10.510122
 50
154.803178
 51
205.196822
  0
LINE
  8
CSLAYER1
  6
CONTINUOUS
 62
     7
 10
63.999997
 20
257.500000
 11
63.499997
 21
257.500000
  0
LINE
  8
CSLAYER1
  6
CONTINUOUS
 62
     7
 10
63.999997
 20
257.500000
 11
63.999997
 21
249.000000
  0
LINE
  8
CSLAYER1
  6
CONTINUOUS
 62
     7
 10
62.499997
 20
289.000000
 11
56.499997
 21
289.000000
  0
ARC
  8
CSLAYER1
  6
CONTINUOUS
 62
     7
 10
56.499997
 20
283.000000
 40
6.000000
 50
90.000000
 51
221.409622
  0
LINE
  8
CSLAYER1
  6
CONTINUOUS
 62
     7
 10
63.499997
 20
288.000000
 11
63.499997
 21
249.000000
  0
ARC
  8
CSLAYER1
  6
CONTINUOUS
 62
     7
 10
56.499997
 20
249.000000
 40
6.000000
 50
146.442690
 51
180.000000
  0
LINE
  8
CSLAYER1
  6
CONTINUOUS
 62
     7
 10
51.999997
 20
279.031373
 11
51.999997
 21
278.016568
  0
LINE
  8
CSLAYER1
  6
CONTINUOUS
 62
     7
 10
51.999997
 20
268.066694
 11
51.999997
 21
253.974938
  0
ARC
  8
CSLAYER1
  6
CONTINUOUS
 62
     7
 10
48.999997
 20
278.016568
 40
3.000000
 50
326.442690
 51
360.000000
  0
ARC
  8
CSLAYER1
  6
CONTINUOUS
 62
     7
 10
48.999997
 20
268.066694
 40
3.000000
 50
0.000000
 51
33.557310
  0
ARC
  8
CSLAYER1
  6
CONTINUOUS
 62
     7
 10
48.999997
 20
253.974938
 40
3.000000
 50
326.442690
 51
360.000000
  0
ARC
  8
CSLAYER1
  6
CONTINUOUS
 62
     7
 10
56.499997
 20
273.041631
 40
6.000000
 50
90.000000
 51
213.557310
  0
LINE
  8
CSLAYER1
  6
CONTINUOUS
 62
     7
 10
56.499997
 20
279.041631
 11
62.499997
 21
279.041631
  0
ARC
  8
CSLAYER1
  6
CONTINUOUS
 62
     7
 10
62.499997
 20
288.000000
 40
1.000000
 50
0.000000
 51
90.000000
  0
ARC
  8
CSLAYER1
  6
CONTINUOUS
 62
     7
 10
62.499997
 20
278.041631
 40
1.000000
 50
0.000000
 51
90.000000
  0
LINE
  8
CSLAYER1
  6
CONTINUOUS
 62
     7
 10
51.826185
 20
252.968627
 11
63.499997
 21
252.968627
  0
LINE
  8
CSLAYER1
  6
CONTINUOUS
 62
     7
 10
51.826185
 20
269.073004
 11
63.499997
 21
269.073004
  0
LINE
  8
CSLAYER1
  6
CONTINUOUS
 62
     7
 10
63.999997
 20
240.500000
 11
63.499997
 21
240.500000
  0
LINE
  8
CSLAYER1
  6
CONTINUOUS
 62
     7
 10
63.999997
 20
240.500000
 11
63.999997
 21
249.000000
  0
LINE
  8
CSLAYER1
  6
CONTINUOUS
 62
     7
 10
62.499997
 20
209.000000
 11
56.499997
 21
209.000000
  0
ARC
  8
CSLAYER1
  6
CONTINUOUS
 62
     7
 10
56.499997
 20
215.000000
 40
6.000000
 50
138.590378
 51
270.000000
  0
LINE
  8
CSLAYER1
  6
CONTINUOUS
 62
     7
 10
63.499997
 20
210.000000
 11
63.499997
 21
249.000000
  0
ARC
  8
CSLAYER1
  6
CONTINUOUS
 62
     7
 10
56.499997
 20
249.000000
 40
6.000000
 50
180.000000
 51
213.557310
  0
LINE
  8
CSLAYER1
  6
CONTINUOUS
 62
     7
 10
51.999997
 20
218.968627
 11
51.999997
 21
219.983433
  0
LINE
  8
CSLAYER1
  6
CONTINUOUS
 62
     7
 10
51.999997
 20
229.933307
 11
51.999997
 21
244.025063
  0
ARC
  8
CSLAYER1
  6
CONTINUOUS
 62
     7
 10
48.999997
 20
219.983433
 40
3.000000
 50
0.000000
 51
33.557310
  0
ARC
  8
CSLAYER1
  6
CONTINUOUS
 62
     7
 10
48.999997
 20
229.933307
 40
3.000000
 50
326.442690
 51
360.000000
  0
ARC
  8
CSLAYER1
  6
CONTINUOUS
 62
     7
 10
48.999997
 20
244.025063
 40
3.000000
 50
0.000000
 51
33.557310
  0
ARC
  8
CSLAYER1
  6
CONTINUOUS
 62
     7
 10
56.499997
 20
224.958370
 40
6.000000
 50
146.442690
 51
270.000000
  0
LINE
  8
CSLAYER1
  6
CONTINUOUS
 62
     7
 10
56.499997
 20
218.958370
 11
62.499997
 21
218.958370
  0
ARC
  8
CSLAYER1
  6
CONTINUOUS
 62
     7
 10
62.499997
 20
210.000000
 40
1.000000
 50
270.000000
 51
360.000000
  0
ARC
  8
CSLAYER1
  6
CONTINUOUS
 62
     7
 10
62.499997
 20
219.958370
 40
1.000000
 50
270.000000
 51
360.000000
  0
LINE
  8
CSLAYER1
  6
CONTINUOUS
 62
     7
 10
51.826185
 20
245.031373
 11
63.499997
 21
245.031373
  0
LINE
  8
CSLAYER1
  6
CONTINUOUS
 62
     7
 10
51.826185
 20
228.926997
 11
63.499997
 21
228.926997
  0
LINE
  8
CSLAYER1
  6
CONTINUOUS
 62
     7
 10
45.999997
 20
253.000000
 11
46.499997
 21
253.000000
  0
LINE
  8
CSLAYER1
  6
CONTINUOUS
 62
     7
 10
45.698755
 20
252.375000
 11
46.499997
 21
252.375000
  0
ARC
  8
CSLAYER1
  6
CONTINUOUS
 62
     7
 10
53.499997
 20
249.000000
 40
8.500000
 50
151.927513
 51
180.000000
  0
LINE
  8
CSLAYER1
  6
CONTINUOUS
 62
     7
 10
45.999997
 20
253.000000
 11
45.999997
 21
249.000000
  0
LINE
  8
CSLAYER1
  6
CONTINUOUS
 62
     7
 10
47.080554
 20
256.505554
 11
51.999997
 21
256.505554
  0
LINE
  8
CSLAYER1
  6
CONTINUOUS
 62
     7
 10
46.499997
 20
255.500000
 11
46.499997
 21
249.000000
  0
LINE
  8
CSLAYER1
  6
CONTINUOUS
 62
     7
 10
47.080554
 20
252.752777
 11
51.739764
 21
252.752777
  0
LINE
  8
CSLAYER1
  6
CONTINUOUS
 62
     7
 10
46.499997
 20
255.500000
 11
47.080554
 21
256.505554
  0
ARC
  8
CSLAYER1
  6
CONTINUOUS
 62
     7
 10
50.503562
 20
254.629166
 40
3.903565
 50
151.269798
 51
208.730202
  0
ARC
  8
CSLAYER1
  6
CONTINUOUS
 62
     7
 10
61.493423
 20
249.000000
 40
14.893426
 50
165.405564
 51
180.000000
  0
LINE
  8
CSLAYER1
  6
CONTINUOUS
 62
     7
 10
45.999997
 20
245.000000
 11
46.499997
 21
245.000000
  0
LINE
  8
CSLAYER1
  6
CONTINUOUS
 62
     7
 10
45.698755
 20
245.625000
 11
46.499997
 21
245.625000
  0
ARC
  8
CSLAYER1
  6
CONTINUOUS
 62
     7
 10
53.499997
 20
249.000000
 40
8.500000
 50
180.000000
 51
208.072487
  0
LINE
  8
CSLAYER1
  6
CONTINUOUS
 62
     7
 10
45.999997
 20
245.000000
 11
45.999997
 21
249.000000
  0
LINE
  8
CSLAYER1
  6
CONTINUOUS
 62
     7
 10
47.080554
 20
241.494447
 11
51.999997
 21
241.494447
  0
LINE
  8
CSLAYER1
  6
CONTINUOUS
 62
     7
 10
46.499997
 20
242.500000
 11
46.499997
 21
249.000000
  0
LINE
  8
CSLAYER1
  6
CONTINUOUS
 62
     7
 10
47.080554
 20
245.247224
 11
51.739764
 21
245.247224
  0
LINE
  8
CSLAYER1
  6
CONTINUOUS
 62
     7
 10
46.499997
 20
242.500000
 11
47.080554
 21
241.494447
  0
ARC
  8
CSLAYER1
  6
CONTINUOUS
 62
     7
 10
50.503562
 20
243.370835
 40
3.903565
 50
151.269798
 51
208.730202
  0
ARC
  8
CSLAYER1
  6
CONTINUOUS
 62
     7
 10
61.493423
 20
249.000000
 40
14.893426
 50
180.000000
 51
194.594436
  0
LINE
  8
CSLAYER1
  6
CONTINUOUS
 62
     7
 10
118.299997
 20
226.000000
 11
118.799997
 21
226.500000
  0
LINE
  8
CSLAYER1
  6
CONTINUOUS
 62
     7
 10
118.299997
 20
272.000000
 11
118.799997
 21
271.500000
  0
ARC
  8
CSLAYER1
  6
CONTINUOUS
 62
     7
 10
150.799997
 20
151.226652
 40
25.000000
 50
180.000000
 51
228.366461
  0
LINE
  8
CSLAYER1
  6
CONTINUOUS
 62
     7
 10
173.621816
 20
97.491717
 11
134.190901
 21
132.541419
  0
ARC
  8
CSLAYER1
  6
CONTINUOUS
 62
     7
 10
170.299997
 20
93.754670
 40
5.000000
 50
0.000000
 51
48.366461
  0
INSERT
  8
CSLAYER1
  2
BLKF0003
 10
0.0
 20
0.0
 30
0.0
  0
LINE
  8
CSLAYER1
  6
CONTINUOUS
 62
     7
 10
316.910458
 20
875.000000
 11
272.699997
 21
875.000000
  0
LINE
  8
CSLAYER1
  6
CONTINUOUS
 62
     7
 10
319.908546
 20
872.107075
 11
320.374739
 21
859.053682
  0
LINE
  8
CSLAYER1
  6
CONTINUOUS
 62
     7
 10
269.701909
 20
872.107075
 11
269.235774
 21
859.055292
  0
ARC
  8
CSLAYER1
  6
CONTINUOUS
 62
     7
 10
316.910458
 20
872.000000
 40
3.000000
 50
2.045408
 51
90.000000
  0
ARC
  8
CSLAYER1
  6
CONTINUOUS
 62
     7
 10
272.699997
 20
872.000000
 40
3.000000
 50
90.000000
 51
177.954592
  0
ENDSEC
  0
EOF
