  0
SECTION
  2
HEADER
  9
$ACADVER
  1
AC1006
  9
$INSBASE
 10
-429.507782
 20
-156.000560
 30
0.0
  9
$EXTMIN
 10
-429.507782
 20
-156.000560
  9
$EXTMAX
 10
428.231122
 20
614.583553
  9
$LIMMIN
 10
-429.507782
 20
-156.000560
  9
$LIMMAX
 10
428.231122
 20
614.583553
  9
$VIEWCTR
 10
-0.638330
 20
229.291497
  9
$VIEWSIZE
 40
770.584113
  9
$SNAPMODE
 70
     0
  9
$SNAPUNIT
 10
1.0
 20
1.0
  9
$SNAPBASE
 10
0.0
 20
0.0
  9
$SNAPANG
 50
0.0
  9
$SNAPSTYLE
 70
     0
  9
$SNAPISOPAIR
 70
     0
  9
$GRIDMODE
 70
     0
  9
$GRIDUNIT
 10
0.0
 20
0.0
  9
$ORTHOMODE
 70
     0
  9
$REGENMODE
 70
     1
  9
$FILLMODE
 70
     1
  9
$QTEXTMODE
 70
     0
  9
$DRAGMODE
 70
     2
  9
$LTSCALE
 40
15.000000
  9
$OSMODE
 70
     0
  9
$ATTMODE
 70
     1
  9
$TEXTSIZE
 40
0.2
  9
$TRACEWID
 40
0.05
  9
$TEXTSTYLE
  7
STANDARD
  9
$CLAYER
  8
CSLAYER1
  9
$CELTYPE
  6
BYLAYER
  9
$CECOLOR
 62
   256
  9
$DIMSCALE
 40
1.0
  9
$DIMASZ
 40
0.18
  9
$DIMEXO
 40
0.0625
  9
$DIMDLI
 40
0.38
  9
$DIMRND
 40
0.0
  9
$DIMDLE
 40
0.0
  9
$DIMEXE
 40
0.18
  9
$DIMTP
 40
0.0
  9
$DIMTM
 40
0.0
  9
$DIMTXT
 40
0.18
  9
$DIMCEN
 40
0.09
  9
$DIMTSZ
 40
0.0
  9
$DIMTOL
 70
     0
  9
$DIMLIM
 70
     0
  9
$DIMTIH
 70
     1
  9
$DIMTOH
 70
     1
  9
$DIMSE1
 70
     0
  9
$DIMSE2
 70
     0
  9
$DIMTAD
 70
     0
  9
$DIMZIN
 70
     0
  9
$DIMBLK
  1

  9
$LUNITS
 70
     2
  9
$LUPREC
 70
     4
  9
$AXISMODE
 70
     0
  9
$AXISUNIT
 10
0.0
 20
0.0
  9
$SKETCHINC
 40
0.1
  9
$FILLETRAD
 40
0.0
  9
$AUNITS
 70
     0
  9
$AUPREC
 70
     0
  9
$MENU
  1
ACAD
  9
$ELEVATION
 40
0.0
  9
$THICKNESS
 40
0.0
  9
$VIEWDIR
 10
0.0
 20
0.0
 30
1.0
  9
$LIMCHECK
 70
     0
  9
$BLIPMODE
 70
     1
  9
$CHAMFERA
 40
0.0
  9
$CHAMFERB
 40
0.0
  9
$FASTZOOM
 70
     1
  9
$SKPOLY
 70
     0
  9
$TDCREATE
 40
2456637.000000
  9
$TDUPDATE
 40
2456637.000000
  9
$TDINDWG
 40
0.0
  9
$TDUSRTIMER
 40
0.0
  9
$USRTIMER
 70
     1
  9
$ANGBASE
 50
0.0
  9
$ANGDIR
 70
     0
  9
$PDMODE
 70
     0
  9
$PDSIZE
 40
0.0
  9
$PLINEWID
 40
0.0
  9
$COORDS
 70
     0
  9
$USERI1
 70
     0
  9
$USERI2
 70
     0
  9
$USERI3
 70
     0
  9
$USERI4
 70
     0
  9
$USERI5
 70
     0
  9
$USERR1
 40
0.0
  9
$USERR2
 40
0.0
  9
$USERR3
 40
0.0
  9
$USERR4
 40
0.0
  9
$USERR5
 40
0.0
  0
ENDSEC
  0
SECTION
  2
TABLES
  0
TABLE
  2
LTYPE
 70
     9
  0
LTYPE
  2
CONTINUOUS
 70
    64
  3
Solid line
 72
    65
 73
     0
 40
0.0
  0
LTYPE
  2
DASHED
 70
    64
  3
__ __ __ __ __ __ __ __ __ __ __ __ __ __ __
 72
    65
 73
     2
 40
0.75
 49
0.5
 49
-0.25
  0
LTYPE
  2
HIDDEN
 70
    64
  3
_ _ _ _ _ _ _ _ _ _ _ _ _ _ _ _ _ _ _ _ _ _ _
 72
    65
 73
     2
 40
0.375
 49
0.25
 49
-0.125
  0
LTYPE
  2
DOT
 70
    64
  3
...............................................
 72
    65
 73
     2
 40
0.25
 49
0.0
 49
-0.25
  0
LTYPE
  2
DASHDOT
 70
    64
  3
__ . __ . __ . __ . __ . __ . __ . __ . __ . __
 72
    65
 73
     4
 40
1.0
 49
0.5
 49
-0.25
 49
0.0
 49
-0.25
  0
LTYPE
  2
DIVIDE
 70
    64
  3
__ . . __ . . __ . . __ . . __ . . __ . . __
 72
    65
 73
     6
 40
1.25
 49
0.5
 49
-0.25
 49
0.0
 49
-0.25
 49
0.0
 49
-0.25
  0
LTYPE
  2
CENTER
 70
    64
  3
____ _ ____ _ ____ _ ____ _ ____ _ ____ _ ____ 
 72
    65
 73
     4
 40
2.0
 49
1.25
 49
-0.25
 49
0.25
 49
-0.25
  0
LTYPE
  2
PHANTOM
 70
    64
  3
______  __  __  ______  __  __  ______  __  __ 
 72
    65
 73
     6
 40
2.5
 49
1.25
 49
-0.25
 49
0.25
 49
-0.25
 49
0.25
 49
-0.25
  0
LTYPE
  2
BORDER
 70
    64
  3
__ __ . __ __ . __ __ . __ __ . __ __ . __ __ .
 72
    65
 73
     6
 40
1.75
 49
0.5
 49
-0.25
 49
0.5
 49
-0.25
 49
0.0
 49
-0.25
  0
ENDTAB
  0
TABLE
  2
LAYER
 70
    16
  0
LAYER
  2
CSLAYER1
 70
    64
 62
     7
  6
CONTINUOUS
  0
LAYER
  2
CSLAYER2
 70
    64
 62
     7
  6
CONTINUOUS
  0
LAYER
  2
CSLAYER3
 70
    64
 62
     7
  6
CONTINUOUS
  0
LAYER
  2
CSLAYER4
 70
    64
 62
     7
  6
CONTINUOUS
  0
LAYER
  2
CSLAYER5
 70
    64
 62
     7
  6
CONTINUOUS
  0
LAYER
  2
CSLAYER6
 70
    64
 62
     7
  6
CONTINUOUS
  0
LAYER
  2
CSLAYER7
 70
    64
 62
     7
  6
CONTINUOUS
  0
LAYER
  2
CSLAYER8
 70
    64
 62
     7
  6
CONTINUOUS
  0
LAYER
  2
CSLAYER9
 70
    64
 62
     7
  6
CONTINUOUS
  0
LAYER
  2
CSLAYER10
 70
    64
 62
     7
  6
CONTINUOUS
  0
LAYER
  2
CSLAYER11
 70
    64
 62
     7
  6
CONTINUOUS
  0
LAYER
  2
CSLAYER12
 70
    64
 62
     7
  6
CONTINUOUS
  0
LAYER
  2
CSLAYER13
 70
    64
 62
     7
  6
CONTINUOUS
  0
LAYER
  2
CSLAYER14
 70
    64
 62
     7
  6
CONTINUOUS
  0
LAYER
  2
CSLAYER15
 70
    64
 62
     7
  6
CONTINUOUS
  0
LAYER
  2
CSLAYER16
 70
    64
 62
     7
  6
CONTINUOUS
  0
ENDTAB
  0
TABLE
  2
STYLE
 70
     1
  0
STYLE
  2
EASYDRAW_FONT
 70
     0
 40
1.0
 41
1.0
 50
0.0
 71
     0
 42
1.0
  3
monotxt
  4
bigfont
  0
ENDTAB
  0
TABLE
  2
VIEW
 70
     0
  0
ENDTAB
  0
ENDSEC
  0
SECTION
  2
BLOCKS
  0
BLOCK
  8
CSLAYER1
  2
BLKF0000
 70
   64
 10
0.0
 20
0.0
 30
0.0
  0
TEXT
  8
CSLAYER1
 62
     7
 10
830.737671
 20
295.591217
 40
4.000000
 41
0.803571
  1
（１４０）
 50
90.000000
 51
0.000000
  7
EASYDRAW_FONT
 72
     5
 11
830.737671
 21
310.591217
  0
ENDBLK
  8
0
  0
BLOCK
  8
CSLAYER1
  2
BLKF0001
 70
   64
 10
0.0
 20
0.0
 30
0.0
  0
TEXT
  8
CSLAYER1
 62
     7
 10
830.737671
 20
157.477371
 40
4.000000
 41
0.803571
  1
（１４０）
 50
90.000000
 51
0.000000
  7
EASYDRAW_FONT
 72
     5
 11
830.737671
 21
172.477371
  0
ENDBLK
  8
0
  0
BLOCK
  8
CSLAYER1
  2
BLKF0002
 70
   64
 10
0.0
 20
0.0
 30
0.0
  0
TEXT
  8
CSLAYER1
 62
     7
 10
672.893311
 20
28.910564
 40
4.000000
 41
0.803571
  1
（２０６）
 50
0.000000
 51
0.000000
  7
EASYDRAW_FONT
 72
     5
 11
687.893311
 21
28.910564
  0
ENDBLK
  8
0
  0
BLOCK
  8
CSLAYER1
  2
BLKF0003
 70
   64
 10
0.0
 20
0.0
 30
0.0
  0
TEXT
  8
CSLAYER1
 62
     7
 10
24.000000
 20
223.312378
 40
4.000000
 41
0.843750
  1
２８０
 50
90.000000
 51
0.000000
  7
EASYDRAW_FONT
 72
     5
 11
24.000000
 21
232.312378
  0
ENDBLK
  8
0
  0
BLOCK
  8
CSLAYER4
  2
BLKF0004
 70
   64
 10
0.0
 20
0.0
 30
0.0
  0
LINE
  8
CSLAYER4
  6
CONTINUOUS
 62
     7
 10
585.270646
 20
262.627212
 11
585.068486
 21
261.264894
  0
LINE
  8
CSLAYER4
  6
CONTINUOUS
 62
     7
 10
585.068486
 20
261.264894
 11
584.694236
 21
259.915963
  0
LINE
  8
CSLAYER4
  6
CONTINUOUS
 62
     7
 10
584.694236
 20
259.915963
 11
584.147266
 21
258.620350
  0
LINE
  8
CSLAYER4
  6
CONTINUOUS
 62
     7
 10
584.147266
 20
258.620350
 11
583.442510
 21
257.411382
  0
LINE
  8
CSLAYER4
  6
CONTINUOUS
 62
     7
 10
583.442510
 20
257.411382
 11
582.609724
 21
256.316082
  0
LINE
  8
CSLAYER4
  6
CONTINUOUS
 62
     7
 10
582.609724
 20
256.316082
 11
581.674798
 21
255.356809
  0
LINE
  8
CSLAYER4
  6
CONTINUOUS
 62
     7
 10
581.674798
 20
255.356809
 11
580.609468
 21
254.504340
  0
LINE
  8
CSLAYER4
  6
CONTINUOUS
 62
     7
 10
580.609468
 20
254.504340
 11
579.423545
 21
253.770129
  0
LINE
  8
CSLAYER4
  6
CONTINUOUS
 62
     7
 10
579.423545
 20
253.770129
 11
578.144324
 21
253.183132
  0
LINE
  8
CSLAYER4
  6
CONTINUOUS
 62
     7
 10
578.144324
 20
253.183132
 11
576.802448
 21
252.764164
  0
LINE
  8
CSLAYER4
  6
CONTINUOUS
 62
     7
 10
576.802448
 20
252.764164
 11
575.436767
 21
252.514240
  0
LINE
  8
CSLAYER4
  6
CONTINUOUS
 62
     7
 10
575.436767
 20
252.514240
 11
574.087394
 21
252.431371
  0
LINE
  8
CSLAYER4
  6
CONTINUOUS
 62
     7
 10
574.087394
 20
252.431371
 11
572.737993
 21
252.514240
  0
LINE
  8
CSLAYER4
  6
CONTINUOUS
 62
     7
 10
572.737993
 20
252.514240
 11
571.372312
 21
252.764164
  0
LINE
  8
CSLAYER4
  6
CONTINUOUS
 62
     7
 10
571.372312
 20
252.764164
 11
570.030464
 21
253.183132
  0
LINE
  8
CSLAYER4
  6
CONTINUOUS
 62
     7
 10
570.030464
 20
253.183132
 11
568.751243
 21
253.770129
  0
LINE
  8
CSLAYER4
  6
CONTINUOUS
 62
     7
 10
568.751243
 20
253.770129
 11
567.565321
 21
254.504340
  0
LINE
  8
CSLAYER4
  6
CONTINUOUS
 62
     7
 10
567.565321
 20
254.504340
 11
566.499989
 21
255.356809
  0
LINE
  8
CSLAYER4
  6
CONTINUOUS
 62
     7
 10
566.499989
 20
255.356809
 11
565.565065
 21
256.316082
  0
LINE
  8
CSLAYER4
  6
CONTINUOUS
 62
     7
 10
565.565065
 20
256.316082
 11
564.732278
 21
257.411382
  0
LINE
  8
CSLAYER4
  6
CONTINUOUS
 62
     7
 10
564.732278
 20
257.411382
 11
564.027523
 21
258.620350
  0
LINE
  8
CSLAYER4
  6
CONTINUOUS
 62
     7
 10
564.027523
 20
258.620350
 11
563.480552
 21
259.915963
  0
LINE
  8
CSLAYER4
  6
CONTINUOUS
 62
     7
 10
563.480552
 20
259.915963
 11
563.106274
 21
261.264894
  0
LINE
  8
CSLAYER4
  6
CONTINUOUS
 62
     7
 10
563.106274
 20
261.264894
 11
562.904141
 21
262.627212
  0
ENDBLK
  8
0
  0
BLOCK
  8
CSLAYER4
  2
BLKF0005
 70
   64
 10
0.0
 20
0.0
 30
0.0
  0
LINE
  8
CSLAYER4
  6
CONTINUOUS
 62
     7
 10
562.900193
 20
262.657968
 11
562.875760
 21
264.161164
  0
LINE
  8
CSLAYER4
  6
CONTINUOUS
 62
     7
 10
562.875760
 20
264.161164
 11
563.044847
 21
265.652572
  0
LINE
  8
CSLAYER4
  6
CONTINUOUS
 62
     7
 10
563.044847
 20
265.652572
 11
563.404936
 21
267.110764
  0
LINE
  8
CSLAYER4
  6
CONTINUOUS
 62
     7
 10
563.404936
 20
267.110764
 11
563.947729
 21
268.504440
  0
LINE
  8
CSLAYER4
  6
CONTINUOUS
 62
     7
 10
563.947729
 20
268.504440
 11
564.664958
 21
269.814432
  0
LINE
  8
CSLAYER4
  6
CONTINUOUS
 62
     7
 10
564.664958
 20
269.814432
 11
565.547356
 21
271.021755
  0
LINE
  8
CSLAYER4
  6
CONTINUOUS
 62
     7
 10
565.547356
 20
271.021755
 11
566.577553
 21
272.100946
  0
LINE
  8
CSLAYER4
  6
CONTINUOUS
 62
     7
 10
566.577553
 20
272.100946
 11
567.741359
 21
273.035772
  0
LINE
  8
CSLAYER4
  6
CONTINUOUS
 62
     7
 10
567.741359
 20
273.035772
 11
569.023012
 21
273.810178
  0
LINE
  8
CSLAYER4
  6
CONTINUOUS
 62
     7
 10
569.023012
 20
273.810178
 11
570.397390
 21
274.406016
  0
LINE
  8
CSLAYER4
  6
CONTINUOUS
 62
     7
 10
570.397390
 20
274.406016
 11
571.844782
 21
274.812052
  0
LINE
  8
CSLAYER4
  6
CONTINUOUS
 62
     7
 10
571.844782
 20
274.812052
 11
573.336319
 21
275.017516
  0
LINE
  8
CSLAYER4
  6
CONTINUOUS
 62
     7
 10
573.336319
 20
275.017516
 11
574.843019
 21
275.017201
  0
LINE
  8
CSLAYER4
  6
CONTINUOUS
 62
     7
 10
574.843019
 20
275.017201
 11
576.334471
 21
274.811107
  0
LINE
  8
CSLAYER4
  6
CONTINUOUS
 62
     7
 10
576.334471
 20
274.811107
 11
577.780574
 21
274.404885
  0
LINE
  8
CSLAYER4
  6
CONTINUOUS
 62
     7
 10
577.780574
 20
274.404885
 11
579.156554
 21
273.807703
  0
LINE
  8
CSLAYER4
  6
CONTINUOUS
 62
     7
 10
579.156554
 20
273.807703
 11
580.434745
 21
273.034855
  0
LINE
  8
CSLAYER4
  6
CONTINUOUS
 62
     7
 10
580.434745
 20
273.034855
 11
581.597380
 21
272.100817
  0
LINE
  8
CSLAYER4
  6
CONTINUOUS
 62
     7
 10
581.597380
 20
272.100817
 11
582.629093
 21
271.019781
  0
LINE
  8
CSLAYER4
  6
CONTINUOUS
 62
     7
 10
582.629093
 20
271.019781
 11
583.509830
 21
269.814432
  0
LINE
  8
CSLAYER4
  6
CONTINUOUS
 62
     7
 10
583.509830
 20
269.814432
 11
584.227546
 21
268.503339
  0
LINE
  8
CSLAYER4
  6
CONTINUOUS
 62
     7
 10
584.227546
 20
268.503339
 11
584.771198
 21
267.106630
  0
LINE
  8
CSLAYER4
  6
CONTINUOUS
 62
     7
 10
584.771198
 20
267.106630
 11
585.129884
 21
265.653087
  0
LINE
  8
CSLAYER4
  6
CONTINUOUS
 62
     7
 10
585.129884
 20
265.653087
 11
585.298970
 21
264.161851
  0
LINE
  8
CSLAYER4
  6
CONTINUOUS
 62
     7
 10
585.298970
 20
264.161851
 11
585.274595
 21
262.657968
  0
ENDBLK
  8
0
  0
BLOCK
  8
CSLAYER1
  2
BLKF0006
 70
   64
 10
0.0
 20
0.0
 30
0.0
  0
LINE
  8
CSLAYER4
  6
CONTINUOUS
 62
     7
 10
542.362784
 20
233.001253
 11
542.496762
 21
232.962753
  0
LINE
  8
CSLAYER4
  6
CONTINUOUS
 62
     7
 10
542.496762
 20
232.962753
 11
542.631564
 21
232.928290
  0
LINE
  8
CSLAYER4
  6
CONTINUOUS
 62
     7
 10
542.631564
 20
232.928290
 11
542.767149
 21
232.898029
  0
LINE
  8
CSLAYER4
  6
CONTINUOUS
 62
     7
 10
542.767149
 20
232.898029
 11
542.903486
 21
232.872136
  0
LINE
  8
CSLAYER4
  6
CONTINUOUS
 62
     7
 10
542.903486
 20
232.872136
 11
543.040524
 21
232.850796
  0
LINE
  8
CSLAYER4
  6
CONTINUOUS
 62
     7
 10
543.040524
 20
232.850796
 11
543.178209
 21
232.834152
  0
LINE
  8
CSLAYER4
  6
CONTINUOUS
 62
     7
 10
543.178209
 20
232.834152
 11
543.316514
 21
232.822389
  0
LINE
  8
CSLAYER4
  6
CONTINUOUS
 62
     7
 10
543.316514
 20
232.822389
 11
543.455384
 21
232.815664
  0
LINE
  8
CSLAYER4
  6
CONTINUOUS
 62
     7
 10
543.455384
 20
232.815664
 11
543.594791
 21
232.814139
  0
LINE
  8
CSLAYER4
  6
CONTINUOUS
 62
     7
 10
543.594791
 20
232.814139
 11
543.734012
 21
232.817961
  0
LINE
  8
CSLAYER4
  6
CONTINUOUS
 62
     7
 10
543.734012
 20
232.817961
 11
543.872306
 21
232.827148
  0
LINE
  8
CSLAYER4
  6
CONTINUOUS
 62
     7
 10
543.872306
 20
232.827148
 11
544.009683
 21
232.841701
  0
LINE
  8
CSLAYER4
  6
CONTINUOUS
 62
     7
 10
544.009683
 20
232.841701
 11
544.146132
 21
232.861641
  0
LINE
  8
CSLAYER4
  6
CONTINUOUS
 62
     7
 10
544.146132
 20
232.861641
 11
544.281677
 21
232.886958
  0
LINE
  8
CSLAYER4
  6
CONTINUOUS
 62
     7
 10
544.281677
 20
232.886958
 11
544.416294
 21
232.917661
  0
LINE
  8
CSLAYER4
  6
CONTINUOUS
 62
     7
 10
544.416294
 20
232.917661
 11
544.549962
 21
232.953751
  0
LINE
  8
CSLAYER4
  6
CONTINUOUS
 62
     7
 10
544.549962
 20
232.953751
 11
544.682726
 21
232.995238
  0
LINE
  8
CSLAYER4
  6
CONTINUOUS
 62
     7
 10
544.682726
 20
232.995238
 11
544.814459
 21
233.042082
  0
LINE
  8
CSLAYER4
  6
CONTINUOUS
 62
     7
 10
544.814459
 20
233.042082
 11
544.944234
 21
233.093878
  0
LINE
  8
CSLAYER4
  6
CONTINUOUS
 62
     7
 10
544.944234
 20
233.093878
 11
545.071827
 21
233.150413
  0
LINE
  8
CSLAYER4
  6
CONTINUOUS
 62
     7
 10
545.071827
 20
233.150413
 11
545.197277
 21
233.211511
  0
LINE
  8
CSLAYER4
  6
CONTINUOUS
 62
     7
 10
545.197277
 20
233.211511
 11
545.320565
 21
233.277018
  0
LINE
  8
CSLAYER4
  6
CONTINUOUS
 62
     7
 10
545.320565
 20
233.277018
 11
545.441750
 21
233.346798
  0
LINE
  8
CSLAYER4
  6
CONTINUOUS
 62
     7
 10
545.441750
 20
233.346798
 11
545.560835
 21
233.420677
  0
LINE
  8
CSLAYER4
  6
CONTINUOUS
 62
     7
 10
545.560835
 20
233.420677
 11
545.611901
 21
233.454162
  0
LINE
  8
CSLAYER4
  6
CONTINUOUS
 62
     7
 10
545.611901
 20
233.454162
 11
545.661936
 21
233.488974
  0
LINE
  8
CSLAYER4
  6
CONTINUOUS
 62
     7
 10
545.661936
 20
233.488974
 11
545.710943
 21
233.525095
  0
LINE
  8
CSLAYER4
  6
CONTINUOUS
 62
     7
 10
545.710943
 20
233.525095
 11
545.758940
 21
233.562504
  0
LINE
  8
CSLAYER4
  6
CONTINUOUS
 62
     7
 10
545.758940
 20
233.562504
 11
545.805927
 21
233.601180
  0
LINE
  8
CSLAYER4
  6
CONTINUOUS
 62
     7
 10
545.805927
 20
233.601180
 11
545.851946
 21
233.641111
  0
LINE
  8
CSLAYER4
  6
CONTINUOUS
 62
     7
 10
545.851946
 20
233.641111
 11
545.896956
 21
233.682268
  0
LINE
  8
CSLAYER4
  6
CONTINUOUS
 62
     7
 10
545.896956
 20
233.682268
 11
545.940996
 21
233.724652
  0
LINE
  8
CSLAYER4
  6
CONTINUOUS
 62
     7
 10
545.940996
 20
233.724652
 11
545.984028
 21
233.768199
  0
LINE
  8
CSLAYER4
  6
CONTINUOUS
 62
     7
 10
545.984028
 20
233.768199
 11
546.025968
 21
233.812755
  0
LINE
  8
CSLAYER4
  6
CONTINUOUS
 62
     7
 10
546.025968
 20
233.812755
 11
546.066797
 21
233.858290
  0
LINE
  8
CSLAYER4
  6
CONTINUOUS
 62
     7
 10
546.066797
 20
233.858290
 11
546.106554
 21
233.904751
  0
LINE
  8
CSLAYER4
  6
CONTINUOUS
 62
     7
 10
546.106554
 20
233.904751
 11
546.145239
 21
233.952120
  0
LINE
  8
CSLAYER4
  6
CONTINUOUS
 62
     7
 10
546.145239
 20
233.952120
 11
546.182874
 21
234.000354
  0
LINE
  8
CSLAYER4
  6
CONTINUOUS
 62
     7
 10
546.182874
 20
234.000354
 11
546.219480
 21
234.049422
  0
LINE
  8
CSLAYER4
  6
CONTINUOUS
 62
     7
 10
546.219480
 20
234.049422
 11
546.255054
 21
234.099282
  0
LINE
  8
CSLAYER4
  6
CONTINUOUS
 62
     7
 10
546.255054
 20
234.099282
 11
546.289620
 21
234.149905
  0
LINE
  8
CSLAYER4
  6
CONTINUOUS
 62
     7
 10
546.289620
 20
234.149905
 11
546.323219
 21
234.201238
  0
LINE
  8
CSLAYER4
  6
CONTINUOUS
 62
     7
 10
546.323219
 20
234.201238
 11
546.355806
 21
234.253221
  0
LINE
  8
CSLAYER4
  6
CONTINUOUS
 62
     7
 10
546.355806
 20
234.253221
 11
546.387426
 21
234.305832
  0
LINE
  8
CSLAYER4
  6
CONTINUOUS
 62
     7
 10
546.387426
 20
234.305832
 11
546.418098
 21
234.359008
  0
LINE
  8
CSLAYER4
  6
CONTINUOUS
 62
     7
 10
546.418098
 20
234.359008
 11
546.447824
 21
234.412732
  0
LINE
  8
CSLAYER4
  6
CONTINUOUS
 62
     7
 10
546.447824
 20
234.412732
 11
546.476621
 21
234.466960
  0
LINE
  8
CSLAYER4
  6
CONTINUOUS
 62
     7
 10
546.476621
 20
234.466960
 11
546.504533
 21
234.521641
  0
LINE
  8
CSLAYER4
  6
CONTINUOUS
 62
     7
 10
546.504533
 20
234.521641
 11
546.533744
 21
234.582225
  0
LINE
  8
CSLAYER4
  6
CONTINUOUS
 62
     7
 10
546.533744
 20
234.582225
 11
546.561264
 21
234.643579
  0
LINE
  8
CSLAYER4
  6
CONTINUOUS
 62
     7
 10
546.561264
 20
234.643579
 11
546.587117
 21
234.705666
  0
LINE
  8
CSLAYER4
  6
CONTINUOUS
 62
     7
 10
546.587117
 20
234.705666
 11
546.611342
 21
234.768432
  0
LINE
  8
CSLAYER4
  6
CONTINUOUS
 62
     7
 10
546.611342
 20
234.768432
 11
546.634001
 21
234.831837
  0
LINE
  8
CSLAYER4
  6
CONTINUOUS
 62
     7
 10
546.634001
 20
234.831837
 11
546.655115
 21
234.895807
  0
LINE
  8
CSLAYER4
  6
CONTINUOUS
 62
     7
 10
546.655115
 20
234.895807
 11
546.674747
 21
234.960315
  0
LINE
  8
CSLAYER4
  6
CONTINUOUS
 62
     7
 10
546.674747
 20
234.960315
 11
546.692915
 21
235.025295
  0
LINE
  8
CSLAYER4
  6
CONTINUOUS
 62
     7
 10
546.692915
 20
235.025295
 11
546.709662
 21
235.090698
  0
LINE
  8
CSLAYER4
  6
CONTINUOUS
 62
     7
 10
546.709662
 20
235.090698
 11
546.725030
 21
235.156483
  0
LINE
  8
CSLAYER4
  6
CONTINUOUS
 62
     7
 10
546.725030
 20
235.156483
 11
546.739077
 21
235.222597
  0
LINE
  8
CSLAYER4
  6
CONTINUOUS
 62
     7
 10
546.739077
 20
235.222597
 11
546.751829
 21
235.288978
  0
LINE
  8
CSLAYER4
  6
CONTINUOUS
 62
     7
 10
546.751829
 20
235.288978
 11
546.763323
 21
235.355575
  0
LINE
  8
CSLAYER4
  6
CONTINUOUS
 62
     7
 10
546.763323
 20
235.355575
 11
546.773624
 21
235.422358
  0
LINE
  8
CSLAYER4
  6
CONTINUOUS
 62
     7
 10
546.773624
 20
235.422358
 11
546.782748
 21
235.489255
  0
LINE
  8
CSLAYER4
  6
CONTINUOUS
 62
     7
 10
546.782748
 20
235.489255
 11
546.790742
 21
235.556224
  0
LINE
  8
CSLAYER4
  6
CONTINUOUS
 62
     7
 10
546.790742
 20
235.556224
 11
546.797663
 21
235.623213
  0
LINE
  8
CSLAYER4
  6
CONTINUOUS
 62
     7
 10
546.797663
 20
235.623213
 11
546.803532
 21
235.690305
  0
LINE
  8
CSLAYER4
  6
CONTINUOUS
 62
     7
 10
546.803532
 20
235.690305
 11
546.808415
 21
235.757541
  0
LINE
  8
CSLAYER4
  6
CONTINUOUS
 62
     7
 10
546.808415
 20
235.757541
 11
546.812351
 21
235.824880
  0
LINE
  8
CSLAYER4
  6
CONTINUOUS
 62
     7
 10
546.812351
 20
235.824880
 11
546.815336
 21
235.892292
  0
LINE
  8
CSLAYER4
  6
CONTINUOUS
 62
     7
 10
546.815336
 20
235.892292
 11
546.817437
 21
235.959714
  0
LINE
  8
CSLAYER4
  6
CONTINUOUS
 62
     7
 10
546.817437
 20
235.959714
 11
546.818694
 21
236.027115
  0
LINE
  8
CSLAYER4
  6
CONTINUOUS
 62
     7
 10
546.818694
 20
236.027115
 11
546.819086
 21
236.094465
  0
LINE
  8
CSLAYER4
  6
CONTINUOUS
 62
     7
 10
546.819086
 20
236.094465
 11
546.818180
 21
236.178643
  0
LINE
  8
CSLAYER4
  6
CONTINUOUS
 62
     7
 10
546.818180
 20
236.178643
 11
546.815357
 21
236.262823
  0
LINE
  8
CSLAYER4
  6
CONTINUOUS
 62
     7
 10
546.815357
 20
236.262823
 11
546.810537
 21
236.346919
  0
LINE
  8
CSLAYER4
  6
CONTINUOUS
 62
     7
 10
546.810537
 20
236.346919
 11
546.803657
 21
236.430852
  0
LINE
  8
CSLAYER4
  6
CONTINUOUS
 62
     7
 10
546.803657
 20
236.430852
 11
546.794634
 21
236.514558
  0
LINE
  8
CSLAYER4
  6
CONTINUOUS
 62
     7
 10
546.794634
 20
236.514558
 11
546.783345
 21
236.597964
  0
LINE
  8
CSLAYER4
  6
CONTINUOUS
 62
     7
 10
546.783345
 20
236.597964
 11
546.769751
 21
236.680990
  0
LINE
  8
CSLAYER4
  6
CONTINUOUS
 62
     7
 10
546.769751
 20
236.680990
 11
546.753725
 21
236.763573
  0
LINE
  8
CSLAYER4
  6
CONTINUOUS
 62
     7
 10
546.753725
 20
236.763573
 11
546.735204
 21
236.845630
  0
LINE
  8
CSLAYER4
  6
CONTINUOUS
 62
     7
 10
546.735204
 20
236.845630
 11
546.714132
 21
236.927029
  0
LINE
  8
CSLAYER4
  6
CONTINUOUS
 62
     7
 10
546.714132
 20
236.927029
 11
546.690504
 21
237.007428
  0
LINE
  8
CSLAYER4
  6
CONTINUOUS
 62
     7
 10
546.690504
 20
237.007428
 11
546.664260
 21
237.086746
  0
LINE
  8
CSLAYER4
  6
CONTINUOUS
 62
     7
 10
546.664260
 20
237.086746
 11
546.635360
 21
237.164952
  0
LINE
  8
CSLAYER4
  6
CONTINUOUS
 62
     7
 10
546.635360
 20
237.164952
 11
546.603761
 21
237.242004
  0
LINE
  8
CSLAYER4
  6
CONTINUOUS
 62
     7
 10
546.603761
 20
237.242004
 11
546.569400
 21
237.317851
  0
LINE
  8
CSLAYER4
  6
CONTINUOUS
 62
     7
 10
546.569400
 20
237.317851
 11
546.532218
 21
237.392461
  0
LINE
  8
CSLAYER4
  6
CONTINUOUS
 62
     7
 10
546.532218
 20
237.392461
 11
546.492153
 21
237.465795
  0
LINE
  8
CSLAYER4
  6
CONTINUOUS
 62
     7
 10
546.492153
 20
237.465795
 11
546.449183
 21
237.537811
  0
LINE
  8
CSLAYER4
  6
CONTINUOUS
 62
     7
 10
546.449183
 20
237.537811
 11
546.403494
 21
237.608095
  0
LINE
  8
CSLAYER4
  6
CONTINUOUS
 62
     7
 10
546.403494
 20
237.608095
 11
546.355250
 21
237.676351
  0
LINE
  8
CSLAYER4
  6
CONTINUOUS
 62
     7
 10
546.355250
 20
237.676351
 11
546.304535
 21
237.742599
  0
LINE
  8
CSLAYER4
  6
CONTINUOUS
 62
     7
 10
546.304535
 20
237.742599
 11
546.251327
 21
237.806848
  0
LINE
  8
CSLAYER4
  6
CONTINUOUS
 62
     7
 10
546.251327
 20
237.806848
 11
546.195645
 21
237.869110
  0
LINE
  8
CSLAYER4
  6
CONTINUOUS
 62
     7
 10
546.195645
 20
237.869110
 11
546.137535
 21
237.929415
  0
LINE
  8
CSLAYER4
  6
CONTINUOUS
 62
     7
 10
546.137535
 20
237.929415
 11
546.097058
 21
237.969325
  0
LINE
  8
CSLAYER4
  6
CONTINUOUS
 62
     7
 10
546.097058
 20
237.969325
 11
546.056064
 21
238.008598
  0
LINE
  8
CSLAYER4
  6
CONTINUOUS
 62
     7
 10
546.056064
 20
238.008598
 11
546.014577
 21
238.047243
  0
LINE
  8
CSLAYER4
  6
CONTINUOUS
 62
     7
 10
546.014577
 20
238.047243
 11
545.972616
 21
238.085250
  0
LINE
  8
CSLAYER4
  6
CONTINUOUS
 62
     7
 10
545.972616
 20
238.085250
 11
545.930162
 21
238.122627
  0
LINE
  8
CSLAYER4
  6
CONTINUOUS
 62
     7
 10
545.930162
 20
238.122627
 11
545.887211
 21
238.159375
  0
LINE
  8
CSLAYER4
  6
CONTINUOUS
 62
     7
 10
545.887211
 20
238.159375
 11
545.843768
 21
238.195497
  0
LINE
  8
CSLAYER4
  6
CONTINUOUS
 62
     7
 10
545.843768
 20
238.195497
 11
545.799870
 21
238.231000
  0
LINE
  8
CSLAYER4
  6
CONTINUOUS
 62
     7
 10
545.799870
 20
238.231000
 11
545.755478
 21
238.265884
  0
LINE
  8
CSLAYER4
  6
CONTINUOUS
 62
     7
 10
545.755478
 20
238.265884
 11
545.710613
 21
238.300152
  0
LINE
  8
CSLAYER4
  6
CONTINUOUS
 62
     7
 10
545.710613
 20
238.300152
 11
545.665274
 21
238.333800
  0
LINE
  8
CSLAYER4
  6
CONTINUOUS
 62
     7
 10
545.665274
 20
238.333800
 11
545.619482
 21
238.366842
  0
LINE
  8
CSLAYER4
  6
CONTINUOUS
 62
     7
 10
545.619482
 20
238.366842
 11
545.573216
 21
238.399287
  0
LINE
  8
CSLAYER4
  6
CONTINUOUS
 62
     7
 10
545.573216
 20
238.399287
 11
545.526495
 21
238.431112
  0
LINE
  8
CSLAYER4
  6
CONTINUOUS
 62
     7
 10
545.526495
 20
238.431112
 11
545.479304
 21
238.462351
  0
LINE
  8
CSLAYER4
  6
CONTINUOUS
 62
     7
 10
545.479304
 20
238.462351
 11
545.431677
 21
238.492983
  0
LINE
  8
CSLAYER4
  6
CONTINUOUS
 62
     7
 10
545.431677
 20
238.492983
 11
545.383578
 21
238.523016
  0
LINE
  8
CSLAYER4
  6
CONTINUOUS
 62
     7
 10
545.383578
 20
238.523016
 11
545.335046
 21
238.552453
  0
LINE
  8
CSLAYER4
  6
CONTINUOUS
 62
     7
 10
545.335046
 20
238.552453
 11
545.286143
 21
238.581250
  0
LINE
  8
CSLAYER4
  6
CONTINUOUS
 62
     7
 10
545.286143
 20
238.581250
 11
545.236910
 21
238.609420
  0
LINE
  8
CSLAYER4
  6
CONTINUOUS
 62
     7
 10
545.236910
 20
238.609420
 11
545.187327
 21
238.636951
  0
LINE
  8
CSLAYER4
  6
CONTINUOUS
 62
     7
 10
545.187327
 20
238.636951
 11
545.137395
 21
238.663864
  0
LINE
  8
CSLAYER4
  6
CONTINUOUS
 62
     7
 10
545.137395
 20
238.663864
 11
545.087153
 21
238.690149
  0
LINE
  8
CSLAYER4
  6
CONTINUOUS
 62
     7
 10
545.087153
 20
238.690149
 11
545.036561
 21
238.715817
  0
LINE
  8
CSLAYER4
  6
CONTINUOUS
 62
     7
 10
543.254043
 20
239.502228
 11
545.036567
 21
238.715821
  0
LINE
  8
CSLAYER4
  6
CONTINUOUS
 62
     7
 10
543.254046
 20
239.502228
 11
543.215762
 21
239.517801
  0
LINE
  8
CSLAYER4
  6
CONTINUOUS
 62
     7
 10
543.215762
 20
239.517801
 11
543.177593
 21
239.533848
  0
LINE
  8
CSLAYER4
  6
CONTINUOUS
 62
     7
 10
543.177593
 20
239.533848
 11
543.139556
 21
239.550379
  0
LINE
  8
CSLAYER4
  6
CONTINUOUS
 62
     7
 10
543.139556
 20
239.550379
 11
543.101673
 21
239.567415
  0
LINE
  8
CSLAYER4
  6
CONTINUOUS
 62
     7
 10
543.101673
 20
239.567415
 11
543.063986
 21
239.584944
  0
LINE
  8
CSLAYER4
  6
CONTINUOUS
 62
     7
 10
543.063986
 20
239.584944
 11
543.026505
 21
239.603001
  0
LINE
  8
CSLAYER4
  6
CONTINUOUS
 62
     7
 10
543.026505
 20
239.603001
 11
542.989251
 21
239.621581
  0
LINE
  8
CSLAYER4
  6
CONTINUOUS
 62
     7
 10
542.989251
 20
239.621581
 11
542.952266
 21
239.640685
  0
LINE
  8
CSLAYER4
  6
CONTINUOUS
 62
     7
 10
542.952266
 20
239.640685
 11
542.915558
 21
239.660338
  0
LINE
  8
CSLAYER4
  6
CONTINUOUS
 62
     7
 10
542.915558
 20
239.660338
 11
542.879159
 21
239.680536
  0
LINE
  8
CSLAYER4
  6
CONTINUOUS
 62
     7
 10
542.879159
 20
239.680536
 11
542.843090
 21
239.701300
  0
LINE
  8
CSLAYER4
  6
CONTINUOUS
 62
     7
 10
542.843090
 20
239.701300
 11
542.807379
 21
239.722630
  0
LINE
  8
CSLAYER4
  6
CONTINUOUS
 62
     7
 10
542.807379
 20
239.722630
 11
542.772053
 21
239.744527
  0
LINE
  8
CSLAYER4
  6
CONTINUOUS
 62
     7
 10
542.772053
 20
239.744527
 11
542.737125
 21
239.767023
  0
LINE
  8
CSLAYER4
  6
CONTINUOUS
 62
     7
 10
542.737125
 20
239.767023
 11
542.702622
 21
239.790114
  0
LINE
  8
CSLAYER4
  6
CONTINUOUS
 62
     7
 10
542.702622
 20
239.790114
 11
542.668581
 21
239.813814
  0
LINE
  8
CSLAYER4
  6
CONTINUOUS
 62
     7
 10
542.668581
 20
239.813814
 11
542.635014
 21
239.838121
  0
LINE
  8
CSLAYER4
  6
CONTINUOUS
 62
     7
 10
542.635014
 20
239.838121
 11
542.601963
 21
239.863047
  0
LINE
  8
CSLAYER4
  6
CONTINUOUS
 62
     7
 10
542.601963
 20
239.863047
 11
542.569416
 21
239.888610
  0
LINE
  8
CSLAYER4
  6
CONTINUOUS
 62
     7
 10
542.569416
 20
239.888610
 11
542.537415
 21
239.914843
  0
LINE
  8
CSLAYER4
  6
CONTINUOUS
 62
     7
 10
542.537415
 20
239.914843
 11
542.505960
 21
239.941725
  0
LINE
  8
CSLAYER4
  6
CONTINUOUS
 62
     7
 10
542.505960
 20
239.941725
 11
542.475092
 21
239.969298
  0
LINE
  8
CSLAYER4
  6
CONTINUOUS
 62
     7
 10
542.475092
 20
239.969298
 11
542.444831
 21
239.997549
  0
LINE
  8
CSLAYER4
  6
CONTINUOUS
 62
     7
 10
542.444831
 20
239.997549
 11
542.415209
 21
240.026502
  0
LINE
  8
CSLAYER4
  6
CONTINUOUS
 62
     7
 10
542.415209
 20
240.026502
 11
542.391324
 21
240.051004
  0
LINE
  8
CSLAYER4
  6
CONTINUOUS
 62
     7
 10
542.391324
 20
240.051004
 11
542.368139
 21
240.076116
  0
LINE
  8
CSLAYER4
  6
CONTINUOUS
 62
     7
 10
542.368139
 20
240.076116
 11
542.345666
 21
240.101823
  0
LINE
  8
CSLAYER4
  6
CONTINUOUS
 62
     7
 10
542.345666
 20
240.101823
 11
542.323953
 21
240.128149
  0
LINE
  8
CSLAYER4
  6
CONTINUOUS
 62
     7
 10
542.323953
 20
240.128149
 11
542.303025
 21
240.155104
  0
LINE
  8
CSLAYER4
  6
CONTINUOUS
 62
     7
 10
542.303025
 20
240.155104
 11
542.282930
 21
240.182686
  0
LINE
  8
CSLAYER4
  6
CONTINUOUS
 62
     7
 10
542.282930
 20
240.182686
 11
542.263691
 21
240.210918
  0
LINE
  8
CSLAYER4
  6
CONTINUOUS
 62
     7
 10
542.263691
 20
240.210918
 11
542.245347
 21
240.239788
  0
LINE
  8
CSLAYER4
  6
CONTINUOUS
 62
     7
 10
542.245347
 20
240.239788
 11
542.227920
 21
240.269328
  0
LINE
  8
CSLAYER4
  6
CONTINUOUS
 62
     7
 10
542.227920
 20
240.269328
 11
542.211524
 21
240.299422
  0
LINE
  8
CSLAYER4
  6
CONTINUOUS
 62
     7
 10
542.211524
 20
240.299422
 11
542.196228
 21
240.329952
  0
LINE
  8
CSLAYER4
  6
CONTINUOUS
 62
     7
 10
542.196228
 20
240.329952
 11
542.182035
 21
240.360912
  0
LINE
  8
CSLAYER4
  6
CONTINUOUS
 62
     7
 10
542.182035
 20
240.360912
 11
542.168975
 21
240.392305
  0
LINE
  8
CSLAYER4
  6
CONTINUOUS
 62
     7
 10
542.168975
 20
240.392305
 11
542.157027
 21
240.424131
  0
LINE
  8
CSLAYER4
  6
CONTINUOUS
 62
     7
 10
542.157027
 20
240.424131
 11
542.146212
 21
240.456400
  0
LINE
  8
CSLAYER4
  6
CONTINUOUS
 62
     7
 10
542.146212
 20
240.456400
 11
542.136531
 21
240.489102
  0
LINE
  8
CSLAYER4
  6
CONTINUOUS
 62
     7
 10
542.136531
 20
240.489102
 11
542.127992
 21
240.522235
  0
LINE
  8
CSLAYER4
  6
CONTINUOUS
 62
     7
 10
542.127992
 20
240.522235
 11
542.120607
 21
240.555813
  0
LINE
  8
CSLAYER4
  6
CONTINUOUS
 62
     7
 10
542.120607
 20
240.555813
 11
542.114406
 21
240.589606
  0
LINE
  8
CSLAYER4
  6
CONTINUOUS
 62
     7
 10
542.114406
 20
240.589606
 11
542.109392
 21
240.623544
  0
LINE
  8
CSLAYER4
  6
CONTINUOUS
 62
     7
 10
542.109392
 20
240.623544
 11
542.105528
 21
240.657604
  0
LINE
  8
CSLAYER4
  6
CONTINUOUS
 62
     7
 10
542.105528
 20
240.657604
 11
542.102799
 21
240.691789
  0
LINE
  8
CSLAYER4
  6
CONTINUOUS
 62
     7
 10
542.102799
 20
240.691789
 11
542.101182
 21
240.726088
  0
LINE
  8
CSLAYER4
  6
CONTINUOUS
 62
     7
 10
542.101182
 20
240.726088
 11
542.100647
 21
240.760479
  0
LINE
  8
CSLAYER4
  6
CONTINUOUS
 62
     7
 10
542.100647
 20
240.760479
 11
542.101275
 21
240.817930
  0
LINE
  8
CSLAYER4
  6
CONTINUOUS
 62
     7
 10
542.101275
 20
240.817930
 11
542.103212
 21
240.875526
  0
LINE
  8
CSLAYER4
  6
CONTINUOUS
 62
     7
 10
542.103212
 20
240.875526
 11
542.106548
 21
240.933162
  0
LINE
  8
CSLAYER4
  6
CONTINUOUS
 62
     7
 10
542.106548
 20
240.933162
 11
542.111369
 21
240.990748
  0
LINE
  8
CSLAYER4
  6
CONTINUOUS
 62
     7
 10
542.111369
 20
240.990748
 11
542.117765
 21
241.048189
  0
LINE
  8
CSLAYER4
  6
CONTINUOUS
 62
     7
 10
542.117765
 20
241.048189
 11
542.125809
 21
241.105372
  0
LINE
  8
CSLAYER4
  6
CONTINUOUS
 62
     7
 10
542.125809
 20
241.105372
 11
542.135604
 21
241.162228
  0
LINE
  8
CSLAYER4
  6
CONTINUOUS
 62
     7
 10
542.135604
 20
241.162228
 11
542.147232
 21
241.218649
  0
LINE
  8
CSLAYER4
  6
CONTINUOUS
 62
     7
 10
542.147232
 20
241.218649
 11
542.160777
 21
241.274526
  0
LINE
  8
CSLAYER4
  6
CONTINUOUS
 62
     7
 10
542.160777
 20
241.274526
 11
542.176319
 21
241.329772
  0
LINE
  8
CSLAYER4
  6
CONTINUOUS
 62
     7
 10
542.176319
 20
241.329772
 11
542.193942
 21
241.384227
  0
LINE
  8
CSLAYER4
  6
CONTINUOUS
 62
     7
 10
542.193942
 20
241.384227
 11
542.213645
 21
241.437661
  0
LINE
  8
CSLAYER4
  6
CONTINUOUS
 62
     7
 10
542.213645
 20
241.437661
 11
542.235510
 21
241.490005
  0
LINE
  8
CSLAYER4
  6
CONTINUOUS
 62
     7
 10
542.235510
 20
241.490005
 11
542.259602
 21
241.541194
  0
LINE
  8
CSLAYER4
  6
CONTINUOUS
 62
     7
 10
542.259602
 20
241.541194
 11
542.285979
 21
241.591168
  0
LINE
  8
CSLAYER4
  6
CONTINUOUS
 62
     7
 10
542.285979
 20
241.591168
 11
542.314715
 21
241.639834
  0
LINE
  8
CSLAYER4
  6
CONTINUOUS
 62
     7
 10
542.314715
 20
241.639834
 11
542.345862
 21
241.687161
  0
LINE
  8
CSLAYER4
  6
CONTINUOUS
 62
     7
 10
542.345862
 20
241.687161
 11
542.379500
 21
241.733056
  0
LINE
  8
CSLAYER4
  6
CONTINUOUS
 62
     7
 10
542.379500
 20
241.733056
 11
542.415488
 21
241.777212
  0
LINE
  8
CSLAYER4
  6
CONTINUOUS
 62
     7
 10
542.415488
 20
241.777212
 11
542.453472
 21
241.819234
  0
LINE
  8
CSLAYER4
  6
CONTINUOUS
 62
     7
 10
542.453472
 20
241.819234
 11
542.493446
 21
241.859125
  0
LINE
  8
CSLAYER4
  6
CONTINUOUS
 62
     7
 10
542.493446
 20
241.859125
 11
542.535366
 21
241.896913
  0
LINE
  8
CSLAYER4
  6
CONTINUOUS
 62
     7
 10
542.535366
 20
241.896913
 11
542.579201
 21
241.932633
  0
LINE
  8
CSLAYER4
  6
CONTINUOUS
 62
     7
 10
542.579201
 20
241.932633
 11
542.624921
 21
241.966303
  0
LINE
  8
CSLAYER4
  6
CONTINUOUS
 62
     7
 10
542.624921
 20
241.966303
 11
542.667027
 21
241.994740
  0
LINE
  8
CSLAYER4
  6
CONTINUOUS
 62
     7
 10
542.667027
 20
241.994740
 11
542.709935
 21
242.021613
  0
LINE
  8
CSLAYER4
  6
CONTINUOUS
 62
     7
 10
542.709935
 20
242.021613
 11
542.753646
 21
242.046847
  0
LINE
  8
CSLAYER4
  6
CONTINUOUS
 62
     7
 10
542.753646
 20
242.046847
 11
542.798162
 21
242.070391
  0
LINE
  8
CSLAYER4
  6
CONTINUOUS
 62
     7
 10
542.798162
 20
242.070391
 11
542.843511
 21
242.092186
  0
LINE
  8
CSLAYER4
  6
CONTINUOUS
 62
     7
 10
542.843511
 20
242.092186
 11
542.889684
 21
242.112157
  0
LINE
  8
CSLAYER4
  6
CONTINUOUS
 62
     7
 10
542.889684
 20
242.112157
 11
542.936693
 21
242.130253
  0
LINE
  8
CSLAYER4
  6
CONTINUOUS
 62
     7
 10
542.936693
 20
242.130253
 11
542.984535
 21
242.146404
  0
LINE
  8
CSLAYER4
  6
CONTINUOUS
 62
     7
 10
542.984535
 20
242.146404
 11
543.033221
 21
242.160544
  0
LINE
  8
CSLAYER4
  6
CONTINUOUS
 62
     7
 10
543.033221
 20
242.160544
 11
543.082341
 21
242.172523
  0
LINE
  8
CSLAYER4
  6
CONTINUOUS
 62
     7
 10
543.082341
 20
242.172523
 11
543.131655
 21
242.182297
  0
LINE
  8
CSLAYER4
  6
CONTINUOUS
 62
     7
 10
543.131655
 20
242.182297
 11
543.181166
 21
242.189889
  0
LINE
  8
CSLAYER4
  6
CONTINUOUS
 62
     7
 10
543.181166
 20
242.189889
 11
543.230861
 21
242.195326
  0
LINE
  8
CSLAYER4
  6
CONTINUOUS
 62
     7
 10
543.230861
 20
242.195326
 11
543.280754
 21
242.198634
  0
LINE
  8
CSLAYER4
  6
CONTINUOUS
 62
     7
 10
543.280754
 20
242.198634
 11
543.330819
 21
242.199838
  0
LINE
  8
CSLAYER4
  6
CONTINUOUS
 62
     7
 10
543.330819
 20
242.199838
 11
543.381072
 21
242.198962
  0
LINE
  8
CSLAYER4
  6
CONTINUOUS
 62
     7
 10
543.381072
 20
242.198962
 11
543.431489
 21
242.196027
  0
LINE
  8
CSLAYER4
  6
CONTINUOUS
 62
     7
 10
543.431489
 20
242.196027
 11
543.481988
 21
242.191074
  0
LINE
  8
CSLAYER4
  6
CONTINUOUS
 62
     7
 10
543.481988
 20
242.191074
 11
543.532241
 21
242.184193
  0
LINE
  8
CSLAYER4
  6
CONTINUOUS
 62
     7
 10
543.532241
 20
242.184193
 11
543.582174
 21
242.175448
  0
LINE
  8
CSLAYER4
  6
CONTINUOUS
 62
     7
 10
543.582174
 20
242.175448
 11
543.631766
 21
242.164942
  0
LINE
  8
CSLAYER4
  6
CONTINUOUS
 62
     7
 10
543.631766
 20
242.164942
 11
543.680999
 21
242.152738
  0
LINE
  8
CSLAYER4
  6
CONTINUOUS
 62
     7
 10
543.680999
 20
242.152738
 11
543.729861
 21
242.138926
  0
LINE
  8
CSLAYER4
  6
CONTINUOUS
 62
     7
 10
543.729861
 20
242.138926
 11
543.778311
 21
242.123590
  0
LINE
  8
CSLAYER4
  6
CONTINUOUS
 62
     7
 10
543.778311
 20
242.123590
 11
543.865683
 21
242.093308
  0
LINE
  8
CSLAYER4
  6
CONTINUOUS
 62
     7
 10
543.865683
 20
242.093308
 11
543.950922
 21
242.058196
  0
LINE
  8
CSLAYER4
  6
CONTINUOUS
 62
     7
 10
543.950922
 20
242.058196
 11
544.033907
 21
242.018080
  0
LINE
  8
CSLAYER4
  6
CONTINUOUS
 62
     7
 10
544.033907
 20
242.018080
 11
544.114533
 21
241.972813
  0
LINE
  8
CSLAYER4
  6
CONTINUOUS
 62
     7
 10
544.114533
 20
241.972813
 11
544.192337
 21
241.922446
  0
LINE
  8
CSLAYER4
  6
CONTINUOUS
 62
     7
 10
544.192337
 20
241.922446
 11
544.266516
 21
241.867477
  0
LINE
  8
CSLAYER4
  6
CONTINUOUS
 62
     7
 10
544.266516
 20
241.867477
 11
544.337006
 21
241.807996
  0
LINE
  8
CSLAYER4
  6
CONTINUOUS
 62
     7
 10
544.337006
 20
241.807996
 11
544.403892
 21
241.744066
  0
LINE
  8
CSLAYER4
  6
CONTINUOUS
 62
     7
 10
544.403892
 20
241.744066
 11
544.467071
 21
241.675852
  0
LINE
  8
CSLAYER4
  6
CONTINUOUS
 62
     7
 10
544.467071
 20
241.675852
 11
544.526027
 21
241.604218
  0
LINE
  8
CSLAYER4
  6
CONTINUOUS
 62
     7
 10
544.526027
 20
241.604218
 11
544.580780
 21
241.529535
  0
LINE
  8
CSLAYER4
  6
CONTINUOUS
 62
     7
 10
544.580780
 20
241.529535
 11
544.631516
 21
241.452061
  0
LINE
  8
CSLAYER4
  6
CONTINUOUS
 62
     7
 10
544.631516
 20
241.452061
 11
544.678358
 21
241.372083
  0
LINE
  8
CSLAYER4
  6
CONTINUOUS
 62
     7
 10
544.678358
 20
241.372083
 11
544.721493
 21
241.289851
  0
LINE
  8
CSLAYER4
  6
CONTINUOUS
 62
     7
 10
544.721493
 20
241.289851
 11
544.761065
 21
241.205641
  0
LINE
  8
CSLAYER4
  6
CONTINUOUS
 62
     7
 10
544.761065
 20
241.205641
 11
544.797237
 21
241.119711
  0
LINE
  8
CSLAYER4
  6
CONTINUOUS
 62
     7
 10
544.797237
 20
241.119711
 11
544.830176
 21
241.032318
  0
LINE
  8
CSLAYER4
  6
CONTINUOUS
 62
     7
 10
544.830176
 20
241.032318
 11
544.860107
 21
240.943503
  0
LINE
  8
CSLAYER4
  6
CONTINUOUS
 62
     7
 10
544.860107
 20
240.943503
 11
544.887153
 21
240.853474
  0
LINE
  8
CSLAYER4
  6
CONTINUOUS
 62
     7
 10
544.887153
 20
240.853474
 11
544.911461
 21
240.762456
  0
LINE
  8
CSLAYER4
  6
CONTINUOUS
 62
     7
 10
544.911461
 20
240.762456
 11
544.933193
 21
240.670716
  0
LINE
  8
CSLAYER4
  6
CONTINUOUS
 62
     7
 10
544.933193
 20
240.670716
 11
544.952453
 21
240.578472
  0
LINE
  8
CSLAYER4
  6
CONTINUOUS
 62
     7
 10
544.952453
 20
240.578472
 11
544.969386
 21
240.485982
  0
LINE
  8
CSLAYER4
  6
CONTINUOUS
 62
     7
 10
544.969386
 20
240.485982
 11
544.984136
 21
240.393490
  0
LINE
  8
CSLAYER4
  6
CONTINUOUS
 62
     7
 10
546.556955
 20
240.393490
 11
544.984140
 21
240.393490
  0
LINE
  8
CSLAYER4
  6
CONTINUOUS
 62
     7
 10
546.556959
 20
240.393490
 11
546.552098
 21
240.503347
  0
LINE
  8
CSLAYER4
  6
CONTINUOUS
 62
     7
 10
546.552098
 20
240.503347
 11
546.545033
 21
240.613171
  0
LINE
  8
CSLAYER4
  6
CONTINUOUS
 62
     7
 10
546.545033
 20
240.613171
 11
546.535659
 21
240.722874
  0
LINE
  8
CSLAYER4
  6
CONTINUOUS
 62
     7
 10
546.535659
 20
240.722874
 11
546.523896
 21
240.832360
  0
LINE
  8
CSLAYER4
  6
CONTINUOUS
 62
     7
 10
546.523896
 20
240.832360
 11
546.509642
 21
240.941536
  0
LINE
  8
CSLAYER4
  6
CONTINUOUS
 62
     7
 10
546.509642
 20
240.941536
 11
546.492792
 21
241.050301
  0
LINE
  8
CSLAYER4
  6
CONTINUOUS
 62
     7
 10
546.492792
 20
241.050301
 11
546.473264
 21
241.158571
  0
LINE
  8
CSLAYER4
  6
CONTINUOUS
 62
     7
 10
546.473264
 20
241.158571
 11
546.450975
 21
241.266255
  0
LINE
  8
CSLAYER4
  6
CONTINUOUS
 62
     7
 10
546.450975
 20
241.266255
 11
546.425783
 21
241.373238
  0
LINE
  8
CSLAYER4
  6
CONTINUOUS
 62
     7
 10
546.425783
 20
241.373238
 11
546.397664
 21
241.479406
  0
LINE
  8
CSLAYER4
  6
CONTINUOUS
 62
     7
 10
546.397664
 20
241.479406
 11
546.366518
 21
241.584483
  0
LINE
  8
CSLAYER4
  6
CONTINUOUS
 62
     7
 10
546.366518
 20
241.584483
 11
546.332343
 21
241.688356
  0
LINE
  8
CSLAYER4
  6
CONTINUOUS
 62
     7
 10
546.332343
 20
241.688356
 11
546.295017
 21
241.790971
  0
LINE
  8
CSLAYER4
  6
CONTINUOUS
 62
     7
 10
546.295017
 20
241.790971
 11
546.254478
 21
241.892238
  0
LINE
  8
CSLAYER4
  6
CONTINUOUS
 62
     7
 10
546.254478
 20
241.892238
 11
546.210642
 21
241.992093
  0
LINE
  8
CSLAYER4
  6
CONTINUOUS
 62
     7
 10
546.210642
 20
241.992093
 11
546.163449
 21
242.090466
  0
LINE
  8
CSLAYER4
  6
CONTINUOUS
 62
     7
 10
546.163449
 20
242.090466
 11
546.112817
 21
242.187294
  0
LINE
  8
CSLAYER4
  6
CONTINUOUS
 62
     7
 10
546.112817
 20
242.187294
 11
546.058661
 21
242.282503
  0
LINE
  8
CSLAYER4
  6
CONTINUOUS
 62
     7
 10
546.058661
 20
242.282503
 11
546.001127
 21
242.375695
  0
LINE
  8
CSLAYER4
  6
CONTINUOUS
 62
     7
 10
546.001127
 20
242.375695
 11
545.940420
 21
242.466466
  0
LINE
  8
CSLAYER4
  6
CONTINUOUS
 62
     7
 10
545.940420
 20
242.466466
 11
545.876520
 21
242.554807
  0
LINE
  8
CSLAYER4
  6
CONTINUOUS
 62
     7
 10
545.876520
 20
242.554807
 11
545.809428
 21
242.640696
  0
LINE
  8
CSLAYER4
  6
CONTINUOUS
 62
     7
 10
545.809428
 20
242.640696
 11
545.739164
 21
242.724144
  0
LINE
  8
CSLAYER4
  6
CONTINUOUS
 62
     7
 10
545.739164
 20
242.724144
 11
545.665686
 21
242.805139
  0
LINE
  8
CSLAYER4
  6
CONTINUOUS
 62
     7
 10
545.665686
 20
242.805139
 11
545.591384
 21
242.885323
  0
LINE
  8
CSLAYER4
  6
CONTINUOUS
 62
     7
 10
545.591384
 20
242.885323
 11
545.514878
 21
242.963044
  0
LINE
  8
CSLAYER4
  6
CONTINUOUS
 62
     7
 10
545.514878
 20
242.963044
 11
545.436147
 21
243.038191
  0
LINE
  8
CSLAYER4
  6
CONTINUOUS
 62
     7
 10
545.436147
 20
243.038191
 11
545.355131
 21
243.110619
  0
LINE
  8
CSLAYER4
  6
CONTINUOUS
 62
     7
 10
545.355131
 20
243.110619
 11
545.271827
 21
243.180204
  0
LINE
  8
CSLAYER4
  6
CONTINUOUS
 62
     7
 10
545.271827
 20
243.180204
 11
545.186174
 21
243.246822
  0
LINE
  8
CSLAYER4
  6
CONTINUOUS
 62
     7
 10
545.186174
 20
243.246822
 11
545.098112
 21
243.310339
  0
LINE
  8
CSLAYER4
  6
CONTINUOUS
 62
     7
 10
545.098112
 20
243.310339
 11
545.007660
 21
243.370623
  0
LINE
  8
CSLAYER4
  6
CONTINUOUS
 62
     7
 10
545.007660
 20
243.370623
 11
544.914716
 21
243.427551
  0
LINE
  8
CSLAYER4
  6
CONTINUOUS
 62
     7
 10
544.914716
 20
243.427551
 11
544.819793
 21
243.480706
  0
LINE
  8
CSLAYER4
  6
CONTINUOUS
 62
     7
 10
544.819793
 20
243.480706
 11
544.723389
 21
243.529795
  0
LINE
  8
CSLAYER4
  6
CONTINUOUS
 62
     7
 10
544.723389
 20
243.529795
 11
544.625501
 21
243.574825
  0
LINE
  8
CSLAYER4
  6
CONTINUOUS
 62
     7
 10
544.625501
 20
243.574825
 11
544.526109
 21
243.615787
  0
LINE
  8
CSLAYER4
  6
CONTINUOUS
 62
     7
 10
544.526109
 20
243.615787
 11
544.425233
 21
243.652701
  0
LINE
  8
CSLAYER4
  6
CONTINUOUS
 62
     7
 10
544.425233
 20
243.652701
 11
544.322876
 21
243.685567
  0
LINE
  8
CSLAYER4
  6
CONTINUOUS
 62
     7
 10
544.322876
 20
243.685567
 11
544.219055
 21
243.714385
  0
LINE
  8
CSLAYER4
  6
CONTINUOUS
 62
     7
 10
544.219055
 20
243.714385
 11
544.113729
 21
243.739177
  0
LINE
  8
CSLAYER4
  6
CONTINUOUS
 62
     7
 10
544.113729
 20
243.739177
 11
544.007036
 21
243.759921
  0
LINE
  8
CSLAYER4
  6
CONTINUOUS
 62
     7
 10
544.007036
 20
243.759921
 11
543.899744
 21
243.776535
  0
LINE
  8
CSLAYER4
  6
CONTINUOUS
 62
     7
 10
543.899744
 20
243.776535
 11
543.792092
 21
243.789100
  0
LINE
  8
CSLAYER4
  6
CONTINUOUS
 62
     7
 10
543.792092
 20
243.789100
 11
543.684120
 21
243.797731
  0
LINE
  8
CSLAYER4
  6
CONTINUOUS
 62
     7
 10
543.684120
 20
243.797731
 11
543.575891
 21
243.802561
  0
LINE
  8
CSLAYER4
  6
CONTINUOUS
 62
     7
 10
543.575891
 20
243.802561
 11
543.467466
 21
243.803694
  0
LINE
  8
CSLAYER4
  6
CONTINUOUS
 62
     7
 10
543.467466
 20
243.803694
 11
543.358898
 21
243.801253
  0
LINE
  8
CSLAYER4
  6
CONTINUOUS
 62
     7
 10
543.358898
 20
243.801253
 11
543.244725
 21
243.795187
  0
LINE
  8
CSLAYER4
  6
CONTINUOUS
 62
     7
 10
543.244725
 20
243.795187
 11
543.131213
 21
243.785392
  0
LINE
  8
CSLAYER4
  6
CONTINUOUS
 62
     7
 10
543.131213
 20
243.785392
 11
543.018380
 21
243.771786
  0
LINE
  8
CSLAYER4
  6
CONTINUOUS
 62
     7
 10
543.018380
 20
243.771786
 11
542.906288
 21
243.754276
  0
LINE
  8
CSLAYER4
  6
CONTINUOUS
 62
     7
 10
542.906288
 20
243.754276
 11
542.794968
 21
243.732781
  0
LINE
  8
CSLAYER4
  6
CONTINUOUS
 62
     7
 10
542.794968
 20
243.732781
 11
542.684474
 21
243.707208
  0
LINE
  8
CSLAYER4
  6
CONTINUOUS
 62
     7
 10
542.684474
 20
243.707208
 11
542.574845
 21
243.677461
  0
LINE
  8
CSLAYER4
  6
CONTINUOUS
 62
     7
 10
542.574845
 20
243.677461
 11
542.466120
 21
243.643473
  0
LINE
  8
CSLAYER4
  6
CONTINUOUS
 62
     7
 10
542.466120
 20
243.643473
 11
542.358375
 21
243.605148
  0
LINE
  8
CSLAYER4
  6
CONTINUOUS
 62
     7
 10
542.358375
 20
243.605148
 11
542.252423
 21
243.562734
  0
LINE
  8
CSLAYER4
  6
CONTINUOUS
 62
     7
 10
542.252423
 20
243.562734
 11
542.148642
 21
243.516405
  0
LINE
  8
CSLAYER4
  6
CONTINUOUS
 62
     7
 10
542.148642
 20
243.516405
 11
542.046996
 21
243.466215
  0
LINE
  8
CSLAYER4
  6
CONTINUOUS
 62
     7
 10
542.046996
 20
243.466215
 11
541.947459
 21
243.412203
  0
LINE
  8
CSLAYER4
  6
CONTINUOUS
 62
     7
 10
541.947459
 20
243.412203
 11
541.850034
 21
243.354423
  0
LINE
  8
CSLAYER4
  6
CONTINUOUS
 62
     7
 10
541.850034
 20
243.354423
 11
541.754690
 21
243.292933
  0
LINE
  8
CSLAYER4
  6
CONTINUOUS
 62
     7
 10
541.754690
 20
243.292933
 11
541.661406
 21
243.227757
  0
LINE
  8
CSLAYER4
  6
CONTINUOUS
 62
     7
 10
541.661406
 20
243.227757
 11
541.570161
 21
243.158965
  0
LINE
  8
CSLAYER4
  6
CONTINUOUS
 62
     7
 10
541.570161
 20
243.158965
 11
541.481049
 21
243.086682
  0
LINE
  8
CSLAYER4
  6
CONTINUOUS
 62
     7
 10
541.481049
 20
243.086682
 11
541.394510
 21
243.011391
  0
LINE
  8
CSLAYER4
  6
CONTINUOUS
 62
     7
 10
541.394510
 20
243.011391
 11
541.310547
 21
242.933278
  0
LINE
  8
CSLAYER4
  6
CONTINUOUS
 62
     7
 10
541.310547
 20
242.933278
 11
541.229139
 21
242.852488
  0
LINE
  8
CSLAYER4
  6
CONTINUOUS
 62
     7
 10
541.229139
 20
242.852488
 11
541.150212
 21
242.769163
  0
LINE
  8
CSLAYER4
  6
CONTINUOUS
 62
     7
 10
541.150212
 20
242.769163
 11
541.073748
 21
242.683429
  0
LINE
  8
CSLAYER4
  6
CONTINUOUS
 62
     7
 10
541.073748
 20
242.683429
 11
540.999672
 21
242.595429
  0
LINE
  8
CSLAYER4
  6
CONTINUOUS
 62
     7
 10
540.999672
 20
242.595429
 11
540.947556
 21
242.523876
  0
LINE
  8
CSLAYER4
  6
CONTINUOUS
 62
     7
 10
540.947556
 20
242.523876
 11
540.897593
 21
242.451037
  0
LINE
  8
CSLAYER4
  6
CONTINUOUS
 62
     7
 10
540.897593
 20
242.451037
 11
540.849792
 21
242.376931
  0
LINE
  8
CSLAYER4
  6
CONTINUOUS
 62
     7
 10
540.849792
 20
242.376931
 11
540.804185
 21
242.301537
  0
LINE
  8
CSLAYER4
  6
CONTINUOUS
 62
     7
 10
540.804185
 20
242.301537
 11
540.760782
 21
242.224855
  0
LINE
  8
CSLAYER4
  6
CONTINUOUS
 62
     7
 10
540.760782
 20
242.224855
 11
540.719583
 21
242.146878
  0
LINE
  8
CSLAYER4
  6
CONTINUOUS
 62
     7
 10
540.719583
 20
242.146878
 11
540.680609
 21
242.067601
  0
LINE
  8
CSLAYER4
  6
CONTINUOUS
 62
     7
 10
540.680609
 20
242.067601
 11
540.643869
 21
241.987006
  0
LINE
  8
CSLAYER4
  6
CONTINUOUS
 62
     7
 10
540.643869
 20
241.987006
 11
540.609398
 21
241.905144
  0
LINE
  8
CSLAYER4
  6
CONTINUOUS
 62
     7
 10
540.609398
 20
241.905144
 11
540.577365
 21
241.822407
  0
LINE
  8
CSLAYER4
  6
CONTINUOUS
 62
     7
 10
540.577365
 20
241.822407
 11
540.547775
 21
241.738938
  0
LINE
  8
CSLAYER4
  6
CONTINUOUS
 62
     7
 10
540.547775
 20
241.738938
 11
540.520604
 21
241.654758
  0
LINE
  8
CSLAYER4
  6
CONTINUOUS
 62
     7
 10
540.520604
 20
241.654758
 11
540.495801
 21
241.569879
  0
LINE
  8
CSLAYER4
  6
CONTINUOUS
 62
     7
 10
540.495801
 20
241.569879
 11
540.473358
 21
241.484308
  0
LINE
  8
CSLAYER4
  6
CONTINUOUS
 62
     7
 10
540.473358
 20
241.484308
 11
540.453222
 21
241.398091
  0
LINE
  8
CSLAYER4
  6
CONTINUOUS
 62
     7
 10
540.453222
 20
241.398091
 11
540.435363
 21
241.311223
  0
LINE
  8
CSLAYER4
  6
CONTINUOUS
 62
     7
 10
540.435363
 20
241.311223
 11
540.419759
 21
241.223737
  0
LINE
  8
CSLAYER4
  6
CONTINUOUS
 62
     7
 10
540.419759
 20
241.223737
 11
540.406370
 21
241.135705
  0
LINE
  8
CSLAYER4
  6
CONTINUOUS
 62
     7
 10
540.406370
 20
241.135705
 11
540.395184
 21
241.047397
  0
LINE
  8
CSLAYER4
  6
CONTINUOUS
 62
     7
 10
540.395184
 20
241.047397
 11
540.386162
 21
240.958860
  0
LINE
  8
CSLAYER4
  6
CONTINUOUS
 62
     7
 10
540.386162
 20
240.958860
 11
540.379250
 21
240.870139
  0
LINE
  8
CSLAYER4
  6
CONTINUOUS
 62
     7
 10
540.379250
 20
240.870139
 11
540.374378
 21
240.781263
  0
LINE
  8
CSLAYER4
  6
CONTINUOUS
 62
     7
 10
540.374378
 20
240.781263
 11
540.371495
 21
240.692274
  0
LINE
  8
CSLAYER4
  6
CONTINUOUS
 62
     7
 10
540.371495
 20
240.692274
 11
540.370547
 21
240.603202
  0
LINE
  8
CSLAYER4
  6
CONTINUOUS
 62
     7
 10
540.370547
 20
240.603202
 11
540.371433
 21
240.516840
  0
LINE
  8
CSLAYER4
  6
CONTINUOUS
 62
     7
 10
540.371433
 20
240.516840
 11
540.374162
 21
240.430435
  0
LINE
  8
CSLAYER4
  6
CONTINUOUS
 62
     7
 10
540.374162
 20
240.430435
 11
540.378807
 21
240.344052
  0
LINE
  8
CSLAYER4
  6
CONTINUOUS
 62
     7
 10
540.378807
 20
240.344052
 11
540.385472
 21
240.257802
  0
LINE
  8
CSLAYER4
  6
CONTINUOUS
 62
     7
 10
540.385472
 20
240.257802
 11
540.394247
 21
240.171748
  0
LINE
  8
CSLAYER4
  6
CONTINUOUS
 62
     7
 10
540.394247
 20
240.171748
 11
540.405216
 21
240.085993
  0
LINE
  8
CSLAYER4
  6
CONTINUOUS
 62
     7
 10
540.405216
 20
240.085993
 11
540.418461
 21
240.000609
  0
LINE
  8
CSLAYER4
  6
CONTINUOUS
 62
     7
 10
540.418461
 20
240.000609
 11
540.434096
 21
239.915688
  0
LINE
  8
CSLAYER4
  6
CONTINUOUS
 62
     7
 10
540.434096
 20
239.915688
 11
540.452192
 21
239.831313
  0
LINE
  8
CSLAYER4
  6
CONTINUOUS
 62
     7
 10
540.452192
 20
239.831313
 11
540.472833
 21
239.747596
  0
LINE
  8
CSLAYER4
  6
CONTINUOUS
 62
     7
 10
540.472833
 20
239.747596
 11
540.496059
 21
239.664840
  0
LINE
  8
CSLAYER4
  6
CONTINUOUS
 62
     7
 10
540.496059
 20
239.664840
 11
540.521912
 21
239.583121
  0
LINE
  8
CSLAYER4
  6
CONTINUOUS
 62
     7
 10
540.521912
 20
239.583121
 11
540.550463
 21
239.502516
  0
LINE
  8
CSLAYER4
  6
CONTINUOUS
 62
     7
 10
540.550463
 20
239.502516
 11
540.581783
 21
239.423074
  0
LINE
  8
CSLAYER4
  6
CONTINUOUS
 62
     7
 10
540.581783
 20
239.423074
 11
540.615947
 21
239.344858
  0
LINE
  8
CSLAYER4
  6
CONTINUOUS
 62
     7
 10
540.615947
 20
239.344858
 11
540.653006
 21
239.267931
  0
LINE
  8
CSLAYER4
  6
CONTINUOUS
 62
     7
 10
540.653006
 20
239.267931
 11
540.693051
 21
239.192341
  0
LINE
  8
CSLAYER4
  6
CONTINUOUS
 62
     7
 10
540.693051
 20
239.192341
 11
540.736124
 21
239.118142
  0
LINE
  8
CSLAYER4
  6
CONTINUOUS
 62
     7
 10
540.736124
 20
239.118142
 11
540.782123
 21
239.045704
  0
LINE
  8
CSLAYER4
  6
CONTINUOUS
 62
     7
 10
540.782123
 20
239.045704
 11
540.830799
 21
238.975431
  0
LINE
  8
CSLAYER4
  6
CONTINUOUS
 62
     7
 10
540.830799
 20
238.975431
 11
540.882143
 21
238.907307
  0
LINE
  8
CSLAYER4
  6
CONTINUOUS
 62
     7
 10
540.882143
 20
238.907307
 11
540.936144
 21
238.841338
  0
LINE
  8
CSLAYER4
  6
CONTINUOUS
 62
     7
 10
540.936144
 20
238.841338
 11
540.992802
 21
238.777512
  0
LINE
  8
CSLAYER4
  6
CONTINUOUS
 62
     7
 10
540.992802
 20
238.777512
 11
541.052099
 21
238.715817
  0
LINE
  8
CSLAYER4
  6
CONTINUOUS
 62
     7
 10
541.052099
 20
238.715817
 11
541.086674
 21
238.681600
  0
LINE
  8
CSLAYER4
  6
CONTINUOUS
 62
     7
 10
541.086674
 20
238.681600
 11
541.121682
 21
238.647663
  0
LINE
  8
CSLAYER4
  6
CONTINUOUS
 62
     7
 10
541.121682
 20
238.647663
 11
541.157114
 21
238.614055
  0
LINE
  8
CSLAYER4
  6
CONTINUOUS
 62
     7
 10
541.157114
 20
238.614055
 11
541.192977
 21
238.580787
  0
LINE
  8
CSLAYER4
  6
CONTINUOUS
 62
     7
 10
541.192977
 20
238.580787
 11
541.229262
 21
238.547901
  0
LINE
  8
CSLAYER4
  6
CONTINUOUS
 62
     7
 10
541.229262
 20
238.547901
 11
541.265970
 21
238.515415
  0
LINE
  8
CSLAYER4
  6
CONTINUOUS
 62
     7
 10
541.265970
 20
238.515415
 11
541.303091
 21
238.483374
  0
LINE
  8
CSLAYER4
  6
CONTINUOUS
 62
     7
 10
541.303091
 20
238.483374
 11
541.340622
 21
238.451803
  0
LINE
  8
CSLAYER4
  6
CONTINUOUS
 62
     7
 10
541.340622
 20
238.451803
 11
541.378566
 21
238.420731
  0
LINE
  8
CSLAYER4
  6
CONTINUOUS
 62
     7
 10
541.378566
 20
238.420731
 11
541.416923
 21
238.390180
  0
LINE
  8
CSLAYER4
  6
CONTINUOUS
 62
     7
 10
541.416923
 20
238.390180
 11
541.455669
 21
238.360188
  0
LINE
  8
CSLAYER4
  6
CONTINUOUS
 62
     7
 10
541.455669
 20
238.360188
 11
541.494830
 21
238.330794
  0
LINE
  8
CSLAYER4
  6
CONTINUOUS
 62
     7
 10
541.494830
 20
238.330794
 11
541.534380
 21
238.302016
  0
LINE
  8
CSLAYER4
  6
CONTINUOUS
 62
     7
 10
541.534380
 20
238.302016
 11
541.574322
 21
238.273878
  0
LINE
  8
CSLAYER4
  6
CONTINUOUS
 62
     7
 10
541.574322
 20
238.273878
 11
541.614645
 21
238.246428
  0
LINE
  8
CSLAYER4
  6
CONTINUOUS
 62
     7
 10
541.614645
 20
238.246428
 11
541.655361
 21
238.219680
  0
LINE
  8
CSLAYER4
  6
CONTINUOUS
 62
     7
 10
541.655361
 20
238.219680
 11
541.696467
 21
238.193674
  0
LINE
  8
CSLAYER4
  6
CONTINUOUS
 62
     7
 10
541.696467
 20
238.193674
 11
541.737944
 21
238.168440
  0
LINE
  8
CSLAYER4
  6
CONTINUOUS
 62
     7
 10
541.737944
 20
238.168440
 11
541.779822
 21
238.143988
  0
LINE
  8
CSLAYER4
  6
CONTINUOUS
 62
     7
 10
541.779822
 20
238.143988
 11
541.822143
 21
238.120320
  0
LINE
  8
CSLAYER4
  6
CONTINUOUS
 62
     7
 10
541.822143
 20
238.120320
 11
541.864898
 21
238.097485
  0
LINE
  8
CSLAYER4
  6
CONTINUOUS
 62
     7
 10
541.864898
 20
238.097485
 11
541.908095
 21
238.075506
  0
LINE
  8
CSLAYER4
  6
CONTINUOUS
 62
     7
 10
541.908095
 20
238.075506
 11
541.951724
 21
238.054422
  0
LINE
  8
CSLAYER4
  6
CONTINUOUS
 62
     7
 10
541.951724
 20
238.054422
 11
541.995786
 21
238.034265
  0
LINE
  8
CSLAYER4
  6
CONTINUOUS
 62
     7
 10
544.197731
 20
237.090577
 11
541.995789
 21
238.034266
  0
LINE
  8
CSLAYER4
  6
CONTINUOUS
 62
     7
 10
544.197734
 20
237.090577
 11
544.260624
 21
237.061687
  0
LINE
  8
CSLAYER4
  6
CONTINUOUS
 62
     7
 10
544.260624
 20
237.061687
 11
544.322361
 21
237.030417
  0
LINE
  8
CSLAYER4
  6
CONTINUOUS
 62
     7
 10
544.322361
 20
237.030417
 11
544.382799
 21
236.996655
  0
LINE
  8
CSLAYER4
  6
CONTINUOUS
 62
     7
 10
544.382799
 20
236.996655
 11
544.441713
 21
236.960307
  0
LINE
  8
CSLAYER4
  6
CONTINUOUS
 62
     7
 10
544.441713
 20
236.960307
 11
544.498938
 21
236.921271
  0
LINE
  8
CSLAYER4
  6
CONTINUOUS
 62
     7
 10
544.498938
 20
236.921271
 11
544.554185
 21
236.879517
  0
LINE
  8
CSLAYER4
  6
CONTINUOUS
 62
     7
 10
544.554185
 20
236.879517
 11
544.607064
 21
236.835145
  0
LINE
  8
CSLAYER4
  6
CONTINUOUS
 62
     7
 10
544.607064
 20
236.835145
 11
544.657451
 21
236.788107
  0
LINE
  8
CSLAYER4
  6
CONTINUOUS
 62
     7
 10
544.657451
 20
236.788107
 11
544.705200
 21
236.738328
  0
LINE
  8
CSLAYER4
  6
CONTINUOUS
 62
     7
 10
544.705200
 20
236.738328
 11
544.750230
 21
236.685748
  0
LINE
  8
CSLAYER4
  6
CONTINUOUS
 62
     7
 10
544.750230
 20
236.685748
 11
544.792170
 21
236.630614
  0
LINE
  8
CSLAYER4
  6
CONTINUOUS
 62
     7
 10
544.792170
 20
236.630614
 11
544.830567
 21
236.573565
  0
LINE
  8
CSLAYER4
  6
CONTINUOUS
 62
     7
 10
544.830567
 20
236.573565
 11
544.865463
 21
236.514681
  0
LINE
  8
CSLAYER4
  6
CONTINUOUS
 62
     7
 10
544.865463
 20
236.514681
 11
544.896918
 21
236.453995
  0
LINE
  8
CSLAYER4
  6
CONTINUOUS
 62
     7
 10
544.896918
 20
236.453995
 11
544.924974
 21
236.391568
  0
LINE
  8
CSLAYER4
  6
CONTINUOUS
 62
     7
 10
544.924974
 20
236.391568
 11
544.949735
 21
236.327443
  0
LINE
  8
CSLAYER4
  6
CONTINUOUS
 62
     7
 10
544.949735
 20
236.327443
 11
544.971240
 21
236.261659
  0
LINE
  8
CSLAYER4
  6
CONTINUOUS
 62
     7
 10
544.971240
 20
236.261659
 11
544.989533
 21
236.194453
  0
LINE
  8
CSLAYER4
  6
CONTINUOUS
 62
     7
 10
544.989533
 20
236.194453
 11
545.004570
 21
236.126466
  0
LINE
  8
CSLAYER4
  6
CONTINUOUS
 62
     7
 10
545.004570
 20
236.126466
 11
545.016518
 21
236.057848
  0
LINE
  8
CSLAYER4
  6
CONTINUOUS
 62
     7
 10
545.016518
 20
236.057848
 11
545.025540
 21
235.988749
  0
LINE
  8
CSLAYER4
  6
CONTINUOUS
 62
     7
 10
545.025540
 20
235.988749
 11
545.031761
 21
235.919298
  0
LINE
  8
CSLAYER4
  6
CONTINUOUS
 62
     7
 10
545.031761
 20
235.919298
 11
545.035386
 21
235.849641
  0
LINE
  8
CSLAYER4
  6
CONTINUOUS
 62
     7
 10
545.035386
 20
235.849641
 11
545.036561
 21
235.779901
  0
LINE
  8
CSLAYER4
  6
CONTINUOUS
 62
     7
 10
545.036561
 20
235.779901
 11
545.035098
 21
235.714714
  0
LINE
  8
CSLAYER4
  6
CONTINUOUS
 62
     7
 10
545.035098
 20
235.714714
 11
545.030586
 21
235.649817
  0
LINE
  8
CSLAYER4
  6
CONTINUOUS
 62
     7
 10
545.030586
 20
235.649817
 11
545.022924
 21
235.585269
  0
LINE
  8
CSLAYER4
  6
CONTINUOUS
 62
     7
 10
545.022924
 20
235.585269
 11
545.011925
 21
235.521142
  0
LINE
  8
CSLAYER4
  6
CONTINUOUS
 62
     7
 10
545.011925
 20
235.521142
 11
544.997505
 21
235.457583
  0
LINE
  8
CSLAYER4
  6
CONTINUOUS
 62
     7
 10
544.997505
 20
235.457583
 11
544.979666
 21
235.395136
  0
LINE
  8
CSLAYER4
  6
CONTINUOUS
 62
     7
 10
544.979666
 20
235.395136
 11
544.958406
 21
235.333987
  0
LINE
  8
CSLAYER4
  6
CONTINUOUS
 62
     7
 10
544.958406
 20
235.333987
 11
544.933709
 21
235.274136
  0
LINE
  8
CSLAYER4
  6
CONTINUOUS
 62
     7
 10
544.933709
 20
235.274136
 11
544.905528
 21
235.215603
  0
LINE
  8
CSLAYER4
  6
CONTINUOUS
 62
     7
 10
544.905528
 20
235.215603
 11
544.874094
 21
235.158769
  0
LINE
  8
CSLAYER4
  6
CONTINUOUS
 62
     7
 10
544.874094
 20
235.158769
 11
544.839734
 21
235.104118
  0
LINE
  8
CSLAYER4
  6
CONTINUOUS
 62
     7
 10
544.839734
 20
235.104118
 11
544.802594
 21
235.051611
  0
LINE
  8
CSLAYER4
  6
CONTINUOUS
 62
     7
 10
544.802594
 20
235.051611
 11
544.762836
 21
235.001205
  0
LINE
  8
CSLAYER4
  6
CONTINUOUS
 62
     7
 10
544.762836
 20
235.001205
 11
544.720587
 21
234.952837
  0
LINE
  8
CSLAYER4
  6
CONTINUOUS
 62
     7
 10
544.720587
 20
234.952837
 11
544.675989
 21
234.906459
  0
LINE
  8
CSLAYER4
  6
CONTINUOUS
 62
     7
 10
544.675989
 20
234.906459
 11
544.629146
 21
234.862026
  0
LINE
  8
CSLAYER4
  6
CONTINUOUS
 62
     7
 10
544.629146
 20
234.862026
 11
544.580244
 21
234.819487
  0
LINE
  8
CSLAYER4
  6
CONTINUOUS
 62
     7
 10
544.580244
 20
234.819487
 11
544.529487
 21
234.778885
  0
LINE
  8
CSLAYER4
  6
CONTINUOUS
 62
     7
 10
544.529487
 20
234.778885
 11
544.477143
 21
234.740221
  0
LINE
  8
CSLAYER4
  6
CONTINUOUS
 62
     7
 10
544.477143
 20
234.740221
 11
544.423379
 21
234.703441
  0
LINE
  8
CSLAYER4
  6
CONTINUOUS
 62
     7
 10
544.423379
 20
234.703441
 11
544.368380
 21
234.668484
  0
LINE
  8
CSLAYER4
  6
CONTINUOUS
 62
     7
 10
544.368380
 20
234.668484
 11
544.312328
 21
234.635319
  0
LINE
  8
CSLAYER4
  6
CONTINUOUS
 62
     7
 10
544.312328
 20
234.635319
 11
544.255392
 21
234.603864
  0
LINE
  8
CSLAYER4
  6
CONTINUOUS
 62
     7
 10
544.255392
 20
234.603864
 11
544.197734
 21
234.574077
  0
LINE
  8
CSLAYER4
  6
CONTINUOUS
 62
     7
 10
544.197734
 20
234.574077
 11
544.141910
 21
234.557691
  0
LINE
  8
CSLAYER4
  6
CONTINUOUS
 62
     7
 10
544.141910
 20
234.557691
 11
544.085828
 21
234.542817
  0
LINE
  8
CSLAYER4
  6
CONTINUOUS
 62
     7
 10
544.085828
 20
234.542817
 11
544.029458
 21
234.529489
  0
LINE
  8
CSLAYER4
  6
CONTINUOUS
 62
     7
 10
544.029458
 20
234.529489
 11
543.972819
 21
234.517717
  0
LINE
  8
CSLAYER4
  6
CONTINUOUS
 62
     7
 10
543.972819
 20
234.517717
 11
543.915903
 21
234.507531
  0
LINE
  8
CSLAYER4
  6
CONTINUOUS
 62
     7
 10
543.915903
 20
234.507531
 11
543.858710
 21
234.498940
  0
LINE
  8
CSLAYER4
  6
CONTINUOUS
 62
     7
 10
543.858710
 20
234.498940
 11
543.801248
 21
234.491998
  0
LINE
  8
CSLAYER4
  6
CONTINUOUS
 62
     7
 10
543.801248
 20
234.491998
 11
543.743519
 21
234.486705
  0
LINE
  8
CSLAYER4
  6
CONTINUOUS
 62
     7
 10
543.743519
 20
234.486705
 11
543.685521
 21
234.483090
  0
LINE
  8
CSLAYER4
  6
CONTINUOUS
 62
     7
 10
543.685521
 20
234.483090
 11
543.627513
 21
234.481194
  0
LINE
  8
CSLAYER4
  6
CONTINUOUS
 62
     7
 10
543.627513
 20
234.481194
 11
543.569639
 21
234.480999
  0
LINE
  8
CSLAYER4
  6
CONTINUOUS
 62
     7
 10
543.569639
 20
234.480999
 11
543.511889
 21
234.482491
  0
LINE
  8
CSLAYER4
  6
CONTINUOUS
 62
     7
 10
543.511889
 20
234.482491
 11
543.454251
 21
234.485685
  0
LINE
  8
CSLAYER4
  6
CONTINUOUS
 62
     7
 10
543.454251
 20
234.485685
 11
543.396749
 21
234.490536
  0
LINE
  8
CSLAYER4
  6
CONTINUOUS
 62
     7
 10
543.396749
 20
234.490536
 11
543.339369
 21
234.497067
  0
LINE
  8
CSLAYER4
  6
CONTINUOUS
 62
     7
 10
543.339369
 20
234.497067
 11
543.282102
 21
234.505243
  0
LINE
  8
CSLAYER4
  6
CONTINUOUS
 62
     7
 10
543.282102
 20
234.505243
 11
543.224970
 21
234.515059
  0
LINE
  8
CSLAYER4
  6
CONTINUOUS
 62
     7
 10
543.224970
 20
234.515059
 11
543.167993
 21
234.526503
  0
LINE
  8
CSLAYER4
  6
CONTINUOUS
 62
     7
 10
543.167993
 20
234.526503
 11
543.111395
 21
234.539500
  0
LINE
  8
CSLAYER4
  6
CONTINUOUS
 62
     7
 10
543.111395
 20
234.539500
 11
543.055200
 21
234.554013
  0
LINE
  8
CSLAYER4
  6
CONTINUOUS
 62
     7
 10
543.055200
 20
234.554013
 11
542.999429
 21
234.570009
  0
LINE
  8
CSLAYER4
  6
CONTINUOUS
 62
     7
 10
542.999429
 20
234.570009
 11
542.944077
 21
234.587446
  0
LINE
  8
CSLAYER4
  6
CONTINUOUS
 62
     7
 10
542.944077
 20
234.587446
 11
542.889138
 21
234.606283
  0
LINE
  8
CSLAYER4
  6
CONTINUOUS
 62
     7
 10
542.889138
 20
234.606283
 11
542.834622
 21
234.626502
  0
LINE
  8
CSLAYER4
  6
CONTINUOUS
 62
     7
 10
542.834622
 20
234.626502
 11
542.796524
 21
234.642198
  0
LINE
  8
CSLAYER4
  6
CONTINUOUS
 62
     7
 10
542.796524
 20
234.642198
 11
542.758724
 21
234.658699
  0
LINE
  8
CSLAYER4
  6
CONTINUOUS
 62
     7
 10
542.758724
 20
234.658699
 11
542.721294
 21
234.676033
  0
LINE
  8
CSLAYER4
  6
CONTINUOUS
 62
     7
 10
542.721294
 20
234.676033
 11
542.684258
 21
234.694212
  0
LINE
  8
CSLAYER4
  6
CONTINUOUS
 62
     7
 10
542.684258
 20
234.694212
 11
542.647664
 21
234.713277
  0
LINE
  8
CSLAYER4
  6
CONTINUOUS
 62
     7
 10
542.647664
 20
234.713277
 11
542.611553
 21
234.733227
  0
LINE
  8
CSLAYER4
  6
CONTINUOUS
 62
     7
 10
542.611553
 20
234.733227
 11
542.575977
 21
234.754105
  0
LINE
  8
CSLAYER4
  6
CONTINUOUS
 62
     7
 10
542.575977
 20
234.754105
 11
542.540969
 21
234.775930
  0
LINE
  8
CSLAYER4
  6
CONTINUOUS
 62
     7
 10
542.540969
 20
234.775930
 11
542.506568
 21
234.798712
  0
LINE
  8
CSLAYER4
  6
CONTINUOUS
 62
     7
 10
542.506568
 20
234.798712
 11
542.472846
 21
234.822474
  0
LINE
  8
CSLAYER4
  6
CONTINUOUS
 62
     7
 10
542.472846
 20
234.822474
 11
542.439908
 21
234.847173
  0
LINE
  8
CSLAYER4
  6
CONTINUOUS
 62
     7
 10
542.439908
 20
234.847173
 11
542.407805
 21
234.872818
  0
LINE
  8
CSLAYER4
  6
CONTINUOUS
 62
     7
 10
542.407805
 20
234.872818
 11
542.376566
 21
234.899434
  0
LINE
  8
CSLAYER4
  6
CONTINUOUS
 62
     7
 10
542.376566
 20
234.899434
 11
542.346212
 21
234.927025
  0
LINE
  8
CSLAYER4
  6
CONTINUOUS
 62
     7
 10
542.346212
 20
234.927025
 11
542.316776
 21
234.955618
  0
LINE
  8
CSLAYER4
  6
CONTINUOUS
 62
     7
 10
542.316776
 20
234.955618
 11
542.288286
 21
234.985230
  0
LINE
  8
CSLAYER4
  6
CONTINUOUS
 62
     7
 10
542.288286
 20
234.985230
 11
542.260776
 21
235.015872
  0
LINE
  8
CSLAYER4
  6
CONTINUOUS
 62
     7
 10
542.260776
 20
235.015872
 11
542.234276
 21
235.047564
  0
LINE
  8
CSLAYER4
  6
CONTINUOUS
 62
     7
 10
542.234276
 20
235.047564
 11
542.208906
 21
235.080204
  0
LINE
  8
CSLAYER4
  6
CONTINUOUS
 62
     7
 10
542.208906
 20
235.080204
 11
542.184774
 21
235.113667
  0
LINE
  8
CSLAYER4
  6
CONTINUOUS
 62
     7
 10
542.184774
 20
235.113667
 11
542.161889
 21
235.147933
  0
LINE
  8
CSLAYER4
  6
CONTINUOUS
 62
     7
 10
542.161889
 20
235.147933
 11
542.140239
 21
235.183015
  0
LINE
  8
CSLAYER4
  6
CONTINUOUS
 62
     7
 10
542.140239
 20
235.183015
 11
542.119824
 21
235.218919
  0
LINE
  8
CSLAYER4
  6
CONTINUOUS
 62
     7
 10
542.119824
 20
235.218919
 11
542.100647
 21
235.255627
  0
LINE
  8
CSLAYER4
  6
CONTINUOUS
 62
     7
 10
542.100647
 20
235.255627
 11
542.080058
 21
235.298226
  0
LINE
  8
CSLAYER4
  6
CONTINUOUS
 62
     7
 10
542.080058
 20
235.298226
 11
542.060252
 21
235.342021
  0
LINE
  8
CSLAYER4
  6
CONTINUOUS
 62
     7
 10
542.060252
 20
235.342021
 11
542.041218
 21
235.386937
  0
LINE
  8
CSLAYER4
  6
CONTINUOUS
 62
     7
 10
542.041218
 20
235.386937
 11
542.022926
 21
235.432905
  0
LINE
  8
CSLAYER4
  6
CONTINUOUS
 62
     7
 10
542.022926
 20
235.432905
 11
542.005365
 21
235.479841
  0
LINE
  8
CSLAYER4
  6
CONTINUOUS
 62
     7
 10
542.005365
 20
235.479841
 11
541.988525
 21
235.527663
  0
LINE
  8
CSLAYER4
  6
CONTINUOUS
 62
     7
 10
541.988525
 20
235.527663
 11
541.972374
 21
235.576288
  0
LINE
  8
CSLAYER4
  6
CONTINUOUS
 62
     7
 10
541.972374
 20
235.576288
 11
541.956894
 21
235.625664
  0
LINE
  8
CSLAYER4
  6
CONTINUOUS
 62
     7
 10
541.956894
 20
235.625664
 11
541.942083
 21
235.675680
  0
LINE
  8
CSLAYER4
  6
CONTINUOUS
 62
     7
 10
541.942083
 20
235.675680
 11
541.927922
 21
235.726291
  0
LINE
  8
CSLAYER4
  6
CONTINUOUS
 62
     7
 10
541.927922
 20
235.726291
 11
541.914377
 21
235.777399
  0
LINE
  8
CSLAYER4
  6
CONTINUOUS
 62
     7
 10
541.914377
 20
235.777399
 11
541.901441
 21
235.828929
  0
LINE
  8
CSLAYER4
  6
CONTINUOUS
 62
     7
 10
541.901441
 20
235.828929
 11
541.889091
 21
235.880808
  0
LINE
  8
CSLAYER4
  6
CONTINUOUS
 62
     7
 10
541.889091
 20
235.880808
 11
541.877319
 21
235.932955
  0
LINE
  8
CSLAYER4
  6
CONTINUOUS
 62
     7
 10
541.877319
 20
235.932955
 11
541.866092
 21
235.985289
  0
LINE
  8
CSLAYER4
  6
CONTINUOUS
 62
     7
 10
541.866092
 20
235.985289
 11
541.855412
 21
236.037744
  0
LINE
  8
CSLAYER4
  6
CONTINUOUS
 62
     7
 10
541.855412
 20
236.037744
 11
541.845234
 21
236.090251
  0
LINE
  8
CSLAYER4
  6
CONTINUOUS
 62
     7
 10
541.845234
 20
236.090251
 11
541.835532
 21
236.142966
  0
LINE
  8
CSLAYER4
  6
CONTINUOUS
 62
     7
 10
541.835532
 20
236.142966
 11
541.826262
 21
236.195875
  0
LINE
  8
CSLAYER4
  6
CONTINUOUS
 62
     7
 10
541.826262
 20
236.195875
 11
541.817415
 21
236.248939
  0
LINE
  8
CSLAYER4
  6
CONTINUOUS
 62
     7
 10
541.817415
 20
236.248939
 11
541.808991
 21
236.302086
  0
LINE
  8
CSLAYER4
  6
CONTINUOUS
 62
     7
 10
541.808991
 20
236.302086
 11
541.800968
 21
236.355252
  0
LINE
  8
CSLAYER4
  6
CONTINUOUS
 62
     7
 10
541.800968
 20
236.355252
 11
541.793336
 21
236.408398
  0
LINE
  8
CSLAYER4
  6
CONTINUOUS
 62
     7
 10
541.793336
 20
236.408398
 11
541.786085
 21
236.461452
  0
LINE
  8
CSLAYER4
  6
CONTINUOUS
 62
     7
 10
540.108411
 20
236.461452
 11
541.786082
 21
236.461452
  0
LINE
  8
CSLAYER4
  6
CONTINUOUS
 62
     7
 10
540.108410
 20
236.461452
 11
540.124065
 21
236.275533
  0
LINE
  8
CSLAYER4
  6
CONTINUOUS
 62
     7
 10
540.124065
 20
236.275533
 11
540.144273
 21
236.089303
  0
LINE
  8
CSLAYER4
  6
CONTINUOUS
 62
     7
 10
540.144273
 20
236.089303
 11
540.169374
 21
235.903291
  0
LINE
  8
CSLAYER4
  6
CONTINUOUS
 62
     7
 10
540.169374
 20
235.903291
 11
540.199706
 21
235.718052
  0
LINE
  8
CSLAYER4
  6
CONTINUOUS
 62
     7
 10
540.199706
 20
235.718052
 11
540.235611
 21
235.534131
  0
LINE
  8
CSLAYER4
  6
CONTINUOUS
 62
     7
 10
540.235611
 20
235.534131
 11
540.277428
 21
235.352064
  0
LINE
  8
CSLAYER4
  6
CONTINUOUS
 62
     7
 10
540.277428
 20
235.352064
 11
540.325527
 21
235.172272
  0
LINE
  8
CSLAYER4
  6
CONTINUOUS
 62
     7
 10
540.325527
 20
235.172272
 11
540.380547
 21
234.994468
  0
LINE
  8
CSLAYER4
  6
CONTINUOUS
 62
     7
 10
540.380547
 20
234.994468
 11
540.442974
 21
234.819157
  0
LINE
  8
CSLAYER4
  6
CONTINUOUS
 62
     7
 10
540.442974
 20
234.819157
 11
540.513249
 21
234.647019
  0
LINE
  8
CSLAYER4
  6
CONTINUOUS
 62
     7
 10
540.513249
 20
234.647019
 11
540.591816
 21
234.478764
  0
LINE
  8
CSLAYER4
  6
CONTINUOUS
 62
     7
 10
540.591816
 20
234.478764
 11
540.679116
 21
234.315051
  0
LINE
  8
CSLAYER4
  6
CONTINUOUS
 62
     7
 10
540.679116
 20
234.315051
 11
540.775232
 21
234.157156
  0
LINE
  8
CSLAYER4
  6
CONTINUOUS
 62
     7
 10
540.775232
 20
234.157156
 11
540.879857
 21
234.006523
  0
LINE
  8
CSLAYER4
  6
CONTINUOUS
 62
     7
 10
540.879857
 20
234.006523
 11
540.993257
 21
233.863522
  0
LINE
  8
CSLAYER4
  6
CONTINUOUS
 62
     7
 10
540.993257
 20
233.863522
 11
541.115667
 21
233.728513
  0
LINE
  8
CSLAYER4
  6
CONTINUOUS
 62
     7
 10
541.115667
 20
233.728513
 11
541.247360
 21
233.601828
  0
LINE
  8
CSLAYER4
  6
CONTINUOUS
 62
     7
 10
541.247360
 20
233.601828
 11
541.388537
 21
233.483866
  0
LINE
  8
CSLAYER4
  6
CONTINUOUS
 62
     7
 10
541.388537
 20
233.483866
 11
541.537140
 21
233.376501
  0
LINE
  8
CSLAYER4
  6
CONTINUOUS
 62
     7
 10
541.537140
 20
233.376501
 11
541.691697
 21
233.280415
  0
LINE
  8
CSLAYER4
  6
CONTINUOUS
 62
     7
 10
541.691697
 20
233.280415
 11
541.851867
 21
233.195217
  0
LINE
  8
CSLAYER4
  6
CONTINUOUS
 62
     7
 10
541.851867
 20
233.195217
 11
542.017322
 21
233.120544
  0
LINE
  8
CSLAYER4
  6
CONTINUOUS
 62
     7
 10
542.017322
 20
233.120544
 11
542.187741
 21
233.056017
  0
LINE
  8
CSLAYER4
  6
CONTINUOUS
 62
     7
 10
542.187741
 20
233.056017
 11
542.362784
 21
233.001253
  0
ENDBLK
  8
0
  0
BLOCK
  8
CSLAYER1
  2
BLKF0007
 70
   64
 10
0.0
 20
0.0
 30
0.0
  0
LINE
  8
CSLAYER4
  6
CONTINUOUS
 62
     7
 10
563.366595
 20
235.429651
 11
563.344677
 21
235.368831
  0
LINE
  8
CSLAYER4
  6
CONTINUOUS
 62
     7
 10
563.344677
 20
235.368831
 11
563.321297
 21
235.307652
  0
LINE
  8
CSLAYER4
  6
CONTINUOUS
 62
     7
 10
563.321297
 20
235.307652
 11
563.296392
 21
235.246420
  0
LINE
  8
CSLAYER4
  6
CONTINUOUS
 62
     7
 10
563.296392
 20
235.246420
 11
563.269943
 21
235.185456
  0
LINE
  8
CSLAYER4
  6
CONTINUOUS
 62
     7
 10
563.269943
 20
235.185456
 11
563.241866
 21
235.125048
  0
LINE
  8
CSLAYER4
  6
CONTINUOUS
 62
     7
 10
563.241866
 20
235.125048
 11
563.212142
 21
235.065505
  0
LINE
  8
CSLAYER4
  6
CONTINUOUS
 62
     7
 10
563.212142
 20
235.065505
 11
563.180687
 21
235.007148
  0
LINE
  8
CSLAYER4
  6
CONTINUOUS
 62
     7
 10
563.180687
 20
235.007148
 11
563.147501
 21
234.950272
  0
LINE
  8
CSLAYER4
  6
CONTINUOUS
 62
     7
 10
563.147501
 20
234.950272
 11
563.112522
 21
234.895191
  0
LINE
  8
CSLAYER4
  6
CONTINUOUS
 62
     7
 10
563.112522
 20
234.895191
 11
563.075691
 21
234.842199
  0
LINE
  8
CSLAYER4
  6
CONTINUOUS
 62
     7
 10
563.075691
 20
234.842199
 11
563.036531
 21
234.791080
  0
LINE
  8
CSLAYER4
  6
CONTINUOUS
 62
     7
 10
563.036531
 20
234.791080
 11
562.994756
 21
234.741972
  0
LINE
  8
CSLAYER4
  6
CONTINUOUS
 62
     7
 10
562.994756
 20
234.741972
 11
562.950242
 21
234.695386
  0
LINE
  8
CSLAYER4
  6
CONTINUOUS
 62
     7
 10
562.950242
 20
234.695386
 11
562.902944
 21
234.651829
  0
LINE
  8
CSLAYER4
  6
CONTINUOUS
 62
     7
 10
562.902944
 20
234.651829
 11
562.852764
 21
234.611794
  0
LINE
  8
CSLAYER4
  6
CONTINUOUS
 62
     7
 10
562.852764
 20
234.611794
 11
562.799844
 21
234.575952
  0
LINE
  8
CSLAYER4
  6
CONTINUOUS
 62
     7
 10
562.799844
 20
234.575952
 11
562.744619
 21
234.544960
  0
LINE
  8
CSLAYER4
  6
CONTINUOUS
 62
     7
 10
562.744619
 20
234.544960
 11
562.687064
 21
234.519097
  0
LINE
  8
CSLAYER4
  6
CONTINUOUS
 62
     7
 10
562.687064
 20
234.519097
 11
562.627098
 21
234.498591
  0
LINE
  8
CSLAYER4
  6
CONTINUOUS
 62
     7
 10
562.627098
 20
234.498591
 11
562.565033
 21
234.483769
  0
LINE
  8
CSLAYER4
  6
CONTINUOUS
 62
     7
 10
562.565033
 20
234.483769
 11
562.502370
 21
234.474931
  0
LINE
  8
CSLAYER4
  6
CONTINUOUS
 62
     7
 10
562.502370
 20
234.474931
 11
562.439397
 21
234.471801
  0
LINE
  8
CSLAYER4
  6
CONTINUOUS
 62
     7
 10
562.439397
 20
234.471801
 11
562.376219
 21
234.474046
  0
LINE
  8
CSLAYER4
  6
CONTINUOUS
 62
     7
 10
562.376219
 20
234.474046
 11
562.312917
 21
234.481359
  0
LINE
  8
CSLAYER4
  6
CONTINUOUS
 62
     7
 10
562.312917
 20
234.481359
 11
562.254723
 21
234.496252
  0
LINE
  8
CSLAYER4
  6
CONTINUOUS
 62
     7
 10
562.254723
 20
234.496252
 11
562.198446
 21
234.517140
  0
LINE
  8
CSLAYER4
  6
CONTINUOUS
 62
     7
 10
562.198446
 20
234.517140
 11
562.144311
 21
234.543651
  0
LINE
  8
CSLAYER4
  6
CONTINUOUS
 62
     7
 10
562.144311
 20
234.543651
 11
562.092936
 21
234.575076
  0
LINE
  8
CSLAYER4
  6
CONTINUOUS
 62
     7
 10
562.092936
 20
234.575076
 11
562.044281
 21
234.610857
  0
LINE
  8
CSLAYER4
  6
CONTINUOUS
 62
     7
 10
562.044281
 20
234.610857
 11
561.998282
 21
234.650418
  0
LINE
  8
CSLAYER4
  6
CONTINUOUS
 62
     7
 10
561.998282
 20
234.650418
 11
561.954900
 21
234.693213
  0
LINE
  8
CSLAYER4
  6
CONTINUOUS
 62
     7
 10
561.954900
 20
234.693213
 11
561.914114
 21
234.738666
  0
LINE
  8
CSLAYER4
  6
CONTINUOUS
 62
     7
 10
561.914114
 20
234.738666
 11
561.875819
 21
234.786198
  0
LINE
  8
CSLAYER4
  6
CONTINUOUS
 62
     7
 10
561.875819
 20
234.786198
 11
561.839976
 21
234.835266
  0
LINE
  8
CSLAYER4
  6
CONTINUOUS
 62
     7
 10
561.839976
 20
234.835266
 11
561.806028
 21
234.886065
  0
LINE
  8
CSLAYER4
  6
CONTINUOUS
 62
     7
 10
561.806028
 20
234.886065
 11
561.773337
 21
234.939201
  0
LINE
  8
CSLAYER4
  6
CONTINUOUS
 62
     7
 10
561.773337
 20
234.939201
 11
561.741903
 21
234.994489
  0
LINE
  8
CSLAYER4
  6
CONTINUOUS
 62
     7
 10
561.741903
 20
234.994489
 11
561.711663
 21
235.051746
  0
LINE
  8
CSLAYER4
  6
CONTINUOUS
 62
     7
 10
561.711663
 20
235.051746
 11
561.682638
 21
235.110793
  0
LINE
  8
CSLAYER4
  6
CONTINUOUS
 62
     7
 10
561.682638
 20
235.110793
 11
561.654747
 21
235.171459
  0
LINE
  8
CSLAYER4
  6
CONTINUOUS
 62
     7
 10
561.654747
 20
235.171459
 11
561.627989
 21
235.233546
  0
LINE
  8
CSLAYER4
  6
CONTINUOUS
 62
     7
 10
561.627989
 20
235.233546
 11
561.602321
 21
235.296888
  0
LINE
  8
CSLAYER4
  6
CONTINUOUS
 62
     7
 10
561.602321
 20
235.296888
 11
561.577746
 21
235.361302
  0
LINE
  8
CSLAYER4
  6
CONTINUOUS
 62
     7
 10
561.577746
 20
235.361302
 11
561.554222
 21
235.426602
  0
LINE
  8
CSLAYER4
  6
CONTINUOUS
 62
     7
 10
561.554222
 20
235.426602
 11
561.531707
 21
235.492602
  0
LINE
  8
CSLAYER4
  6
CONTINUOUS
 62
     7
 10
561.531707
 20
235.492602
 11
561.510180
 21
235.559139
  0
LINE
  8
CSLAYER4
  6
CONTINUOUS
 62
     7
 10
561.510180
 20
235.559139
 11
561.489623
 21
235.626024
  0
LINE
  8
CSLAYER4
  6
CONTINUOUS
 62
     7
 10
561.489623
 20
235.626024
 11
561.469991
 21
235.693065
  0
LINE
  8
CSLAYER4
  6
CONTINUOUS
 62
     7
 10
561.469991
 20
235.693065
 11
561.440430
 21
235.794990
  0
LINE
  8
CSLAYER4
  6
CONTINUOUS
 62
     7
 10
561.440430
 20
235.794990
 11
561.412643
 21
235.897617
  0
LINE
  8
CSLAYER4
  6
CONTINUOUS
 62
     7
 10
561.412643
 20
235.897617
 11
561.386583
 21
236.000860
  0
LINE
  8
CSLAYER4
  6
CONTINUOUS
 62
     7
 10
561.386583
 20
236.000860
 11
561.362216
 21
236.104630
  0
LINE
  8
CSLAYER4
  6
CONTINUOUS
 62
     7
 10
561.362216
 20
236.104630
 11
561.339453
 21
236.208873
  0
LINE
  8
CSLAYER4
  6
CONTINUOUS
 62
     7
 10
561.339453
 20
236.208873
 11
561.318297
 21
236.313487
  0
LINE
  8
CSLAYER4
  6
CONTINUOUS
 62
     7
 10
561.318297
 20
236.313487
 11
561.298665
 21
236.418390
  0
LINE
  8
CSLAYER4
  6
CONTINUOUS
 62
     7
 10
561.298665
 20
236.418390
 11
561.280518
 21
236.523508
  0
LINE
  8
CSLAYER4
  6
CONTINUOUS
 62
     7
 10
561.280518
 20
236.523508
 11
561.263813
 21
236.628760
  0
LINE
  8
CSLAYER4
  6
CONTINUOUS
 62
     7
 10
561.263813
 20
236.628760
 11
561.248507
 21
236.734054
  0
LINE
  8
CSLAYER4
  6
CONTINUOUS
 62
     7
 10
561.248507
 20
236.734054
 11
561.234540
 21
236.839327
  0
LINE
  8
CSLAYER4
  6
CONTINUOUS
 62
     7
 10
561.234540
 20
236.839327
 11
561.221831
 21
236.944693
  0
LINE
  8
CSLAYER4
  6
CONTINUOUS
 62
     7
 10
561.221831
 20
236.944693
 11
561.210357
 21
237.050419
  0
LINE
  8
CSLAYER4
  6
CONTINUOUS
 62
     7
 10
561.210357
 20
237.050419
 11
561.200016
 21
237.156454
  0
LINE
  8
CSLAYER4
  6
CONTINUOUS
 62
     7
 10
561.200016
 20
237.156454
 11
561.190829
 21
237.262737
  0
LINE
  8
CSLAYER4
  6
CONTINUOUS
 62
     7
 10
561.190829
 20
237.262737
 11
561.182733
 21
237.369225
  0
LINE
  8
CSLAYER4
  6
CONTINUOUS
 62
     7
 10
561.182733
 20
237.369225
 11
561.175730
 21
237.475857
  0
LINE
  8
CSLAYER4
  6
CONTINUOUS
 62
     7
 10
561.175730
 20
237.475857
 11
561.169734
 21
237.582583
  0
LINE
  8
CSLAYER4
  6
CONTINUOUS
 62
     7
 10
561.169734
 20
237.582583
 11
561.164769
 21
237.689340
  0
LINE
  8
CSLAYER4
  6
CONTINUOUS
 62
     7
 10
561.164769
 20
237.689340
 11
561.160773
 21
237.796086
  0
LINE
  8
CSLAYER4
  6
CONTINUOUS
 62
     7
 10
561.160773
 20
237.796086
 11
561.157725
 21
237.902770
  0
LINE
  8
CSLAYER4
  6
CONTINUOUS
 62
     7
 10
561.157725
 20
237.902770
 11
561.155583
 21
238.009320
  0
LINE
  8
CSLAYER4
  6
CONTINUOUS
 62
     7
 10
561.155583
 20
238.009320
 11
561.154305
 21
238.115706
  0
LINE
  8
CSLAYER4
  6
CONTINUOUS
 62
     7
 10
561.154305
 20
238.115706
 11
561.153893
 21
238.221853
  0
LINE
  8
CSLAYER4
  6
CONTINUOUS
 62
     7
 10
561.153893
 20
238.221853
 11
561.154265
 21
238.335933
  0
LINE
  8
CSLAYER4
  6
CONTINUOUS
 62
     7
 10
561.154265
 20
238.335933
 11
561.155397
 21
238.450548
  0
LINE
  8
CSLAYER4
  6
CONTINUOUS
 62
     7
 10
561.155397
 20
238.450548
 11
561.157313
 21
238.565575
  0
LINE
  8
CSLAYER4
  6
CONTINUOUS
 62
     7
 10
561.157313
 20
238.565575
 11
561.160074
 21
238.680921
  0
LINE
  8
CSLAYER4
  6
CONTINUOUS
 62
     7
 10
561.160074
 20
238.680921
 11
561.163719
 21
238.796493
  0
LINE
  8
CSLAYER4
  6
CONTINUOUS
 62
     7
 10
561.163719
 20
238.796493
 11
561.168272
 21
238.912170
  0
LINE
  8
CSLAYER4
  6
CONTINUOUS
 62
     7
 10
561.168272
 20
238.912170
 11
561.173792
 21
239.027865
  0
LINE
  8
CSLAYER4
  6
CONTINUOUS
 62
     7
 10
561.173792
 20
239.027865
 11
561.180302
 21
239.143479
  0
LINE
  8
CSLAYER4
  6
CONTINUOUS
 62
     7
 10
561.180302
 20
239.143479
 11
561.187862
 21
239.258898
  0
LINE
  8
CSLAYER4
  6
CONTINUOUS
 62
     7
 10
561.187862
 20
239.258898
 11
561.196472
 21
239.374027
  0
LINE
  8
CSLAYER4
  6
CONTINUOUS
 62
     7
 10
561.196472
 20
239.374027
 11
561.206216
 21
239.488765
  0
LINE
  8
CSLAYER4
  6
CONTINUOUS
 62
     7
 10
561.206216
 20
239.488765
 11
561.217092
 21
239.603010
  0
LINE
  8
CSLAYER4
  6
CONTINUOUS
 62
     7
 10
561.217092
 20
239.603010
 11
561.229185
 21
239.716668
  0
LINE
  8
CSLAYER4
  6
CONTINUOUS
 62
     7
 10
561.229185
 20
239.716668
 11
561.242532
 21
239.829984
  0
LINE
  8
CSLAYER4
  6
CONTINUOUS
 62
     7
 10
561.242532
 20
239.829984
 11
561.257364
 21
239.943868
  0
LINE
  8
CSLAYER4
  6
CONTINUOUS
 62
     7
 10
561.257364
 20
239.943868
 11
561.273720
 21
240.058143
  0
LINE
  8
CSLAYER4
  6
CONTINUOUS
 62
     7
 10
561.273720
 20
240.058143
 11
561.291723
 21
240.172614
  0
LINE
  8
CSLAYER4
  6
CONTINUOUS
 62
     7
 10
561.291723
 20
240.172614
 11
561.311438
 21
240.287064
  0
LINE
  8
CSLAYER4
  6
CONTINUOUS
 62
     7
 10
561.311438
 20
240.287064
 11
561.332943
 21
240.401277
  0
LINE
  8
CSLAYER4
  6
CONTINUOUS
 62
     7
 10
561.332943
 20
240.401277
 11
561.356303
 21
240.515037
  0
LINE
  8
CSLAYER4
  6
CONTINUOUS
 62
     7
 10
561.356303
 20
240.515037
 11
561.381620
 21
240.628147
  0
LINE
  8
CSLAYER4
  6
CONTINUOUS
 62
     7
 10
561.381620
 20
240.628147
 11
561.408935
 21
240.740373
  0
LINE
  8
CSLAYER4
  6
CONTINUOUS
 62
     7
 10
561.408935
 20
240.740373
 11
561.438371
 21
240.851517
  0
LINE
  8
CSLAYER4
  6
CONTINUOUS
 62
     7
 10
561.438371
 20
240.851517
 11
561.469991
 21
240.961363
  0
LINE
  8
CSLAYER4
  6
CONTINUOUS
 62
     7
 10
561.469991
 20
240.961363
 11
561.480662
 21
240.999967
  0
LINE
  8
CSLAYER4
  6
CONTINUOUS
 62
     7
 10
561.480662
 20
240.999967
 11
561.491661
 21
241.038693
  0
LINE
  8
CSLAYER4
  6
CONTINUOUS
 62
     7
 10
561.491661
 20
241.038693
 11
561.502991
 21
241.077513
  0
LINE
  8
CSLAYER4
  6
CONTINUOUS
 62
     7
 10
561.502991
 20
241.077513
 11
561.514650
 21
241.116363
  0
LINE
  8
CSLAYER4
  6
CONTINUOUS
 62
     7
 10
561.514650
 20
241.116363
 11
561.526640
 21
241.155213
  0
LINE
  8
CSLAYER4
  6
CONTINUOUS
 62
     7
 10
561.526640
 20
241.155213
 11
561.538998
 21
241.194022
  0
LINE
  8
CSLAYER4
  6
CONTINUOUS
 62
     7
 10
561.538998
 20
241.194022
 11
561.551688
 21
241.232739
  0
LINE
  8
CSLAYER4
  6
CONTINUOUS
 62
     7
 10
561.551688
 20
241.232739
 11
561.564728
 21
241.271332
  0
LINE
  8
CSLAYER4
  6
CONTINUOUS
 62
     7
 10
561.564728
 20
241.271332
 11
561.578117
 21
241.309740
  0
LINE
  8
CSLAYER4
  6
CONTINUOUS
 62
     7
 10
561.578117
 20
241.309740
 11
561.591899
 21
241.347931
  0
LINE
  8
CSLAYER4
  6
CONTINUOUS
 62
     7
 10
561.591899
 20
241.347931
 11
561.606029
 21
241.385865
  0
LINE
  8
CSLAYER4
  6
CONTINUOUS
 62
     7
 10
561.606029
 20
241.385865
 11
561.620510
 21
241.423500
  0
LINE
  8
CSLAYER4
  6
CONTINUOUS
 62
     7
 10
561.620510
 20
241.423500
 11
561.635405
 21
241.460773
  0
LINE
  8
CSLAYER4
  6
CONTINUOUS
 62
     7
 10
561.635405
 20
241.460773
 11
561.650688
 21
241.497771
  0
LINE
  8
CSLAYER4
  6
CONTINUOUS
 62
     7
 10
561.650688
 20
241.497771
 11
561.666591
 21
241.534819
  0
LINE
  8
CSLAYER4
  6
CONTINUOUS
 62
     7
 10
561.666591
 20
241.534819
 11
561.683112
 21
241.571866
  0
LINE
  8
CSLAYER4
  6
CONTINUOUS
 62
     7
 10
561.683112
 20
241.571866
 11
561.700272
 21
241.608832
  0
LINE
  8
CSLAYER4
  6
CONTINUOUS
 62
     7
 10
561.700272
 20
241.608832
 11
561.718070
 21
241.645591
  0
LINE
  8
CSLAYER4
  6
CONTINUOUS
 62
     7
 10
561.718070
 20
241.645591
 11
561.736506
 21
241.682083
  0
LINE
  8
CSLAYER4
  6
CONTINUOUS
 62
     7
 10
561.736506
 20
241.682083
 11
561.755622
 21
241.718194
  0
LINE
  8
CSLAYER4
  6
CONTINUOUS
 62
     7
 10
561.755622
 20
241.718194
 11
561.775397
 21
241.753831
  0
LINE
  8
CSLAYER4
  6
CONTINUOUS
 62
     7
 10
561.775397
 20
241.753831
 11
561.795831
 21
241.788901
  0
LINE
  8
CSLAYER4
  6
CONTINUOUS
 62
     7
 10
561.795831
 20
241.788901
 11
561.816966
 21
241.823313
  0
LINE
  8
CSLAYER4
  6
CONTINUOUS
 62
     7
 10
561.816966
 20
241.823313
 11
561.838782
 21
241.856971
  0
LINE
  8
CSLAYER4
  6
CONTINUOUS
 62
     7
 10
561.838782
 20
241.856971
 11
561.857363
 21
241.878787
  0
LINE
  8
CSLAYER4
  6
CONTINUOUS
 62
     7
 10
561.857363
 20
241.878787
 11
561.876437
 21
241.900242
  0
LINE
  8
CSLAYER4
  6
CONTINUOUS
 62
     7
 10
561.876437
 20
241.900242
 11
561.896006
 21
241.921263
  0
LINE
  8
CSLAYER4
  6
CONTINUOUS
 62
     7
 10
561.896006
 20
241.921263
 11
561.916112
 21
241.941822
  0
LINE
  8
CSLAYER4
  6
CONTINUOUS
 62
     7
 10
561.916112
 20
241.941822
 11
561.936711
 21
241.961844
  0
LINE
  8
CSLAYER4
  6
CONTINUOUS
 62
     7
 10
561.936711
 20
241.961844
 11
561.957825
 21
241.981288
  0
LINE
  8
CSLAYER4
  6
CONTINUOUS
 62
     7
 10
561.957825
 20
241.981288
 11
561.979454
 21
242.000097
  0
LINE
  8
CSLAYER4
  6
CONTINUOUS
 62
     7
 10
561.979454
 20
242.000097
 11
562.001619
 21
242.018214
  0
LINE
  8
CSLAYER4
  6
CONTINUOUS
 62
     7
 10
562.001619
 20
242.018214
 11
562.024299
 21
242.035599
  0
LINE
  8
CSLAYER4
  6
CONTINUOUS
 62
     7
 10
562.024299
 20
242.035599
 11
562.047515
 21
242.052202
  0
LINE
  8
CSLAYER4
  6
CONTINUOUS
 62
     7
 10
562.047515
 20
242.052202
 11
562.071245
 21
242.067951
  0
LINE
  8
CSLAYER4
  6
CONTINUOUS
 62
     7
 10
562.071245
 20
242.067951
 11
562.095531
 21
242.082813
  0
LINE
  8
CSLAYER4
  6
CONTINUOUS
 62
     7
 10
562.095531
 20
242.082813
 11
562.120353
 21
242.096739
  0
LINE
  8
CSLAYER4
  6
CONTINUOUS
 62
     7
 10
562.120353
 20
242.096739
 11
562.145712
 21
242.109664
  0
LINE
  8
CSLAYER4
  6
CONTINUOUS
 62
     7
 10
562.145712
 20
242.109664
 11
562.171626
 21
242.121540
  0
LINE
  8
CSLAYER4
  6
CONTINUOUS
 62
     7
 10
562.171626
 20
242.121540
 11
562.198035
 21
242.132293
  0
LINE
  8
CSLAYER4
  6
CONTINUOUS
 62
     7
 10
562.198035
 20
242.132293
 11
562.224669
 21
242.141799
  0
LINE
  8
CSLAYER4
  6
CONTINUOUS
 62
     7
 10
562.224669
 20
242.141799
 11
562.251572
 21
242.150059
  0
LINE
  8
CSLAYER4
  6
CONTINUOUS
 62
     7
 10
562.251572
 20
242.150059
 11
562.278743
 21
242.157075
  0
LINE
  8
CSLAYER4
  6
CONTINUOUS
 62
     7
 10
562.278743
 20
242.157075
 11
562.306140
 21
242.162811
  0
LINE
  8
CSLAYER4
  6
CONTINUOUS
 62
     7
 10
562.306140
 20
242.162811
 11
562.333805
 21
242.167291
  0
LINE
  8
CSLAYER4
  6
CONTINUOUS
 62
     7
 10
562.333805
 20
242.167291
 11
562.361717
 21
242.170494
  0
LINE
  8
CSLAYER4
  6
CONTINUOUS
 62
     7
 10
562.361717
 20
242.170494
 11
562.389876
 21
242.172420
  0
LINE
  8
CSLAYER4
  6
CONTINUOUS
 62
     7
 10
562.389876
 20
242.172420
 11
562.418283
 21
242.173069
  0
LINE
  8
CSLAYER4
  6
CONTINUOUS
 62
     7
 10
562.418283
 20
242.173069
 11
562.450500
 21
242.171977
  0
LINE
  8
CSLAYER4
  6
CONTINUOUS
 62
     7
 10
562.450500
 20
242.171977
 11
562.482408
 21
242.168733
  0
LINE
  8
CSLAYER4
  6
CONTINUOUS
 62
     7
 10
562.482408
 20
242.168733
 11
562.513967
 21
242.163418
  0
LINE
  8
CSLAYER4
  6
CONTINUOUS
 62
     7
 10
562.513967
 20
242.163418
 11
562.545216
 21
242.156085
  0
LINE
  8
CSLAYER4
  6
CONTINUOUS
 62
     7
 10
562.545216
 20
242.156085
 11
562.576115
 21
242.146806
  0
LINE
  8
CSLAYER4
  6
CONTINUOUS
 62
     7
 10
562.576115
 20
242.146806
 11
562.606520
 21
242.135701
  0
LINE
  8
CSLAYER4
  6
CONTINUOUS
 62
     7
 10
562.606520
 20
242.135701
 11
562.636286
 21
242.122962
  0
LINE
  8
CSLAYER4
  6
CONTINUOUS
 62
     7
 10
562.636286
 20
242.122962
 11
562.665351
 21
242.108697
  0
LINE
  8
CSLAYER4
  6
CONTINUOUS
 62
     7
 10
562.665351
 20
242.108697
 11
562.693737
 21
242.093062
  0
LINE
  8
CSLAYER4
  6
CONTINUOUS
 62
     7
 10
562.693737
 20
242.093062
 11
562.721423
 21
242.076169
  0
LINE
  8
CSLAYER4
  6
CONTINUOUS
 62
     7
 10
562.721423
 20
242.076169
 11
562.748429
 21
242.058135
  0
LINE
  8
CSLAYER4
  6
CONTINUOUS
 62
     7
 10
562.748429
 20
242.058135
 11
562.774899
 21
242.038957
  0
LINE
  8
CSLAYER4
  6
CONTINUOUS
 62
     7
 10
562.774899
 20
242.038957
 11
562.800896
 21
242.018697
  0
LINE
  8
CSLAYER4
  6
CONTINUOUS
 62
     7
 10
562.800896
 20
242.018697
 11
562.826357
 21
241.997460
  0
LINE
  8
CSLAYER4
  6
CONTINUOUS
 62
     7
 10
562.826357
 20
241.997460
 11
562.851302
 21
241.975326
  0
LINE
  8
CSLAYER4
  6
CONTINUOUS
 62
     7
 10
562.851302
 20
241.975326
 11
562.875713
 21
241.952409
  0
LINE
  8
CSLAYER4
  6
CONTINUOUS
 62
     7
 10
562.875713
 20
241.952409
 11
562.899587
 21
241.928781
  0
LINE
  8
CSLAYER4
  6
CONTINUOUS
 62
     7
 10
562.899587
 20
241.928781
 11
562.922906
 21
241.904545
  0
LINE
  8
CSLAYER4
  6
CONTINUOUS
 62
     7
 10
562.922906
 20
241.904545
 11
562.945647
 21
241.879795
  0
LINE
  8
CSLAYER4
  6
CONTINUOUS
 62
     7
 10
562.945647
 20
241.879795
 11
562.967811
 21
241.854624
  0
LINE
  8
CSLAYER4
  6
CONTINUOUS
 62
     7
 10
562.967811
 20
241.854624
 11
562.989380
 21
241.829133
  0
LINE
  8
CSLAYER4
  6
CONTINUOUS
 62
     7
 10
562.989380
 20
241.829133
 11
563.010371
 21
241.803393
  0
LINE
  8
CSLAYER4
  6
CONTINUOUS
 62
     7
 10
563.010371
 20
241.803393
 11
563.030744
 21
241.777519
  0
LINE
  8
CSLAYER4
  6
CONTINUOUS
 62
     7
 10
563.030744
 20
241.777519
 11
563.050476
 21
241.751607
  0
LINE
  8
CSLAYER4
  6
CONTINUOUS
 62
     7
 10
563.050476
 20
241.751607
 11
563.077298
 21
241.712839
  0
LINE
  8
CSLAYER4
  6
CONTINUOUS
 62
     7
 10
563.077298
 20
241.712839
 11
563.103108
 21
241.673122
  0
LINE
  8
CSLAYER4
  6
CONTINUOUS
 62
     7
 10
563.103108
 20
241.673122
 11
563.127911
 21
241.632573
  0
LINE
  8
CSLAYER4
  6
CONTINUOUS
 62
     7
 10
563.127911
 20
241.632573
 11
563.151723
 21
241.591281
  0
LINE
  8
CSLAYER4
  6
CONTINUOUS
 62
     7
 10
563.151723
 20
241.591281
 11
563.174609
 21
241.549341
  0
LINE
  8
CSLAYER4
  6
CONTINUOUS
 62
     7
 10
563.174609
 20
241.549341
 11
563.196548
 21
241.506865
  0
LINE
  8
CSLAYER4
  6
CONTINUOUS
 62
     7
 10
563.196548
 20
241.506865
 11
563.217600
 21
241.463946
  0
LINE
  8
CSLAYER4
  6
CONTINUOUS
 62
     7
 10
563.217600
 20
241.463946
 11
563.237747
 21
241.420698
  0
LINE
  8
CSLAYER4
  6
CONTINUOUS
 62
     7
 10
563.237747
 20
241.420698
 11
563.257026
 21
241.377202
  0
LINE
  8
CSLAYER4
  6
CONTINUOUS
 62
     7
 10
563.257026
 20
241.377202
 11
563.275463
 21
241.333584
  0
LINE
  8
CSLAYER4
  6
CONTINUOUS
 62
     7
 10
563.275463
 20
241.333584
 11
563.293076
 21
241.289902
  0
LINE
  8
CSLAYER4
  6
CONTINUOUS
 62
     7
 10
563.293076
 20
241.289902
 11
563.310071
 21
241.245850
  0
LINE
  8
CSLAYER4
  6
CONTINUOUS
 62
     7
 10
563.310071
 20
241.245850
 11
563.326467
 21
241.201366
  0
LINE
  8
CSLAYER4
  6
CONTINUOUS
 62
     7
 10
563.326467
 20
241.201366
 11
563.342288
 21
241.156491
  0
LINE
  8
CSLAYER4
  6
CONTINUOUS
 62
     7
 10
563.342288
 20
241.156491
 11
563.357573
 21
241.111285
  0
LINE
  8
CSLAYER4
  6
CONTINUOUS
 62
     7
 10
563.357573
 20
241.111285
 11
563.372301
 21
241.065792
  0
LINE
  8
CSLAYER4
  6
CONTINUOUS
 62
     7
 10
563.372301
 20
241.065792
 11
563.386514
 21
241.020070
  0
LINE
  8
CSLAYER4
  6
CONTINUOUS
 62
     7
 10
563.386514
 20
241.020070
 11
563.400192
 21
240.974176
  0
LINE
  8
CSLAYER4
  6
CONTINUOUS
 62
     7
 10
563.400192
 20
240.974176
 11
563.413356
 21
240.928147
  0
LINE
  8
CSLAYER4
  6
CONTINUOUS
 62
     7
 10
563.413356
 20
240.928147
 11
563.426024
 21
240.882045
  0
LINE
  8
CSLAYER4
  6
CONTINUOUS
 62
     7
 10
563.426024
 20
240.882045
 11
563.438219
 21
240.835924
  0
LINE
  8
CSLAYER4
  6
CONTINUOUS
 62
     7
 10
563.438219
 20
240.835924
 11
563.449919
 21
240.789832
  0
LINE
  8
CSLAYER4
  6
CONTINUOUS
 62
     7
 10
563.449919
 20
240.789832
 11
563.461167
 21
240.743823
  0
LINE
  8
CSLAYER4
  6
CONTINUOUS
 62
     7
 10
563.461167
 20
240.743823
 11
563.471961
 21
240.697948
  0
LINE
  8
CSLAYER4
  6
CONTINUOUS
 62
     7
 10
563.471961
 20
240.697948
 11
563.501459
 21
240.580461
  0
LINE
  8
CSLAYER4
  6
CONTINUOUS
 62
     7
 10
563.501459
 20
240.580461
 11
563.528960
 21
240.462231
  0
LINE
  8
CSLAYER4
  6
CONTINUOUS
 62
     7
 10
563.528960
 20
240.462231
 11
563.554461
 21
240.343351
  0
LINE
  8
CSLAYER4
  6
CONTINUOUS
 62
     7
 10
563.554461
 20
240.343351
 11
563.578088
 21
240.223936
  0
LINE
  8
CSLAYER4
  6
CONTINUOUS
 62
     7
 10
563.578088
 20
240.223936
 11
563.599841
 21
240.104059
  0
LINE
  8
CSLAYER4
  6
CONTINUOUS
 62
     7
 10
563.599841
 20
240.104059
 11
563.619803
 21
239.983819
  0
LINE
  8
CSLAYER4
  6
CONTINUOUS
 62
     7
 10
563.619803
 20
239.983819
 11
563.638013
 21
239.863324
  0
LINE
  8
CSLAYER4
  6
CONTINUOUS
 62
     7
 10
563.638013
 20
239.863324
 11
563.654553
 21
239.742643
  0
LINE
  8
CSLAYER4
  6
CONTINUOUS
 62
     7
 10
563.654553
 20
239.742643
 11
563.669487
 21
239.621899
  0
LINE
  8
CSLAYER4
  6
CONTINUOUS
 62
     7
 10
563.669487
 20
239.621899
 11
563.682837
 21
239.501167
  0
LINE
  8
CSLAYER4
  6
CONTINUOUS
 62
     7
 10
563.682837
 20
239.501167
 11
563.694681
 21
239.380557
  0
LINE
  8
CSLAYER4
  6
CONTINUOUS
 62
     7
 10
563.694681
 20
239.380557
 11
563.705084
 21
239.259886
  0
LINE
  8
CSLAYER4
  6
CONTINUOUS
 62
     7
 10
563.705084
 20
239.259886
 11
563.714148
 21
239.138845
  0
LINE
  8
CSLAYER4
  6
CONTINUOUS
 62
     7
 10
563.714148
 20
239.138845
 11
563.721893
 21
239.017494
  0
LINE
  8
CSLAYER4
  6
CONTINUOUS
 62
     7
 10
563.721893
 20
239.017494
 11
563.728361
 21
238.895895
  0
LINE
  8
CSLAYER4
  6
CONTINUOUS
 62
     7
 10
563.728361
 20
238.895895
 11
563.733593
 21
238.774111
  0
LINE
  8
CSLAYER4
  6
CONTINUOUS
 62
     7
 10
563.733593
 20
238.774111
 11
563.737631
 21
238.652196
  0
LINE
  8
CSLAYER4
  6
CONTINUOUS
 62
     7
 10
563.737631
 20
238.652196
 11
563.740494
 21
238.530205
  0
LINE
  8
CSLAYER4
  6
CONTINUOUS
 62
     7
 10
563.740494
 20
238.530205
 11
563.742225
 21
238.408225
  0
LINE
  8
CSLAYER4
  6
CONTINUOUS
 62
     7
 10
563.742225
 20
238.408225
 11
563.742884
 21
238.286298
  0
LINE
  8
CSLAYER4
  6
CONTINUOUS
 62
     7
 10
563.742884
 20
238.286298
 11
563.742492
 21
238.164484
  0
LINE
  8
CSLAYER4
  6
CONTINUOUS
 62
     7
 10
563.742492
 20
238.164484
 11
563.741072
 21
238.042855
  0
LINE
  8
CSLAYER4
  6
CONTINUOUS
 62
     7
 10
563.741072
 20
238.042855
 11
563.738682
 21
237.921474
  0
LINE
  8
CSLAYER4
  6
CONTINUOUS
 62
     7
 10
563.738682
 20
237.921474
 11
563.735366
 21
237.800380
  0
LINE
  8
CSLAYER4
  6
CONTINUOUS
 62
     7
 10
563.735366
 20
237.800380
 11
563.731493
 21
237.701247
  0
LINE
  8
CSLAYER4
  6
CONTINUOUS
 62
     7
 10
563.731493
 20
237.701247
 11
563.726939
 21
237.601659
  0
LINE
  8
CSLAYER4
  6
CONTINUOUS
 62
     7
 10
563.726939
 20
237.601659
 11
563.721666
 21
237.501700
  0
LINE
  8
CSLAYER4
  6
CONTINUOUS
 62
     7
 10
563.721666
 20
237.501700
 11
563.715630
 21
237.401473
  0
LINE
  8
CSLAYER4
  6
CONTINUOUS
 62
     7
 10
563.715630
 20
237.401473
 11
563.708792
 21
237.301062
  0
LINE
  8
CSLAYER4
  6
CONTINUOUS
 62
     7
 10
563.708792
 20
237.301062
 11
563.701149
 21
237.200578
  0
LINE
  8
CSLAYER4
  6
CONTINUOUS
 62
     7
 10
563.701149
 20
237.200578
 11
563.692662
 21
237.100116
  0
LINE
  8
CSLAYER4
  6
CONTINUOUS
 62
     7
 10
563.692662
 20
237.100116
 11
563.683269
 21
236.999755
  0
LINE
  8
CSLAYER4
  6
CONTINUOUS
 62
     7
 10
563.683269
 20
236.999755
 11
563.672949
 21
236.899600
  0
LINE
  8
CSLAYER4
  6
CONTINUOUS
 62
     7
 10
563.672949
 20
236.899600
 11
563.661702
 21
236.799756
  0
LINE
  8
CSLAYER4
  6
CONTINUOUS
 62
     7
 10
563.661702
 20
236.799756
 11
563.649444
 21
236.700291
  0
LINE
  8
CSLAYER4
  6
CONTINUOUS
 62
     7
 10
563.649444
 20
236.700291
 11
563.636178
 21
236.601322
  0
LINE
  8
CSLAYER4
  6
CONTINUOUS
 62
     7
 10
563.636178
 20
236.601322
 11
563.621862
 21
236.502939
  0
LINE
  8
CSLAYER4
  6
CONTINUOUS
 62
     7
 10
563.621862
 20
236.502939
 11
563.606414
 21
236.404927
  0
LINE
  8
CSLAYER4
  6
CONTINUOUS
 62
     7
 10
563.606414
 20
236.404927
 11
563.589624
 21
236.306463
  0
LINE
  8
CSLAYER4
  6
CONTINUOUS
 62
     7
 10
563.589624
 20
236.306463
 11
563.571414
 21
236.207658
  0
LINE
  8
CSLAYER4
  6
CONTINUOUS
 62
     7
 10
563.571414
 20
236.207658
 11
563.551722
 21
236.108730
  0
LINE
  8
CSLAYER4
  6
CONTINUOUS
 62
     7
 10
563.551722
 20
236.108730
 11
563.530463
 21
236.009874
  0
LINE
  8
CSLAYER4
  6
CONTINUOUS
 62
     7
 10
563.530463
 20
236.009874
 11
563.507598
 21
235.911285
  0
LINE
  8
CSLAYER4
  6
CONTINUOUS
 62
     7
 10
563.507598
 20
235.911285
 11
563.483022
 21
235.813191
  0
LINE
  8
CSLAYER4
  6
CONTINUOUS
 62
     7
 10
563.483022
 20
235.813191
 11
563.456717
 21
235.715766
  0
LINE
  8
CSLAYER4
  6
CONTINUOUS
 62
     7
 10
563.456717
 20
235.715766
 11
563.428578
 21
235.619236
  0
LINE
  8
CSLAYER4
  6
CONTINUOUS
 62
     7
 10
563.428578
 20
235.619236
 11
563.398565
 21
235.523800
  0
LINE
  8
CSLAYER4
  6
CONTINUOUS
 62
     7
 10
563.398565
 20
235.523800
 11
563.366595
 21
235.429651
  0
LINE
  8
CSLAYER4
  6
CONTINUOUS
 62
     7
 10
560.469027
 20
234.270627
 11
560.520855
 21
234.176169
  0
LINE
  8
CSLAYER4
  6
CONTINUOUS
 62
     7
 10
560.520855
 20
234.176169
 11
560.575031
 21
234.082185
  0
LINE
  8
CSLAYER4
  6
CONTINUOUS
 62
     7
 10
560.575031
 20
234.082185
 11
560.631596
 21
233.989024
  0
LINE
  8
CSLAYER4
  6
CONTINUOUS
 62
     7
 10
560.631596
 20
233.989024
 11
560.690594
 21
233.896996
  0
LINE
  8
CSLAYER4
  6
CONTINUOUS
 62
     7
 10
560.690594
 20
233.896996
 11
560.752062
 21
233.806452
  0
LINE
  8
CSLAYER4
  6
CONTINUOUS
 62
     7
 10
560.752062
 20
233.806452
 11
560.816043
 21
233.717709
  0
LINE
  8
CSLAYER4
  6
CONTINUOUS
 62
     7
 10
560.816043
 20
233.717709
 11
560.882579
 21
233.631088
  0
LINE
  8
CSLAYER4
  6
CONTINUOUS
 62
     7
 10
560.882579
 20
233.631088
 11
560.951711
 21
233.546941
  0
LINE
  8
CSLAYER4
  6
CONTINUOUS
 62
     7
 10
560.951711
 20
233.546941
 11
561.023499
 21
233.465574
  0
LINE
  8
CSLAYER4
  6
CONTINUOUS
 62
     7
 10
561.023499
 20
233.465574
 11
561.097988
 21
233.387337
  0
LINE
  8
CSLAYER4
  6
CONTINUOUS
 62
     7
 10
561.097988
 20
233.387337
 11
561.175194
 21
233.312541
  0
LINE
  8
CSLAYER4
  6
CONTINUOUS
 62
     7
 10
561.175194
 20
233.312541
 11
561.255242
 21
233.241463
  0
LINE
  8
CSLAYER4
  6
CONTINUOUS
 62
     7
 10
561.255242
 20
233.241463
 11
561.338217
 21
233.174401
  0
LINE
  8
CSLAYER4
  6
CONTINUOUS
 62
     7
 10
561.338217
 20
233.174401
 11
561.424157
 21
233.111676
  0
LINE
  8
CSLAYER4
  6
CONTINUOUS
 62
     7
 10
561.424157
 20
233.111676
 11
561.513167
 21
233.053627
  0
LINE
  8
CSLAYER4
  6
CONTINUOUS
 62
     7
 10
561.513167
 20
233.053627
 11
561.605267
 21
233.000584
  0
LINE
  8
CSLAYER4
  6
CONTINUOUS
 62
     7
 10
561.605267
 20
233.000584
 11
561.700518
 21
232.952875
  0
LINE
  8
CSLAYER4
  6
CONTINUOUS
 62
     7
 10
561.700518
 20
232.952875
 11
561.798819
 21
232.910895
  0
LINE
  8
CSLAYER4
  6
CONTINUOUS
 62
     7
 10
561.798819
 20
232.910895
 11
561.898787
 21
232.875402
  0
LINE
  8
CSLAYER4
  6
CONTINUOUS
 62
     7
 10
561.898787
 20
232.875402
 11
562.000095
 21
232.846491
  0
LINE
  8
CSLAYER4
  6
CONTINUOUS
 62
     7
 10
562.000095
 20
232.846491
 11
562.102700
 21
232.824099
  0
LINE
  8
CSLAYER4
  6
CONTINUOUS
 62
     7
 10
562.102700
 20
232.824099
 11
562.206624
 21
232.808176
  0
LINE
  8
CSLAYER4
  6
CONTINUOUS
 62
     7
 10
562.206624
 20
232.808176
 11
562.311825
 21
232.798669
  0
LINE
  8
CSLAYER4
  6
CONTINUOUS
 62
     7
 10
562.311825
 20
232.798669
 11
562.418283
 21
232.795507
  0
LINE
  8
CSLAYER4
  6
CONTINUOUS
 62
     7
 10
562.418283
 20
232.795507
 11
562.529910
 21
232.798917
  0
LINE
  8
CSLAYER4
  6
CONTINUOUS
 62
     7
 10
562.529910
 20
232.798917
 11
562.640694
 21
232.809256
  0
LINE
  8
CSLAYER4
  6
CONTINUOUS
 62
     7
 10
562.640694
 20
232.809256
 11
562.750571
 21
232.826725
  0
LINE
  8
CSLAYER4
  6
CONTINUOUS
 62
     7
 10
562.750571
 20
232.826725
 11
562.859480
 21
232.851496
  0
LINE
  8
CSLAYER4
  6
CONTINUOUS
 62
     7
 10
562.859480
 20
232.851496
 11
562.966535
 21
232.883466
  0
LINE
  8
CSLAYER4
  6
CONTINUOUS
 62
     7
 10
562.966535
 20
232.883466
 11
563.070870
 21
232.922296
  0
LINE
  8
CSLAYER4
  6
CONTINUOUS
 62
     7
 10
563.070870
 20
232.922296
 11
563.172528
 21
232.967820
  0
LINE
  8
CSLAYER4
  6
CONTINUOUS
 62
     7
 10
563.172528
 20
232.967820
 11
563.271530
 21
233.019865
  0
LINE
  8
CSLAYER4
  6
CONTINUOUS
 62
     7
 10
563.271530
 20
233.019865
 11
563.367378
 21
233.077914
  0
LINE
  8
CSLAYER4
  6
CONTINUOUS
 62
     7
 10
563.367378
 20
233.077914
 11
563.459622
 21
233.141298
  0
LINE
  8
CSLAYER4
  6
CONTINUOUS
 62
     7
 10
563.459622
 20
233.141298
 11
563.548281
 21
233.209575
  0
LINE
  8
CSLAYER4
  6
CONTINUOUS
 62
     7
 10
563.548281
 20
233.209575
 11
563.633460
 21
233.282343
  0
LINE
  8
CSLAYER4
  6
CONTINUOUS
 62
     7
 10
563.633460
 20
233.282343
 11
563.715219
 21
233.359158
  0
LINE
  8
CSLAYER4
  6
CONTINUOUS
 62
     7
 10
563.715219
 20
233.359158
 11
563.793620
 21
233.439628
  0
LINE
  8
CSLAYER4
  6
CONTINUOUS
 62
     7
 10
563.793620
 20
233.439628
 11
563.868725
 21
233.523303
  0
LINE
  8
CSLAYER4
  6
CONTINUOUS
 62
     7
 10
563.868725
 20
233.523303
 11
563.940638
 21
233.609790
  0
LINE
  8
CSLAYER4
  6
CONTINUOUS
 62
     7
 10
563.940638
 20
233.609790
 11
564.009480
 21
233.698758
  0
LINE
  8
CSLAYER4
  6
CONTINUOUS
 62
     7
 10
564.009480
 20
233.698758
 11
564.075647
 21
233.790292
  0
LINE
  8
CSLAYER4
  6
CONTINUOUS
 62
     7
 10
564.075647
 20
233.790292
 11
564.139256
 21
233.884111
  0
LINE
  8
CSLAYER4
  6
CONTINUOUS
 62
     7
 10
564.139256
 20
233.884111
 11
564.200313
 21
233.979877
  0
LINE
  8
CSLAYER4
  6
CONTINUOUS
 62
     7
 10
564.200313
 20
233.979877
 11
564.258897
 21
234.077281
  0
LINE
  8
CSLAYER4
  6
CONTINUOUS
 62
     7
 10
564.258897
 20
234.077281
 11
564.315051
 21
234.175984
  0
LINE
  8
CSLAYER4
  6
CONTINUOUS
 62
     7
 10
564.315051
 20
234.175984
 11
564.368816
 21
234.275664
  0
LINE
  8
CSLAYER4
  6
CONTINUOUS
 62
     7
 10
564.368816
 20
234.275664
 11
564.420252
 21
234.375994
  0
LINE
  8
CSLAYER4
  6
CONTINUOUS
 62
     7
 10
564.420252
 20
234.375994
 11
564.496367
 21
234.540025
  0
LINE
  8
CSLAYER4
  6
CONTINUOUS
 62
     7
 10
564.496367
 20
234.540025
 11
564.567435
 21
234.706737
  0
LINE
  8
CSLAYER4
  6
CONTINUOUS
 62
     7
 10
564.567435
 20
234.706737
 11
564.633621
 21
234.875908
  0
LINE
  8
CSLAYER4
  6
CONTINUOUS
 62
     7
 10
564.633621
 20
234.875908
 11
564.695090
 21
235.047327
  0
LINE
  8
CSLAYER4
  6
CONTINUOUS
 62
     7
 10
564.695090
 20
235.047327
 11
564.751944
 21
235.220763
  0
LINE
  8
CSLAYER4
  6
CONTINUOUS
 62
     7
 10
564.751944
 20
235.220763
 11
564.804369
 21
235.395981
  0
LINE
  8
CSLAYER4
  6
CONTINUOUS
 62
     7
 10
564.804369
 20
235.395981
 11
564.852510
 21
235.572754
  0
LINE
  8
CSLAYER4
  6
CONTINUOUS
 62
     7
 10
564.852510
 20
235.572754
 11
564.896510
 21
235.750876
  0
LINE
  8
CSLAYER4
  6
CONTINUOUS
 62
     7
 10
564.896510
 20
235.750876
 11
564.936515
 21
235.930113
  0
LINE
  8
CSLAYER4
  6
CONTINUOUS
 62
     7
 10
564.936515
 20
235.930113
 11
564.972665
 21
236.110243
  0
LINE
  8
CSLAYER4
  6
CONTINUOUS
 62
     7
 10
564.972665
 20
236.110243
 11
565.005131
 21
236.291034
  0
LINE
  8
CSLAYER4
  6
CONTINUOUS
 62
     7
 10
565.005131
 20
236.291034
 11
565.034052
 21
236.472267
  0
LINE
  8
CSLAYER4
  6
CONTINUOUS
 62
     7
 10
565.034052
 20
236.472267
 11
565.059575
 21
236.653716
  0
LINE
  8
CSLAYER4
  6
CONTINUOUS
 62
     7
 10
565.059575
 20
236.653716
 11
565.081842
 21
236.835156
  0
LINE
  8
CSLAYER4
  6
CONTINUOUS
 62
     7
 10
565.081842
 20
236.835156
 11
565.101021
 21
237.016357
  0
LINE
  8
CSLAYER4
  6
CONTINUOUS
 62
     7
 10
565.101021
 20
237.016357
 11
565.117253
 21
237.197097
  0
LINE
  8
CSLAYER4
  6
CONTINUOUS
 62
     7
 10
565.117253
 20
237.197097
 11
565.130684
 21
237.377269
  0
LINE
  8
CSLAYER4
  6
CONTINUOUS
 62
     7
 10
565.130684
 20
237.377269
 11
565.141539
 21
237.557689
  0
LINE
  8
CSLAYER4
  6
CONTINUOUS
 62
     7
 10
565.141539
 20
237.557689
 11
565.149902
 21
237.738489
  0
LINE
  8
CSLAYER4
  6
CONTINUOUS
 62
     7
 10
565.149902
 20
237.738489
 11
565.155876
 21
237.919537
  0
LINE
  8
CSLAYER4
  6
CONTINUOUS
 62
     7
 10
565.155876
 20
237.919537
 11
565.159563
 21
238.100677
  0
LINE
  8
CSLAYER4
  6
CONTINUOUS
 62
     7
 10
565.159563
 20
238.100677
 11
565.161047
 21
238.281777
  0
LINE
  8
CSLAYER4
  6
CONTINUOUS
 62
     7
 10
565.161047
 20
238.281777
 11
565.160429
 21
238.462701
  0
LINE
  8
CSLAYER4
  6
CONTINUOUS
 62
     7
 10
565.160429
 20
238.462701
 11
565.157813
 21
238.643317
  0
LINE
  8
CSLAYER4
  6
CONTINUOUS
 62
     7
 10
565.157813
 20
238.643317
 11
565.153239
 21
238.807246
  0
LINE
  8
CSLAYER4
  6
CONTINUOUS
 62
     7
 10
565.153239
 20
238.807246
 11
565.146771
 21
238.971948
  0
LINE
  8
CSLAYER4
  6
CONTINUOUS
 62
     7
 10
565.146771
 20
238.971948
 11
565.138265
 21
239.137279
  0
LINE
  8
CSLAYER4
  6
CONTINUOUS
 62
     7
 10
565.138265
 20
239.137279
 11
565.127634
 21
239.303062
  0
LINE
  8
CSLAYER4
  6
CONTINUOUS
 62
     7
 10
565.127634
 20
239.303062
 11
565.114802
 21
239.469166
  0
LINE
  8
CSLAYER4
  6
CONTINUOUS
 62
     7
 10
565.114802
 20
239.469166
 11
565.099661
 21
239.635434
  0
LINE
  8
CSLAYER4
  6
CONTINUOUS
 62
     7
 10
565.099661
 20
239.635434
 11
565.082090
 21
239.801701
  0
LINE
  8
CSLAYER4
  6
CONTINUOUS
 62
     7
 10
565.082090
 20
239.801701
 11
565.062026
 21
239.967825
  0
LINE
  8
CSLAYER4
  6
CONTINUOUS
 62
     7
 10
565.062026
 20
239.967825
 11
565.039326
 21
240.133650
  0
LINE
  8
CSLAYER4
  6
CONTINUOUS
 62
     7
 10
565.039326
 20
240.133650
 11
565.013946
 21
240.299031
  0
LINE
  8
CSLAYER4
  6
CONTINUOUS
 62
     7
 10
565.013946
 20
240.299031
 11
564.985746
 21
240.463797
  0
LINE
  8
CSLAYER4
  6
CONTINUOUS
 62
     7
 10
564.985746
 20
240.463797
 11
564.954641
 21
240.627808
  0
LINE
  8
CSLAYER4
  6
CONTINUOUS
 62
     7
 10
564.954641
 20
240.627808
 11
564.920528
 21
240.790903
  0
LINE
  8
CSLAYER4
  6
CONTINUOUS
 62
     7
 10
564.920528
 20
240.790903
 11
564.883307
 21
240.952938
  0
LINE
  8
CSLAYER4
  6
CONTINUOUS
 62
     7
 10
564.883307
 20
240.952938
 11
564.842889
 21
241.113747
  0
LINE
  8
CSLAYER4
  6
CONTINUOUS
 62
     7
 10
564.842889
 20
241.113747
 11
564.799178
 21
241.273186
  0
LINE
  8
CSLAYER4
  6
CONTINUOUS
 62
     7
 10
564.799178
 20
241.273186
 11
564.752067
 21
241.431111
  0
LINE
  8
CSLAYER4
  6
CONTINUOUS
 62
     7
 10
564.752067
 20
241.431111
 11
564.701454
 21
241.587348
  0
LINE
  8
CSLAYER4
  6
CONTINUOUS
 62
     7
 10
564.701454
 20
241.587348
 11
564.647216
 21
241.741893
  0
LINE
  8
CSLAYER4
  6
CONTINUOUS
 62
     7
 10
564.647216
 20
241.741893
 11
564.589065
 21
241.894968
  0
LINE
  8
CSLAYER4
  6
CONTINUOUS
 62
     7
 10
564.589065
 20
241.894968
 11
564.526895
 21
242.046424
  0
LINE
  8
CSLAYER4
  6
CONTINUOUS
 62
     7
 10
564.526895
 20
242.046424
 11
564.460545
 21
242.196078
  0
LINE
  8
CSLAYER4
  6
CONTINUOUS
 62
     7
 10
564.460545
 20
242.196078
 11
564.389931
 21
242.343714
  0
LINE
  8
CSLAYER4
  6
CONTINUOUS
 62
     7
 10
564.389931
 20
242.343714
 11
564.314886
 21
242.489166
  0
LINE
  8
CSLAYER4
  6
CONTINUOUS
 62
     7
 10
564.314886
 20
242.489166
 11
564.263985
 21
242.577619
  0
LINE
  8
CSLAYER4
  6
CONTINUOUS
 62
     7
 10
564.263985
 20
242.577619
 11
564.210777
 21
242.665137
  0
LINE
  8
CSLAYER4
  6
CONTINUOUS
 62
     7
 10
564.210777
 20
242.665137
 11
564.155201
 21
242.751448
  0
LINE
  8
CSLAYER4
  6
CONTINUOUS
 62
     7
 10
564.155201
 20
242.751448
 11
564.097193
 21
242.836266
  0
LINE
  8
CSLAYER4
  6
CONTINUOUS
 62
     7
 10
564.097193
 20
242.836266
 11
564.036692
 21
242.919322
  0
LINE
  8
CSLAYER4
  6
CONTINUOUS
 62
     7
 10
564.036692
 20
242.919322
 11
563.973659
 21
243.000340
  0
LINE
  8
CSLAYER4
  6
CONTINUOUS
 62
     7
 10
563.973659
 20
243.000340
 11
563.908008
 21
243.079050
  0
LINE
  8
CSLAYER4
  6
CONTINUOUS
 62
     7
 10
563.908008
 20
243.079050
 11
563.839742
 21
243.155175
  0
LINE
  8
CSLAYER4
  6
CONTINUOUS
 62
     7
 10
563.839742
 20
243.155175
 11
563.768756
 21
243.228436
  0
LINE
  8
CSLAYER4
  6
CONTINUOUS
 62
     7
 10
563.768756
 20
243.228436
 11
563.695032
 21
243.298546
  0
LINE
  8
CSLAYER4
  6
CONTINUOUS
 62
     7
 10
563.695032
 20
243.298546
 11
563.618669
 21
243.365092
  0
LINE
  8
CSLAYER4
  6
CONTINUOUS
 62
     7
 10
563.618669
 20
243.365092
 11
563.539692
 21
243.427839
  0
LINE
  8
CSLAYER4
  6
CONTINUOUS
 62
     7
 10
563.539692
 20
243.427839
 11
563.458014
 21
243.486556
  0
LINE
  8
CSLAYER4
  6
CONTINUOUS
 62
     7
 10
563.458014
 20
243.486556
 11
563.373599
 21
243.541042
  0
LINE
  8
CSLAYER4
  6
CONTINUOUS
 62
     7
 10
563.373599
 20
243.541042
 11
563.286360
 21
243.591067
  0
LINE
  8
CSLAYER4
  6
CONTINUOUS
 62
     7
 10
563.286360
 20
243.591067
 11
563.196300
 21
243.636427
  0
LINE
  8
CSLAYER4
  6
CONTINUOUS
 62
     7
 10
563.196300
 20
243.636427
 11
563.103356
 21
243.676884
  0
LINE
  8
CSLAYER4
  6
CONTINUOUS
 62
     7
 10
563.103356
 20
243.676884
 11
563.008784
 21
243.711801
  0
LINE
  8
CSLAYER4
  6
CONTINUOUS
 62
     7
 10
563.008784
 20
243.711801
 11
562.913037
 21
243.741072
  0
LINE
  8
CSLAYER4
  6
CONTINUOUS
 62
     7
 10
562.913037
 20
243.741072
 11
562.816179
 21
243.764803
  0
LINE
  8
CSLAYER4
  6
CONTINUOUS
 62
     7
 10
562.816179
 20
243.764803
 11
562.718250
 21
243.783084
  0
LINE
  8
CSLAYER4
  6
CONTINUOUS
 62
     7
 10
562.718250
 20
243.783084
 11
562.619271
 21
243.796011
  0
LINE
  8
CSLAYER4
  6
CONTINUOUS
 62
     7
 10
562.619271
 20
243.796011
 11
562.519260
 21
243.803694
  0
LINE
  8
CSLAYER4
  6
CONTINUOUS
 62
     7
 10
562.519260
 20
243.803694
 11
562.418283
 21
243.806239
  0
LINE
  8
CSLAYER4
  6
CONTINUOUS
 62
     7
 10
562.418283
 20
243.806239
 11
562.310733
 21
243.802582
  0
LINE
  8
CSLAYER4
  6
CONTINUOUS
 62
     7
 10
562.310733
 20
243.802582
 11
562.204152
 21
243.791592
  0
LINE
  8
CSLAYER4
  6
CONTINUOUS
 62
     7
 10
562.204152
 20
243.791592
 11
562.098519
 21
243.773187
  0
LINE
  8
CSLAYER4
  6
CONTINUOUS
 62
     7
 10
562.098519
 20
243.773187
 11
561.993915
 21
243.747313
  0
LINE
  8
CSLAYER4
  6
CONTINUOUS
 62
     7
 10
561.993915
 20
243.747313
 11
561.891536
 21
243.714364
  0
LINE
  8
CSLAYER4
  6
CONTINUOUS
 62
     7
 10
561.891536
 20
243.714364
 11
561.791753
 21
243.674712
  0
LINE
  8
CSLAYER4
  6
CONTINUOUS
 62
     7
 10
561.791753
 20
243.674712
 11
561.694565
 21
243.628672
  0
LINE
  8
CSLAYER4
  6
CONTINUOUS
 62
     7
 10
561.694565
 20
243.628672
 11
561.599994
 21
243.576565
  0
LINE
  8
CSLAYER4
  6
CONTINUOUS
 62
     7
 10
561.599994
 20
243.576565
 11
561.508451
 21
243.519022
  0
LINE
  8
CSLAYER4
  6
CONTINUOUS
 62
     7
 10
561.508451
 20
243.519022
 11
561.419996
 21
243.456544
  0
LINE
  8
CSLAYER4
  6
CONTINUOUS
 62
     7
 10
561.419996
 20
243.456544
 11
561.334632
 21
243.389586
  0
LINE
  8
CSLAYER4
  6
CONTINUOUS
 62
     7
 10
561.334632
 20
243.389586
 11
561.252297
 21
243.318589
  0
LINE
  8
CSLAYER4
  6
CONTINUOUS
 62
     7
 10
561.252297
 20
243.318589
 11
561.172989
 21
243.244030
  0
LINE
  8
CSLAYER4
  6
CONTINUOUS
 62
     7
 10
561.172989
 20
243.244030
 11
561.096648
 21
243.166350
  0
LINE
  8
CSLAYER4
  6
CONTINUOUS
 62
     7
 10
561.096648
 20
243.166350
 11
561.023252
 21
243.086013
  0
LINE
  8
CSLAYER4
  6
CONTINUOUS
 62
     7
 10
561.023252
 20
243.086013
 11
560.952782
 21
243.003471
  0
LINE
  8
CSLAYER4
  6
CONTINUOUS
 62
     7
 10
560.952782
 20
243.003471
 11
560.885010
 21
242.918899
  0
LINE
  8
CSLAYER4
  6
CONTINUOUS
 62
     7
 10
560.885010
 20
242.918899
 11
560.819360
 21
242.832022
  0
LINE
  8
CSLAYER4
  6
CONTINUOUS
 62
     7
 10
560.819360
 20
242.832022
 11
560.755811
 21
242.743105
  0
LINE
  8
CSLAYER4
  6
CONTINUOUS
 62
     7
 10
560.755811
 20
242.743105
 11
560.694363
 21
242.652448
  0
LINE
  8
CSLAYER4
  6
CONTINUOUS
 62
     7
 10
560.694363
 20
242.652448
 11
560.634975
 21
242.560348
  0
LINE
  8
CSLAYER4
  6
CONTINUOUS
 62
     7
 10
560.634975
 20
242.560348
 11
560.577626
 21
242.467116
  0
LINE
  8
CSLAYER4
  6
CONTINUOUS
 62
     7
 10
560.577626
 20
242.467116
 11
560.522318
 21
242.373048
  0
LINE
  8
CSLAYER4
  6
CONTINUOUS
 62
     7
 10
560.522318
 20
242.373048
 11
560.469027
 21
242.278435
  0
LINE
  8
CSLAYER4
  6
CONTINUOUS
 62
     7
 10
560.469027
 20
242.278435
 11
560.393901
 21
242.122579
  0
LINE
  8
CSLAYER4
  6
CONTINUOUS
 62
     7
 10
560.393901
 20
242.122579
 11
560.323101
 21
241.964398
  0
LINE
  8
CSLAYER4
  6
CONTINUOUS
 62
     7
 10
560.323101
 20
241.964398
 11
560.256503
 21
241.804083
  0
LINE
  8
CSLAYER4
  6
CONTINUOUS
 62
     7
 10
560.256503
 20
241.804083
 11
560.194005
 21
241.641802
  0
LINE
  8
CSLAYER4
  6
CONTINUOUS
 62
     7
 10
560.194005
 20
241.641802
 11
560.135462
 21
241.477728
  0
LINE
  8
CSLAYER4
  6
CONTINUOUS
 62
     7
 10
560.135462
 20
241.477728
 11
560.080790
 21
241.312026
  0
LINE
  8
CSLAYER4
  6
CONTINUOUS
 62
     7
 10
560.080790
 20
241.312026
 11
560.029869
 21
241.144893
  0
LINE
  8
CSLAYER4
  6
CONTINUOUS
 62
     7
 10
560.029869
 20
241.144893
 11
559.982592
 21
240.976483
  0
LINE
  8
CSLAYER4
  6
CONTINUOUS
 62
     7
 10
559.982592
 20
240.976483
 11
559.938819
 21
240.806971
  0
LINE
  8
CSLAYER4
  6
CONTINUOUS
 62
     7
 10
559.938819
 20
240.806971
 11
559.898465
 21
240.636552
  0
LINE
  8
CSLAYER4
  6
CONTINUOUS
 62
     7
 10
559.898465
 20
240.636552
 11
559.861386
 21
240.465382
  0
LINE
  8
CSLAYER4
  6
CONTINUOUS
 62
     7
 10
559.861386
 20
240.465382
 11
559.827480
 21
240.293635
  0
LINE
  8
CSLAYER4
  6
CONTINUOUS
 62
     7
 10
559.827480
 20
240.293635
 11
559.796643
 21
240.121497
  0
LINE
  8
CSLAYER4
  6
CONTINUOUS
 62
     7
 10
559.796643
 20
240.121497
 11
559.768730
 21
239.949132
  0
LINE
  8
CSLAYER4
  6
CONTINUOUS
 62
     7
 10
559.768730
 20
239.949132
 11
559.743660
 21
239.776725
  0
LINE
  8
CSLAYER4
  6
CONTINUOUS
 62
     7
 10
559.743660
 20
239.776725
 11
559.721312
 21
239.604442
  0
LINE
  8
CSLAYER4
  6
CONTINUOUS
 62
     7
 10
559.721312
 20
239.604442
 11
559.701576
 21
239.432427
  0
LINE
  8
CSLAYER4
  6
CONTINUOUS
 62
     7
 10
559.701576
 20
239.432427
 11
559.684232
 21
239.260164
  0
LINE
  8
CSLAYER4
  6
CONTINUOUS
 62
     7
 10
559.684232
 20
239.260164
 11
559.669215
 21
239.087469
  0
LINE
  8
CSLAYER4
  6
CONTINUOUS
 62
     7
 10
559.669215
 20
239.087469
 11
559.656444
 21
238.914487
  0
LINE
  8
CSLAYER4
  6
CONTINUOUS
 62
     7
 10
559.656444
 20
238.914487
 11
559.645814
 21
238.741308
  0
LINE
  8
CSLAYER4
  6
CONTINUOUS
 62
     7
 10
559.645814
 20
238.741308
 11
559.637265
 21
238.568067
  0
LINE
  8
CSLAYER4
  6
CONTINUOUS
 62
     7
 10
559.637265
 20
238.568067
 11
559.630715
 21
238.394878
  0
LINE
  8
CSLAYER4
  6
CONTINUOUS
 62
     7
 10
559.630715
 20
238.394878
 11
559.626101
 21
238.221853
  0
LINE
  8
CSLAYER4
  6
CONTINUOUS
 62
     7
 10
559.626101
 20
238.221853
 11
559.630674
 21
238.053588
  0
LINE
  8
CSLAYER4
  6
CONTINUOUS
 62
     7
 10
559.630674
 20
238.053588
 11
559.637183
 21
237.884590
  0
LINE
  8
CSLAYER4
  6
CONTINUOUS
 62
     7
 10
559.637183
 20
237.884590
 11
559.645731
 21
237.714976
  0
LINE
  8
CSLAYER4
  6
CONTINUOUS
 62
     7
 10
559.645731
 20
237.714976
 11
559.656402
 21
237.544917
  0
LINE
  8
CSLAYER4
  6
CONTINUOUS
 62
     7
 10
559.656402
 20
237.544917
 11
559.669277
 21
237.374560
  0
LINE
  8
CSLAYER4
  6
CONTINUOUS
 62
     7
 10
559.669277
 20
237.374560
 11
559.684479
 21
237.204039
  0
LINE
  8
CSLAYER4
  6
CONTINUOUS
 62
     7
 10
559.684479
 20
237.204039
 11
559.702112
 21
237.033517
  0
LINE
  8
CSLAYER4
  6
CONTINUOUS
 62
     7
 10
559.702112
 20
237.033517
 11
559.722239
 21
236.863150
  0
LINE
  8
CSLAYER4
  6
CONTINUOUS
 62
     7
 10
559.722239
 20
236.863150
 11
559.744979
 21
236.693071
  0
LINE
  8
CSLAYER4
  6
CONTINUOUS
 62
     7
 10
559.744979
 20
236.693071
 11
559.770420
 21
236.523436
  0
LINE
  8
CSLAYER4
  6
CONTINUOUS
 62
     7
 10
559.770420
 20
236.523436
 11
559.798682
 21
236.354397
  0
LINE
  8
CSLAYER4
  6
CONTINUOUS
 62
     7
 10
559.798682
 20
236.354397
 11
559.829829
 21
236.186091
  0
LINE
  8
CSLAYER4
  6
CONTINUOUS
 62
     7
 10
559.829829
 20
236.186091
 11
559.863981
 21
236.018689
  0
LINE
  8
CSLAYER4
  6
CONTINUOUS
 62
     7
 10
559.863981
 20
236.018689
 11
559.901226
 21
235.852318
  0
LINE
  8
CSLAYER4
  6
CONTINUOUS
 62
     7
 10
559.901226
 20
235.852318
 11
559.941642
 21
235.687153
  0
LINE
  8
CSLAYER4
  6
CONTINUOUS
 62
     7
 10
559.941642
 20
235.687153
 11
559.985373
 21
235.523316
  0
LINE
  8
CSLAYER4
  6
CONTINUOUS
 62
     7
 10
559.985373
 20
235.523316
 11
560.032464
 21
235.360972
  0
LINE
  8
CSLAYER4
  6
CONTINUOUS
 62
     7
 10
560.032464
 20
235.360972
 11
560.083056
 21
235.200267
  0
LINE
  8
CSLAYER4
  6
CONTINUOUS
 62
     7
 10
560.083056
 20
235.200267
 11
560.137253
 21
235.041219
  0
LINE
  8
CSLAYER4
  6
CONTINUOUS
 62
     7
 10
560.137253
 20
235.041219
 11
560.195324
 21
234.883593
  0
LINE
  8
CSLAYER4
  6
CONTINUOUS
 62
     7
 10
560.195324
 20
234.883593
 11
560.257430
 21
234.727531
  0
LINE
  8
CSLAYER4
  6
CONTINUOUS
 62
     7
 10
560.257430
 20
234.727531
 11
560.323656
 21
234.573222
  0
LINE
  8
CSLAYER4
  6
CONTINUOUS
 62
     7
 10
560.323656
 20
234.573222
 11
560.394147
 21
234.420859
  0
LINE
  8
CSLAYER4
  6
CONTINUOUS
 62
     7
 10
560.394147
 20
234.420859
 11
560.469027
 21
234.270627
  0
ENDBLK
  8
0
  0
BLOCK
  8
CSLAYER1
  2
BLKF0008
 70
   64
 10
0.0
 20
0.0
 30
0.0
  0
LINE
  8
CSLAYER4
  6
CONTINUOUS
 62
     7
 10
596.181765
 20
233.001253
 11
596.315744
 21
232.962753
  0
LINE
  8
CSLAYER4
  6
CONTINUOUS
 62
     7
 10
596.315744
 20
232.962753
 11
596.450546
 21
232.928290
  0
LINE
  8
CSLAYER4
  6
CONTINUOUS
 62
     7
 10
596.450546
 20
232.928290
 11
596.586131
 21
232.898029
  0
LINE
  8
CSLAYER4
  6
CONTINUOUS
 62
     7
 10
596.586131
 20
232.898029
 11
596.722467
 21
232.872136
  0
LINE
  8
CSLAYER4
  6
CONTINUOUS
 62
     7
 10
596.722467
 20
232.872136
 11
596.859506
 21
232.850796
  0
LINE
  8
CSLAYER4
  6
CONTINUOUS
 62
     7
 10
596.859506
 20
232.850796
 11
596.997191
 21
232.834152
  0
LINE
  8
CSLAYER4
  6
CONTINUOUS
 62
     7
 10
596.997191
 20
232.834152
 11
597.135495
 21
232.822389
  0
LINE
  8
CSLAYER4
  6
CONTINUOUS
 62
     7
 10
597.135495
 20
232.822389
 11
597.274365
 21
232.815664
  0
LINE
  8
CSLAYER4
  6
CONTINUOUS
 62
     7
 10
597.274365
 20
232.815664
 11
597.413772
 21
232.814139
  0
LINE
  8
CSLAYER4
  6
CONTINUOUS
 62
     7
 10
597.413772
 20
232.814139
 11
597.552993
 21
232.817961
  0
LINE
  8
CSLAYER4
  6
CONTINUOUS
 62
     7
 10
597.552993
 20
232.817961
 11
597.691287
 21
232.827148
  0
LINE
  8
CSLAYER4
  6
CONTINUOUS
 62
     7
 10
597.691287
 20
232.827148
 11
597.828663
 21
232.841701
  0
LINE
  8
CSLAYER4
  6
CONTINUOUS
 62
     7
 10
597.828663
 20
232.841701
 11
597.965114
 21
232.861641
  0
LINE
  8
CSLAYER4
  6
CONTINUOUS
 62
     7
 10
597.965114
 20
232.861641
 11
598.100658
 21
232.886958
  0
LINE
  8
CSLAYER4
  6
CONTINUOUS
 62
     7
 10
598.100658
 20
232.886958
 11
598.235274
 21
232.917661
  0
LINE
  8
CSLAYER4
  6
CONTINUOUS
 62
     7
 10
598.235274
 20
232.917661
 11
598.368944
 21
232.953751
  0
LINE
  8
CSLAYER4
  6
CONTINUOUS
 62
     7
 10
598.368944
 20
232.953751
 11
598.501707
 21
232.995238
  0
LINE
  8
CSLAYER4
  6
CONTINUOUS
 62
     7
 10
598.501707
 20
232.995238
 11
598.633440
 21
233.042082
  0
LINE
  8
CSLAYER4
  6
CONTINUOUS
 62
     7
 10
598.633440
 20
233.042082
 11
598.763216
 21
233.093878
  0
LINE
  8
CSLAYER4
  6
CONTINUOUS
 62
     7
 10
598.763216
 20
233.093878
 11
598.890809
 21
233.150413
  0
LINE
  8
CSLAYER4
  6
CONTINUOUS
 62
     7
 10
598.890809
 20
233.150413
 11
599.016258
 21
233.211511
  0
LINE
  8
CSLAYER4
  6
CONTINUOUS
 62
     7
 10
599.016258
 20
233.211511
 11
599.139545
 21
233.277018
  0
LINE
  8
CSLAYER4
  6
CONTINUOUS
 62
     7
 10
599.139545
 20
233.277018
 11
599.260733
 21
233.346798
  0
LINE
  8
CSLAYER4
  6
CONTINUOUS
 62
     7
 10
599.260733
 20
233.346798
 11
599.379816
 21
233.420677
  0
LINE
  8
CSLAYER4
  6
CONTINUOUS
 62
     7
 10
599.379816
 20
233.420677
 11
599.430882
 21
233.454162
  0
LINE
  8
CSLAYER4
  6
CONTINUOUS
 62
     7
 10
599.430882
 20
233.454162
 11
599.480918
 21
233.488974
  0
LINE
  8
CSLAYER4
  6
CONTINUOUS
 62
     7
 10
599.480918
 20
233.488974
 11
599.529924
 21
233.525095
  0
LINE
  8
CSLAYER4
  6
CONTINUOUS
 62
     7
 10
599.529924
 20
233.525095
 11
599.577921
 21
233.562504
  0
LINE
  8
CSLAYER4
  6
CONTINUOUS
 62
     7
 10
599.577921
 20
233.562504
 11
599.624909
 21
233.601180
  0
LINE
  8
CSLAYER4
  6
CONTINUOUS
 62
     7
 10
599.624909
 20
233.601180
 11
599.670927
 21
233.641111
  0
LINE
  8
CSLAYER4
  6
CONTINUOUS
 62
     7
 10
599.670927
 20
233.641111
 11
599.715936
 21
233.682268
  0
LINE
  8
CSLAYER4
  6
CONTINUOUS
 62
     7
 10
599.715936
 20
233.682268
 11
599.759978
 21
233.724652
  0
LINE
  8
CSLAYER4
  6
CONTINUOUS
 62
     7
 10
599.759978
 20
233.724652
 11
599.803010
 21
233.768199
  0
LINE
  8
CSLAYER4
  6
CONTINUOUS
 62
     7
 10
599.803010
 20
233.768199
 11
599.844950
 21
233.812755
  0
LINE
  8
CSLAYER4
  6
CONTINUOUS
 62
     7
 10
599.844950
 20
233.812755
 11
599.885778
 21
233.858290
  0
LINE
  8
CSLAYER4
  6
CONTINUOUS
 62
     7
 10
599.885778
 20
233.858290
 11
599.925536
 21
233.904751
  0
LINE
  8
CSLAYER4
  6
CONTINUOUS
 62
     7
 10
599.925536
 20
233.904751
 11
599.964221
 21
233.952120
  0
LINE
  8
CSLAYER4
  6
CONTINUOUS
 62
     7
 10
599.964221
 20
233.952120
 11
600.001856
 21
234.000354
  0
LINE
  8
CSLAYER4
  6
CONTINUOUS
 62
     7
 10
600.001856
 20
234.000354
 11
600.038460
 21
234.049422
  0
LINE
  8
CSLAYER4
  6
CONTINUOUS
 62
     7
 10
600.038460
 20
234.049422
 11
600.074036
 21
234.099282
  0
LINE
  8
CSLAYER4
  6
CONTINUOUS
 62
     7
 10
600.074036
 20
234.099282
 11
600.108602
 21
234.149905
  0
LINE
  8
CSLAYER4
  6
CONTINUOUS
 62
     7
 10
600.108602
 20
234.149905
 11
600.142199
 21
234.201238
  0
LINE
  8
CSLAYER4
  6
CONTINUOUS
 62
     7
 10
600.142199
 20
234.201238
 11
600.174788
 21
234.253221
  0
LINE
  8
CSLAYER4
  6
CONTINUOUS
 62
     7
 10
600.174788
 20
234.253221
 11
600.206408
 21
234.305832
  0
LINE
  8
CSLAYER4
  6
CONTINUOUS
 62
     7
 10
600.206408
 20
234.305832
 11
600.237080
 21
234.359008
  0
LINE
  8
CSLAYER4
  6
CONTINUOUS
 62
     7
 10
600.237080
 20
234.359008
 11
600.266804
 21
234.412732
  0
LINE
  8
CSLAYER4
  6
CONTINUOUS
 62
     7
 10
600.266804
 20
234.412732
 11
600.295602
 21
234.466960
  0
LINE
  8
CSLAYER4
  6
CONTINUOUS
 62
     7
 10
600.295602
 20
234.466960
 11
600.323516
 21
234.521641
  0
LINE
  8
CSLAYER4
  6
CONTINUOUS
 62
     7
 10
600.323516
 20
234.521641
 11
600.352725
 21
234.582225
  0
LINE
  8
CSLAYER4
  6
CONTINUOUS
 62
     7
 10
600.352725
 20
234.582225
 11
600.380246
 21
234.643579
  0
LINE
  8
CSLAYER4
  6
CONTINUOUS
 62
     7
 10
600.380246
 20
234.643579
 11
600.406097
 21
234.705666
  0
LINE
  8
CSLAYER4
  6
CONTINUOUS
 62
     7
 10
600.406097
 20
234.705666
 11
600.430323
 21
234.768432
  0
LINE
  8
CSLAYER4
  6
CONTINUOUS
 62
     7
 10
600.430323
 20
234.768432
 11
600.452982
 21
234.831837
  0
LINE
  8
CSLAYER4
  6
CONTINUOUS
 62
     7
 10
600.452982
 20
234.831837
 11
600.474096
 21
234.895807
  0
LINE
  8
CSLAYER4
  6
CONTINUOUS
 62
     7
 10
600.474096
 20
234.895807
 11
600.493728
 21
234.960315
  0
LINE
  8
CSLAYER4
  6
CONTINUOUS
 62
     7
 10
600.493728
 20
234.960315
 11
600.511896
 21
235.025295
  0
LINE
  8
CSLAYER4
  6
CONTINUOUS
 62
     7
 10
600.511896
 20
235.025295
 11
600.528644
 21
235.090698
  0
LINE
  8
CSLAYER4
  6
CONTINUOUS
 62
     7
 10
600.528644
 20
235.090698
 11
600.544011
 21
235.156483
  0
LINE
  8
CSLAYER4
  6
CONTINUOUS
 62
     7
 10
600.544011
 20
235.156483
 11
600.558059
 21
235.222597
  0
LINE
  8
CSLAYER4
  6
CONTINUOUS
 62
     7
 10
600.558059
 20
235.222597
 11
600.570810
 21
235.288978
  0
LINE
  8
CSLAYER4
  6
CONTINUOUS
 62
     7
 10
600.570810
 20
235.288978
 11
600.582305
 21
235.355575
  0
LINE
  8
CSLAYER4
  6
CONTINUOUS
 62
     7
 10
600.582305
 20
235.355575
 11
600.592604
 21
235.422358
  0
LINE
  8
CSLAYER4
  6
CONTINUOUS
 62
     7
 10
600.592604
 20
235.422358
 11
600.601730
 21
235.489255
  0
LINE
  8
CSLAYER4
  6
CONTINUOUS
 62
     7
 10
600.601730
 20
235.489255
 11
600.609722
 21
235.556224
  0
LINE
  8
CSLAYER4
  6
CONTINUOUS
 62
     7
 10
600.609722
 20
235.556224
 11
600.616643
 21
235.623213
  0
LINE
  8
CSLAYER4
  6
CONTINUOUS
 62
     7
 10
600.616643
 20
235.623213
 11
600.622515
 21
235.690305
  0
LINE
  8
CSLAYER4
  6
CONTINUOUS
 62
     7
 10
600.622515
 20
235.690305
 11
600.627396
 21
235.757541
  0
LINE
  8
CSLAYER4
  6
CONTINUOUS
 62
     7
 10
600.627396
 20
235.757541
 11
600.631331
 21
235.824880
  0
LINE
  8
CSLAYER4
  6
CONTINUOUS
 62
     7
 10
600.631331
 20
235.824880
 11
600.634319
 21
235.892292
  0
LINE
  8
CSLAYER4
  6
CONTINUOUS
 62
     7
 10
600.634319
 20
235.892292
 11
600.636419
 21
235.959714
  0
LINE
  8
CSLAYER4
  6
CONTINUOUS
 62
     7
 10
600.636419
 20
235.959714
 11
600.637676
 21
236.027115
  0
LINE
  8
CSLAYER4
  6
CONTINUOUS
 62
     7
 10
600.637676
 20
236.027115
 11
600.638067
 21
236.094465
  0
LINE
  8
CSLAYER4
  6
CONTINUOUS
 62
     7
 10
600.638067
 20
236.094465
 11
600.637161
 21
236.178643
  0
LINE
  8
CSLAYER4
  6
CONTINUOUS
 62
     7
 10
600.637161
 20
236.178643
 11
600.634338
 21
236.262823
  0
LINE
  8
CSLAYER4
  6
CONTINUOUS
 62
     7
 10
600.634338
 20
236.262823
 11
600.629519
 21
236.346919
  0
LINE
  8
CSLAYER4
  6
CONTINUOUS
 62
     7
 10
600.629519
 20
236.346919
 11
600.622638
 21
236.430852
  0
LINE
  8
CSLAYER4
  6
CONTINUOUS
 62
     7
 10
600.622638
 20
236.430852
 11
600.613616
 21
236.514558
  0
LINE
  8
CSLAYER4
  6
CONTINUOUS
 62
     7
 10
600.613616
 20
236.514558
 11
600.602327
 21
236.597964
  0
LINE
  8
CSLAYER4
  6
CONTINUOUS
 62
     7
 10
600.602327
 20
236.597964
 11
600.588732
 21
236.680990
  0
LINE
  8
CSLAYER4
  6
CONTINUOUS
 62
     7
 10
600.588732
 20
236.680990
 11
600.572705
 21
236.763573
  0
LINE
  8
CSLAYER4
  6
CONTINUOUS
 62
     7
 10
600.572705
 20
236.763573
 11
600.554186
 21
236.845630
  0
LINE
  8
CSLAYER4
  6
CONTINUOUS
 62
     7
 10
600.554186
 20
236.845630
 11
600.533114
 21
236.927029
  0
LINE
  8
CSLAYER4
  6
CONTINUOUS
 62
     7
 10
600.533114
 20
236.927029
 11
600.509486
 21
237.007428
  0
LINE
  8
CSLAYER4
  6
CONTINUOUS
 62
     7
 10
600.509486
 20
237.007428
 11
600.483243
 21
237.086746
  0
LINE
  8
CSLAYER4
  6
CONTINUOUS
 62
     7
 10
600.483243
 20
237.086746
 11
600.454341
 21
237.164952
  0
LINE
  8
CSLAYER4
  6
CONTINUOUS
 62
     7
 10
600.454341
 20
237.164952
 11
600.422742
 21
237.242004
  0
LINE
  8
CSLAYER4
  6
CONTINUOUS
 62
     7
 10
600.422742
 20
237.242004
 11
600.388382
 21
237.317851
  0
LINE
  8
CSLAYER4
  6
CONTINUOUS
 62
     7
 10
600.388382
 20
237.317851
 11
600.351200
 21
237.392461
  0
LINE
  8
CSLAYER4
  6
CONTINUOUS
 62
     7
 10
600.351200
 20
237.392461
 11
600.311135
 21
237.465795
  0
LINE
  8
CSLAYER4
  6
CONTINUOUS
 62
     7
 10
600.311135
 20
237.465795
 11
600.268164
 21
237.537811
  0
LINE
  8
CSLAYER4
  6
CONTINUOUS
 62
     7
 10
600.268164
 20
237.537811
 11
600.222474
 21
237.608095
  0
LINE
  8
CSLAYER4
  6
CONTINUOUS
 62
     7
 10
600.222474
 20
237.608095
 11
600.174231
 21
237.676351
  0
LINE
  8
CSLAYER4
  6
CONTINUOUS
 62
     7
 10
600.174231
 20
237.676351
 11
600.123515
 21
237.742599
  0
LINE
  8
CSLAYER4
  6
CONTINUOUS
 62
     7
 10
600.123515
 20
237.742599
 11
600.070307
 21
237.806848
  0
LINE
  8
CSLAYER4
  6
CONTINUOUS
 62
     7
 10
600.070307
 20
237.806848
 11
600.014627
 21
237.869110
  0
LINE
  8
CSLAYER4
  6
CONTINUOUS
 62
     7
 10
600.014627
 20
237.869110
 11
599.956517
 21
237.929415
  0
LINE
  8
CSLAYER4
  6
CONTINUOUS
 62
     7
 10
599.956517
 20
237.929415
 11
599.916038
 21
237.969325
  0
LINE
  8
CSLAYER4
  6
CONTINUOUS
 62
     7
 10
599.916038
 20
237.969325
 11
599.875046
 21
238.008598
  0
LINE
  8
CSLAYER4
  6
CONTINUOUS
 62
     7
 10
599.875046
 20
238.008598
 11
599.833559
 21
238.047243
  0
LINE
  8
CSLAYER4
  6
CONTINUOUS
 62
     7
 10
599.833559
 20
238.047243
 11
599.791598
 21
238.085250
  0
LINE
  8
CSLAYER4
  6
CONTINUOUS
 62
     7
 10
599.791598
 20
238.085250
 11
599.749142
 21
238.122627
  0
LINE
  8
CSLAYER4
  6
CONTINUOUS
 62
     7
 10
599.749142
 20
238.122627
 11
599.706194
 21
238.159375
  0
LINE
  8
CSLAYER4
  6
CONTINUOUS
 62
     7
 10
599.706194
 20
238.159375
 11
599.662749
 21
238.195497
  0
LINE
  8
CSLAYER4
  6
CONTINUOUS
 62
     7
 10
599.662749
 20
238.195497
 11
599.618852
 21
238.231000
  0
LINE
  8
CSLAYER4
  6
CONTINUOUS
 62
     7
 10
599.618852
 20
238.231000
 11
599.574461
 21
238.265884
  0
LINE
  8
CSLAYER4
  6
CONTINUOUS
 62
     7
 10
599.574461
 20
238.265884
 11
599.529594
 21
238.300152
  0
LINE
  8
CSLAYER4
  6
CONTINUOUS
 62
     7
 10
599.529594
 20
238.300152
 11
599.484255
 21
238.333800
  0
LINE
  8
CSLAYER4
  6
CONTINUOUS
 62
     7
 10
599.484255
 20
238.333800
 11
599.438463
 21
238.366842
  0
LINE
  8
CSLAYER4
  6
CONTINUOUS
 62
     7
 10
599.438463
 20
238.366842
 11
599.392197
 21
238.399287
  0
LINE
  8
CSLAYER4
  6
CONTINUOUS
 62
     7
 10
599.392197
 20
238.399287
 11
599.345478
 21
238.431112
  0
LINE
  8
CSLAYER4
  6
CONTINUOUS
 62
     7
 10
599.345478
 20
238.431112
 11
599.298285
 21
238.462351
  0
LINE
  8
CSLAYER4
  6
CONTINUOUS
 62
     7
 10
599.298285
 20
238.462351
 11
599.250659
 21
238.492983
  0
LINE
  8
CSLAYER4
  6
CONTINUOUS
 62
     7
 10
599.250659
 20
238.492983
 11
599.202558
 21
238.523016
  0
LINE
  8
CSLAYER4
  6
CONTINUOUS
 62
     7
 10
599.202558
 20
238.523016
 11
599.154027
 21
238.552453
  0
LINE
  8
CSLAYER4
  6
CONTINUOUS
 62
     7
 10
599.154027
 20
238.552453
 11
599.105124
 21
238.581250
  0
LINE
  8
CSLAYER4
  6
CONTINUOUS
 62
     7
 10
599.105124
 20
238.581250
 11
599.055891
 21
238.609420
  0
LINE
  8
CSLAYER4
  6
CONTINUOUS
 62
     7
 10
599.055891
 20
238.609420
 11
599.006309
 21
238.636951
  0
LINE
  8
CSLAYER4
  6
CONTINUOUS
 62
     7
 10
599.006309
 20
238.636951
 11
598.956377
 21
238.663864
  0
LINE
  8
CSLAYER4
  6
CONTINUOUS
 62
     7
 10
598.956377
 20
238.663864
 11
598.906134
 21
238.690149
  0
LINE
  8
CSLAYER4
  6
CONTINUOUS
 62
     7
 10
598.906134
 20
238.690149
 11
598.855542
 21
238.715817
  0
LINE
  8
CSLAYER4
  6
CONTINUOUS
 62
     7
 10
597.073023
 20
239.502228
 11
598.855548
 21
238.715821
  0
LINE
  8
CSLAYER4
  6
CONTINUOUS
 62
     7
 10
597.073028
 20
239.502228
 11
597.034745
 21
239.517801
  0
LINE
  8
CSLAYER4
  6
CONTINUOUS
 62
     7
 10
597.034745
 20
239.517801
 11
596.996573
 21
239.533848
  0
LINE
  8
CSLAYER4
  6
CONTINUOUS
 62
     7
 10
596.996573
 20
239.533848
 11
596.958537
 21
239.550379
  0
LINE
  8
CSLAYER4
  6
CONTINUOUS
 62
     7
 10
596.958537
 20
239.550379
 11
596.920653
 21
239.567415
  0
LINE
  8
CSLAYER4
  6
CONTINUOUS
 62
     7
 10
596.920653
 20
239.567415
 11
596.882967
 21
239.584944
  0
LINE
  8
CSLAYER4
  6
CONTINUOUS
 62
     7
 10
596.882967
 20
239.584944
 11
596.845487
 21
239.603001
  0
LINE
  8
CSLAYER4
  6
CONTINUOUS
 62
     7
 10
596.845487
 20
239.603001
 11
596.808233
 21
239.621581
  0
LINE
  8
CSLAYER4
  6
CONTINUOUS
 62
     7
 10
596.808233
 20
239.621581
 11
596.771247
 21
239.640685
  0
LINE
  8
CSLAYER4
  6
CONTINUOUS
 62
     7
 10
596.771247
 20
239.640685
 11
596.734539
 21
239.660338
  0
LINE
  8
CSLAYER4
  6
CONTINUOUS
 62
     7
 10
596.734539
 20
239.660338
 11
596.698140
 21
239.680536
  0
LINE
  8
CSLAYER4
  6
CONTINUOUS
 62
     7
 10
596.698140
 20
239.680536
 11
596.662070
 21
239.701300
  0
LINE
  8
CSLAYER4
  6
CONTINUOUS
 62
     7
 10
596.662070
 20
239.701300
 11
596.626361
 21
239.722630
  0
LINE
  8
CSLAYER4
  6
CONTINUOUS
 62
     7
 10
596.626361
 20
239.722630
 11
596.591033
 21
239.744527
  0
LINE
  8
CSLAYER4
  6
CONTINUOUS
 62
     7
 10
596.591033
 20
239.744527
 11
596.556107
 21
239.767023
  0
LINE
  8
CSLAYER4
  6
CONTINUOUS
 62
     7
 10
596.556107
 20
239.767023
 11
596.521602
 21
239.790114
  0
LINE
  8
CSLAYER4
  6
CONTINUOUS
 62
     7
 10
596.521602
 20
239.790114
 11
596.487563
 21
239.813814
  0
LINE
  8
CSLAYER4
  6
CONTINUOUS
 62
     7
 10
596.487563
 20
239.813814
 11
596.453996
 21
239.838121
  0
LINE
  8
CSLAYER4
  6
CONTINUOUS
 62
     7
 10
596.453996
 20
239.838121
 11
596.420945
 21
239.863047
  0
LINE
  8
CSLAYER4
  6
CONTINUOUS
 62
     7
 10
596.420945
 20
239.863047
 11
596.388398
 21
239.888610
  0
LINE
  8
CSLAYER4
  6
CONTINUOUS
 62
     7
 10
596.388398
 20
239.888610
 11
596.356397
 21
239.914843
  0
LINE
  8
CSLAYER4
  6
CONTINUOUS
 62
     7
 10
596.356397
 20
239.914843
 11
596.324942
 21
239.941725
  0
LINE
  8
CSLAYER4
  6
CONTINUOUS
 62
     7
 10
596.324942
 20
239.941725
 11
596.294073
 21
239.969298
  0
LINE
  8
CSLAYER4
  6
CONTINUOUS
 62
     7
 10
596.294073
 20
239.969298
 11
596.263812
 21
239.997549
  0
LINE
  8
CSLAYER4
  6
CONTINUOUS
 62
     7
 10
596.263812
 20
239.997549
 11
596.234190
 21
240.026502
  0
LINE
  8
CSLAYER4
  6
CONTINUOUS
 62
     7
 10
596.234190
 20
240.026502
 11
596.210306
 21
240.051004
  0
LINE
  8
CSLAYER4
  6
CONTINUOUS
 62
     7
 10
596.210306
 20
240.051004
 11
596.187122
 21
240.076116
  0
LINE
  8
CSLAYER4
  6
CONTINUOUS
 62
     7
 10
596.187122
 20
240.076116
 11
596.164647
 21
240.101823
  0
LINE
  8
CSLAYER4
  6
CONTINUOUS
 62
     7
 10
596.164647
 20
240.101823
 11
596.142935
 21
240.128149
  0
LINE
  8
CSLAYER4
  6
CONTINUOUS
 62
     7
 10
596.142935
 20
240.128149
 11
596.122007
 21
240.155104
  0
LINE
  8
CSLAYER4
  6
CONTINUOUS
 62
     7
 10
596.122007
 20
240.155104
 11
596.101913
 21
240.182686
  0
LINE
  8
CSLAYER4
  6
CONTINUOUS
 62
     7
 10
596.101913
 20
240.182686
 11
596.082672
 21
240.210918
  0
LINE
  8
CSLAYER4
  6
CONTINUOUS
 62
     7
 10
596.082672
 20
240.210918
 11
596.064329
 21
240.239788
  0
LINE
  8
CSLAYER4
  6
CONTINUOUS
 62
     7
 10
596.064329
 20
240.239788
 11
596.046902
 21
240.269328
  0
LINE
  8
CSLAYER4
  6
CONTINUOUS
 62
     7
 10
596.046902
 20
240.269328
 11
596.030504
 21
240.299422
  0
LINE
  8
CSLAYER4
  6
CONTINUOUS
 62
     7
 10
596.030504
 20
240.299422
 11
596.015208
 21
240.329952
  0
LINE
  8
CSLAYER4
  6
CONTINUOUS
 62
     7
 10
596.015208
 20
240.329952
 11
596.001015
 21
240.360912
  0
LINE
  8
CSLAYER4
  6
CONTINUOUS
 62
     7
 10
596.001015
 20
240.360912
 11
595.987956
 21
240.392305
  0
LINE
  8
CSLAYER4
  6
CONTINUOUS
 62
     7
 10
595.987956
 20
240.392305
 11
595.976009
 21
240.424131
  0
LINE
  8
CSLAYER4
  6
CONTINUOUS
 62
     7
 10
595.976009
 20
240.424131
 11
595.965194
 21
240.456400
  0
LINE
  8
CSLAYER4
  6
CONTINUOUS
 62
     7
 10
595.965194
 20
240.456400
 11
595.955511
 21
240.489102
  0
LINE
  8
CSLAYER4
  6
CONTINUOUS
 62
     7
 10
595.955511
 20
240.489102
 11
595.946973
 21
240.522235
  0
LINE
  8
CSLAYER4
  6
CONTINUOUS
 62
     7
 10
595.946973
 20
240.522235
 11
595.939589
 21
240.555813
  0
LINE
  8
CSLAYER4
  6
CONTINUOUS
 62
     7
 10
595.939589
 20
240.555813
 11
595.933388
 21
240.589606
  0
LINE
  8
CSLAYER4
  6
CONTINUOUS
 62
     7
 10
595.933388
 20
240.589606
 11
595.928372
 21
240.623544
  0
LINE
  8
CSLAYER4
  6
CONTINUOUS
 62
     7
 10
595.928372
 20
240.623544
 11
595.924511
 21
240.657604
  0
LINE
  8
CSLAYER4
  6
CONTINUOUS
 62
     7
 10
595.924511
 20
240.657604
 11
595.921781
 21
240.691789
  0
LINE
  8
CSLAYER4
  6
CONTINUOUS
 62
     7
 10
595.921781
 20
240.691789
 11
595.920164
 21
240.726088
  0
LINE
  8
CSLAYER4
  6
CONTINUOUS
 62
     7
 10
595.920164
 20
240.726088
 11
595.919628
 21
240.760479
  0
LINE
  8
CSLAYER4
  6
CONTINUOUS
 62
     7
 10
595.919628
 20
240.760479
 11
595.920257
 21
240.817930
  0
LINE
  8
CSLAYER4
  6
CONTINUOUS
 62
     7
 10
595.920257
 20
240.817930
 11
595.922193
 21
240.875526
  0
LINE
  8
CSLAYER4
  6
CONTINUOUS
 62
     7
 10
595.922193
 20
240.875526
 11
595.925531
 21
240.933162
  0
LINE
  8
CSLAYER4
  6
CONTINUOUS
 62
     7
 10
595.925531
 20
240.933162
 11
595.930350
 21
240.990748
  0
LINE
  8
CSLAYER4
  6
CONTINUOUS
 62
     7
 10
595.930350
 20
240.990748
 11
595.936746
 21
241.048189
  0
LINE
  8
CSLAYER4
  6
CONTINUOUS
 62
     7
 10
595.936746
 20
241.048189
 11
595.944791
 21
241.105372
  0
LINE
  8
CSLAYER4
  6
CONTINUOUS
 62
     7
 10
595.944791
 20
241.105372
 11
595.954584
 21
241.162228
  0
LINE
  8
CSLAYER4
  6
CONTINUOUS
 62
     7
 10
595.954584
 20
241.162228
 11
595.966214
 21
241.218649
  0
LINE
  8
CSLAYER4
  6
CONTINUOUS
 62
     7
 10
595.966214
 20
241.218649
 11
595.979757
 21
241.274526
  0
LINE
  8
CSLAYER4
  6
CONTINUOUS
 62
     7
 10
595.979757
 20
241.274526
 11
595.995300
 21
241.329772
  0
LINE
  8
CSLAYER4
  6
CONTINUOUS
 62
     7
 10
595.995300
 20
241.329772
 11
596.012922
 21
241.384227
  0
LINE
  8
CSLAYER4
  6
CONTINUOUS
 62
     7
 10
596.012922
 20
241.384227
 11
596.032626
 21
241.437661
  0
LINE
  8
CSLAYER4
  6
CONTINUOUS
 62
     7
 10
596.032626
 20
241.437661
 11
596.054492
 21
241.490005
  0
LINE
  8
CSLAYER4
  6
CONTINUOUS
 62
     7
 10
596.054492
 20
241.490005
 11
596.078583
 21
241.541194
  0
LINE
  8
CSLAYER4
  6
CONTINUOUS
 62
     7
 10
596.078583
 20
241.541194
 11
596.104961
 21
241.591168
  0
LINE
  8
CSLAYER4
  6
CONTINUOUS
 62
     7
 10
596.104961
 20
241.591168
 11
596.133696
 21
241.639834
  0
LINE
  8
CSLAYER4
  6
CONTINUOUS
 62
     7
 10
596.133696
 20
241.639834
 11
596.164842
 21
241.687161
  0
LINE
  8
CSLAYER4
  6
CONTINUOUS
 62
     7
 10
596.164842
 20
241.687161
 11
596.198481
 21
241.733056
  0
LINE
  8
CSLAYER4
  6
CONTINUOUS
 62
     7
 10
596.198481
 20
241.733056
 11
596.234469
 21
241.777212
  0
LINE
  8
CSLAYER4
  6
CONTINUOUS
 62
     7
 10
596.234469
 20
241.777212
 11
596.272454
 21
241.819234
  0
LINE
  8
CSLAYER4
  6
CONTINUOUS
 62
     7
 10
596.272454
 20
241.819234
 11
596.312427
 21
241.859125
  0
LINE
  8
CSLAYER4
  6
CONTINUOUS
 62
     7
 10
596.312427
 20
241.859125
 11
596.354346
 21
241.896913
  0
LINE
  8
CSLAYER4
  6
CONTINUOUS
 62
     7
 10
596.354346
 20
241.896913
 11
596.398182
 21
241.932633
  0
LINE
  8
CSLAYER4
  6
CONTINUOUS
 62
     7
 10
596.398182
 20
241.932633
 11
596.443902
 21
241.966303
  0
LINE
  8
CSLAYER4
  6
CONTINUOUS
 62
     7
 10
596.443902
 20
241.966303
 11
596.486007
 21
241.994740
  0
LINE
  8
CSLAYER4
  6
CONTINUOUS
 62
     7
 10
596.486007
 20
241.994740
 11
596.528916
 21
242.021613
  0
LINE
  8
CSLAYER4
  6
CONTINUOUS
 62
     7
 10
596.528916
 20
242.021613
 11
596.572628
 21
242.046847
  0
LINE
  8
CSLAYER4
  6
CONTINUOUS
 62
     7
 10
596.572628
 20
242.046847
 11
596.617143
 21
242.070391
  0
LINE
  8
CSLAYER4
  6
CONTINUOUS
 62
     7
 10
596.617143
 20
242.070391
 11
596.662493
 21
242.092186
  0
LINE
  8
CSLAYER4
  6
CONTINUOUS
 62
     7
 10
596.662493
 20
242.092186
 11
596.708666
 21
242.112157
  0
LINE
  8
CSLAYER4
  6
CONTINUOUS
 62
     7
 10
596.708666
 20
242.112157
 11
596.755674
 21
242.130253
  0
LINE
  8
CSLAYER4
  6
CONTINUOUS
 62
     7
 10
596.755674
 20
242.130253
 11
596.803517
 21
242.146404
  0
LINE
  8
CSLAYER4
  6
CONTINUOUS
 62
     7
 10
596.803517
 20
242.146404
 11
596.852202
 21
242.160544
  0
LINE
  8
CSLAYER4
  6
CONTINUOUS
 62
     7
 10
596.852202
 20
242.160544
 11
596.901321
 21
242.172523
  0
LINE
  8
CSLAYER4
  6
CONTINUOUS
 62
     7
 10
596.901321
 20
242.172523
 11
596.950637
 21
242.182297
  0
LINE
  8
CSLAYER4
  6
CONTINUOUS
 62
     7
 10
596.950637
 20
242.182297
 11
597.000147
 21
242.189889
  0
LINE
  8
CSLAYER4
  6
CONTINUOUS
 62
     7
 10
597.000147
 20
242.189889
 11
597.049844
 21
242.195326
  0
LINE
  8
CSLAYER4
  6
CONTINUOUS
 62
     7
 10
597.049844
 20
242.195326
 11
597.099735
 21
242.198634
  0
LINE
  8
CSLAYER4
  6
CONTINUOUS
 62
     7
 10
597.099735
 20
242.198634
 11
597.149801
 21
242.199838
  0
LINE
  8
CSLAYER4
  6
CONTINUOUS
 62
     7
 10
597.149801
 20
242.199838
 11
597.200054
 21
242.198962
  0
LINE
  8
CSLAYER4
  6
CONTINUOUS
 62
     7
 10
597.200054
 20
242.198962
 11
597.250470
 21
242.196027
  0
LINE
  8
CSLAYER4
  6
CONTINUOUS
 62
     7
 10
597.250470
 20
242.196027
 11
597.300969
 21
242.191074
  0
LINE
  8
CSLAYER4
  6
CONTINUOUS
 62
     7
 10
597.300969
 20
242.191074
 11
597.351222
 21
242.184193
  0
LINE
  8
CSLAYER4
  6
CONTINUOUS
 62
     7
 10
597.351222
 20
242.184193
 11
597.401154
 21
242.175448
  0
LINE
  8
CSLAYER4
  6
CONTINUOUS
 62
     7
 10
597.401154
 20
242.175448
 11
597.450747
 21
242.164942
  0
LINE
  8
CSLAYER4
  6
CONTINUOUS
 62
     7
 10
597.450747
 20
242.164942
 11
597.499980
 21
242.152738
  0
LINE
  8
CSLAYER4
  6
CONTINUOUS
 62
     7
 10
597.499980
 20
242.152738
 11
597.548843
 21
242.138926
  0
LINE
  8
CSLAYER4
  6
CONTINUOUS
 62
     7
 10
597.548843
 20
242.138926
 11
597.597291
 21
242.123590
  0
LINE
  8
CSLAYER4
  6
CONTINUOUS
 62
     7
 10
597.597291
 20
242.123590
 11
597.684663
 21
242.093308
  0
LINE
  8
CSLAYER4
  6
CONTINUOUS
 62
     7
 10
597.684663
 20
242.093308
 11
597.769904
 21
242.058196
  0
LINE
  8
CSLAYER4
  6
CONTINUOUS
 62
     7
 10
597.769904
 20
242.058196
 11
597.852890
 21
242.018080
  0
LINE
  8
CSLAYER4
  6
CONTINUOUS
 62
     7
 10
597.852890
 20
242.018080
 11
597.933515
 21
241.972813
  0
LINE
  8
CSLAYER4
  6
CONTINUOUS
 62
     7
 10
597.933515
 20
241.972813
 11
598.011318
 21
241.922446
  0
LINE
  8
CSLAYER4
  6
CONTINUOUS
 62
     7
 10
598.011318
 20
241.922446
 11
598.085496
 21
241.867477
  0
LINE
  8
CSLAYER4
  6
CONTINUOUS
 62
     7
 10
598.085496
 20
241.867477
 11
598.155987
 21
241.807996
  0
LINE
  8
CSLAYER4
  6
CONTINUOUS
 62
     7
 10
598.155987
 20
241.807996
 11
598.222874
 21
241.744066
  0
LINE
  8
CSLAYER4
  6
CONTINUOUS
 62
     7
 10
598.222874
 20
241.744066
 11
598.286052
 21
241.675852
  0
LINE
  8
CSLAYER4
  6
CONTINUOUS
 62
     7
 10
598.286052
 20
241.675852
 11
598.345007
 21
241.604218
  0
LINE
  8
CSLAYER4
  6
CONTINUOUS
 62
     7
 10
598.345007
 20
241.604218
 11
598.399761
 21
241.529535
  0
LINE
  8
CSLAYER4
  6
CONTINUOUS
 62
     7
 10
598.399761
 20
241.529535
 11
598.450497
 21
241.452061
  0
LINE
  8
CSLAYER4
  6
CONTINUOUS
 62
     7
 10
598.450497
 20
241.452061
 11
598.497339
 21
241.372083
  0
LINE
  8
CSLAYER4
  6
CONTINUOUS
 62
     7
 10
598.497339
 20
241.372083
 11
598.540475
 21
241.289851
  0
LINE
  8
CSLAYER4
  6
CONTINUOUS
 62
     7
 10
598.540475
 20
241.289851
 11
598.580046
 21
241.205641
  0
LINE
  8
CSLAYER4
  6
CONTINUOUS
 62
     7
 10
598.580046
 20
241.205641
 11
598.616219
 21
241.119711
  0
LINE
  8
CSLAYER4
  6
CONTINUOUS
 62
     7
 10
598.616219
 20
241.119711
 11
598.649157
 21
241.032318
  0
LINE
  8
CSLAYER4
  6
CONTINUOUS
 62
     7
 10
598.649157
 20
241.032318
 11
598.679088
 21
240.943503
  0
LINE
  8
CSLAYER4
  6
CONTINUOUS
 62
     7
 10
598.679088
 20
240.943503
 11
598.706135
 21
240.853474
  0
LINE
  8
CSLAYER4
  6
CONTINUOUS
 62
     7
 10
598.706135
 20
240.853474
 11
598.730442
 21
240.762456
  0
LINE
  8
CSLAYER4
  6
CONTINUOUS
 62
     7
 10
598.730442
 20
240.762456
 11
598.752174
 21
240.670716
  0
LINE
  8
CSLAYER4
  6
CONTINUOUS
 62
     7
 10
598.752174
 20
240.670716
 11
598.771436
 21
240.578472
  0
LINE
  8
CSLAYER4
  6
CONTINUOUS
 62
     7
 10
598.771436
 20
240.578472
 11
598.788368
 21
240.485982
  0
LINE
  8
CSLAYER4
  6
CONTINUOUS
 62
     7
 10
598.788368
 20
240.485982
 11
598.803117
 21
240.393490
  0
LINE
  8
CSLAYER4
  6
CONTINUOUS
 62
     7
 10
600.375936
 20
240.393490
 11
598.803120
 21
240.393490
  0
LINE
  8
CSLAYER4
  6
CONTINUOUS
 62
     7
 10
600.375941
 20
240.393490
 11
600.371078
 21
240.503347
  0
LINE
  8
CSLAYER4
  6
CONTINUOUS
 62
     7
 10
600.371078
 20
240.503347
 11
600.364013
 21
240.613171
  0
LINE
  8
CSLAYER4
  6
CONTINUOUS
 62
     7
 10
600.364013
 20
240.613171
 11
600.354641
 21
240.722874
  0
LINE
  8
CSLAYER4
  6
CONTINUOUS
 62
     7
 10
600.354641
 20
240.722874
 11
600.342878
 21
240.832360
  0
LINE
  8
CSLAYER4
  6
CONTINUOUS
 62
     7
 10
600.342878
 20
240.832360
 11
600.328623
 21
240.941536
  0
LINE
  8
CSLAYER4
  6
CONTINUOUS
 62
     7
 10
600.328623
 20
240.941536
 11
600.311772
 21
241.050301
  0
LINE
  8
CSLAYER4
  6
CONTINUOUS
 62
     7
 10
600.311772
 20
241.050301
 11
600.292245
 21
241.158571
  0
LINE
  8
CSLAYER4
  6
CONTINUOUS
 62
     7
 10
600.292245
 20
241.158571
 11
600.269957
 21
241.266255
  0
LINE
  8
CSLAYER4
  6
CONTINUOUS
 62
     7
 10
600.269957
 20
241.266255
 11
600.244763
 21
241.373238
  0
LINE
  8
CSLAYER4
  6
CONTINUOUS
 62
     7
 10
600.244763
 20
241.373238
 11
600.216645
 21
241.479406
  0
LINE
  8
CSLAYER4
  6
CONTINUOUS
 62
     7
 10
600.216645
 20
241.479406
 11
600.185499
 21
241.584483
  0
LINE
  8
CSLAYER4
  6
CONTINUOUS
 62
     7
 10
600.185499
 20
241.584483
 11
600.151325
 21
241.688356
  0
LINE
  8
CSLAYER4
  6
CONTINUOUS
 62
     7
 10
600.151325
 20
241.688356
 11
600.113999
 21
241.790971
  0
LINE
  8
CSLAYER4
  6
CONTINUOUS
 62
     7
 10
600.113999
 20
241.790971
 11
600.073460
 21
241.892238
  0
LINE
  8
CSLAYER4
  6
CONTINUOUS
 62
     7
 10
600.073460
 20
241.892238
 11
600.029624
 21
241.992093
  0
LINE
  8
CSLAYER4
  6
CONTINUOUS
 62
     7
 10
600.029624
 20
241.992093
 11
599.982431
 21
242.090466
  0
LINE
  8
CSLAYER4
  6
CONTINUOUS
 62
     7
 10
599.982431
 20
242.090466
 11
599.931797
 21
242.187294
  0
LINE
  8
CSLAYER4
  6
CONTINUOUS
 62
     7
 10
599.931797
 20
242.187294
 11
599.877642
 21
242.282503
  0
LINE
  8
CSLAYER4
  6
CONTINUOUS
 62
     7
 10
599.877642
 20
242.282503
 11
599.820107
 21
242.375695
  0
LINE
  8
CSLAYER4
  6
CONTINUOUS
 62
     7
 10
599.820107
 20
242.375695
 11
599.759402
 21
242.466466
  0
LINE
  8
CSLAYER4
  6
CONTINUOUS
 62
     7
 10
599.759402
 20
242.466466
 11
599.695502
 21
242.554807
  0
LINE
  8
CSLAYER4
  6
CONTINUOUS
 62
     7
 10
599.695502
 20
242.554807
 11
599.628410
 21
242.640696
  0
LINE
  8
CSLAYER4
  6
CONTINUOUS
 62
     7
 10
599.628410
 20
242.640696
 11
599.558145
 21
242.724144
  0
LINE
  8
CSLAYER4
  6
CONTINUOUS
 62
     7
 10
599.558145
 20
242.724144
 11
599.484668
 21
242.805139
  0
LINE
  8
CSLAYER4
  6
CONTINUOUS
 62
     7
 10
599.484668
 20
242.805139
 11
599.410365
 21
242.885323
  0
LINE
  8
CSLAYER4
  6
CONTINUOUS
 62
     7
 10
599.410365
 20
242.885323
 11
599.333859
 21
242.963044
  0
LINE
  8
CSLAYER4
  6
CONTINUOUS
 62
     7
 10
599.333859
 20
242.963044
 11
599.255129
 21
243.038191
  0
LINE
  8
CSLAYER4
  6
CONTINUOUS
 62
     7
 10
599.255129
 20
243.038191
 11
599.174112
 21
243.110619
  0
LINE
  8
CSLAYER4
  6
CONTINUOUS
 62
     7
 10
599.174112
 20
243.110619
 11
599.090808
 21
243.180204
  0
LINE
  8
CSLAYER4
  6
CONTINUOUS
 62
     7
 10
599.090808
 20
243.180204
 11
599.005155
 21
243.246822
  0
LINE
  8
CSLAYER4
  6
CONTINUOUS
 62
     7
 10
599.005155
 20
243.246822
 11
598.917093
 21
243.310339
  0
LINE
  8
CSLAYER4
  6
CONTINUOUS
 62
     7
 10
598.917093
 20
243.310339
 11
598.826642
 21
243.370623
  0
LINE
  8
CSLAYER4
  6
CONTINUOUS
 62
     7
 10
598.826642
 20
243.370623
 11
598.733697
 21
243.427551
  0
LINE
  8
CSLAYER4
  6
CONTINUOUS
 62
     7
 10
598.733697
 20
243.427551
 11
598.638776
 21
243.480706
  0
LINE
  8
CSLAYER4
  6
CONTINUOUS
 62
     7
 10
598.638776
 20
243.480706
 11
598.542371
 21
243.529795
  0
LINE
  8
CSLAYER4
  6
CONTINUOUS
 62
     7
 10
598.542371
 20
243.529795
 11
598.444482
 21
243.574825
  0
LINE
  8
CSLAYER4
  6
CONTINUOUS
 62
     7
 10
598.444482
 20
243.574825
 11
598.345091
 21
243.615787
  0
LINE
  8
CSLAYER4
  6
CONTINUOUS
 62
     7
 10
598.345091
 20
243.615787
 11
598.244214
 21
243.652701
  0
LINE
  8
CSLAYER4
  6
CONTINUOUS
 62
     7
 10
598.244214
 20
243.652701
 11
598.141857
 21
243.685567
  0
LINE
  8
CSLAYER4
  6
CONTINUOUS
 62
     7
 10
598.141857
 20
243.685567
 11
598.038036
 21
243.714385
  0
LINE
  8
CSLAYER4
  6
CONTINUOUS
 62
     7
 10
598.038036
 20
243.714385
 11
597.932711
 21
243.739177
  0
LINE
  8
CSLAYER4
  6
CONTINUOUS
 62
     7
 10
597.932711
 20
243.739177
 11
597.826017
 21
243.759921
  0
LINE
  8
CSLAYER4
  6
CONTINUOUS
 62
     7
 10
597.826017
 20
243.759921
 11
597.718725
 21
243.776535
  0
LINE
  8
CSLAYER4
  6
CONTINUOUS
 62
     7
 10
597.718725
 20
243.776535
 11
597.611073
 21
243.789100
  0
LINE
  8
CSLAYER4
  6
CONTINUOUS
 62
     7
 10
597.611073
 20
243.789100
 11
597.503102
 21
243.797731
  0
LINE
  8
CSLAYER4
  6
CONTINUOUS
 62
     7
 10
597.503102
 20
243.797731
 11
597.394872
 21
243.802561
  0
LINE
  8
CSLAYER4
  6
CONTINUOUS
 62
     7
 10
597.394872
 20
243.802561
 11
597.286448
 21
243.803694
  0
LINE
  8
CSLAYER4
  6
CONTINUOUS
 62
     7
 10
597.286448
 20
243.803694
 11
597.177878
 21
243.801253
  0
LINE
  8
CSLAYER4
  6
CONTINUOUS
 62
     7
 10
597.177878
 20
243.801253
 11
597.063707
 21
243.795187
  0
LINE
  8
CSLAYER4
  6
CONTINUOUS
 62
     7
 10
597.063707
 20
243.795187
 11
596.950194
 21
243.785392
  0
LINE
  8
CSLAYER4
  6
CONTINUOUS
 62
     7
 10
596.950194
 20
243.785392
 11
596.837361
 21
243.771786
  0
LINE
  8
CSLAYER4
  6
CONTINUOUS
 62
     7
 10
596.837361
 20
243.771786
 11
596.725269
 21
243.754276
  0
LINE
  8
CSLAYER4
  6
CONTINUOUS
 62
     7
 10
596.725269
 20
243.754276
 11
596.613950
 21
243.732781
  0
LINE
  8
CSLAYER4
  6
CONTINUOUS
 62
     7
 10
596.613950
 20
243.732781
 11
596.503455
 21
243.707208
  0
LINE
  8
CSLAYER4
  6
CONTINUOUS
 62
     7
 10
596.503455
 20
243.707208
 11
596.393825
 21
243.677461
  0
LINE
  8
CSLAYER4
  6
CONTINUOUS
 62
     7
 10
596.393825
 20
243.677461
 11
596.285102
 21
243.643473
  0
LINE
  8
CSLAYER4
  6
CONTINUOUS
 62
     7
 10
596.285102
 20
243.643473
 11
596.177357
 21
243.605148
  0
LINE
  8
CSLAYER4
  6
CONTINUOUS
 62
     7
 10
596.177357
 20
243.605148
 11
596.071404
 21
243.562734
  0
LINE
  8
CSLAYER4
  6
CONTINUOUS
 62
     7
 10
596.071404
 20
243.562734
 11
595.967625
 21
243.516405
  0
LINE
  8
CSLAYER4
  6
CONTINUOUS
 62
     7
 10
595.967625
 20
243.516405
 11
595.865978
 21
243.466215
  0
LINE
  8
CSLAYER4
  6
CONTINUOUS
 62
     7
 10
595.865978
 20
243.466215
 11
595.766441
 21
243.412203
  0
LINE
  8
CSLAYER4
  6
CONTINUOUS
 62
     7
 10
595.766441
 20
243.412203
 11
595.669016
 21
243.354423
  0
LINE
  8
CSLAYER4
  6
CONTINUOUS
 62
     7
 10
595.669016
 20
243.354423
 11
595.573671
 21
243.292933
  0
LINE
  8
CSLAYER4
  6
CONTINUOUS
 62
     7
 10
595.573671
 20
243.292933
 11
595.480388
 21
243.227757
  0
LINE
  8
CSLAYER4
  6
CONTINUOUS
 62
     7
 10
595.480388
 20
243.227757
 11
595.389143
 21
243.158965
  0
LINE
  8
CSLAYER4
  6
CONTINUOUS
 62
     7
 10
595.389143
 20
243.158965
 11
595.300031
 21
243.086682
  0
LINE
  8
CSLAYER4
  6
CONTINUOUS
 62
     7
 10
595.300031
 20
243.086682
 11
595.213493
 21
243.011391
  0
LINE
  8
CSLAYER4
  6
CONTINUOUS
 62
     7
 10
595.213493
 20
243.011391
 11
595.129529
 21
242.933278
  0
LINE
  8
CSLAYER4
  6
CONTINUOUS
 62
     7
 10
595.129529
 20
242.933278
 11
595.048121
 21
242.852488
  0
LINE
  8
CSLAYER4
  6
CONTINUOUS
 62
     7
 10
595.048121
 20
242.852488
 11
594.969194
 21
242.769163
  0
LINE
  8
CSLAYER4
  6
CONTINUOUS
 62
     7
 10
594.969194
 20
242.769163
 11
594.892728
 21
242.683429
  0
LINE
  8
CSLAYER4
  6
CONTINUOUS
 62
     7
 10
594.892728
 20
242.683429
 11
594.818654
 21
242.595429
  0
LINE
  8
CSLAYER4
  6
CONTINUOUS
 62
     7
 10
594.818654
 20
242.595429
 11
594.766538
 21
242.523876
  0
LINE
  8
CSLAYER4
  6
CONTINUOUS
 62
     7
 10
594.766538
 20
242.523876
 11
594.716574
 21
242.451037
  0
LINE
  8
CSLAYER4
  6
CONTINUOUS
 62
     7
 10
594.716574
 20
242.451037
 11
594.668772
 21
242.376931
  0
LINE
  8
CSLAYER4
  6
CONTINUOUS
 62
     7
 10
594.668772
 20
242.376931
 11
594.623165
 21
242.301537
  0
LINE
  8
CSLAYER4
  6
CONTINUOUS
 62
     7
 10
594.623165
 20
242.301537
 11
594.579762
 21
242.224855
  0
LINE
  8
CSLAYER4
  6
CONTINUOUS
 62
     7
 10
594.579762
 20
242.224855
 11
594.538565
 21
242.146878
  0
LINE
  8
CSLAYER4
  6
CONTINUOUS
 62
     7
 10
594.538565
 20
242.146878
 11
594.499590
 21
242.067601
  0
LINE
  8
CSLAYER4
  6
CONTINUOUS
 62
     7
 10
594.499590
 20
242.067601
 11
594.462851
 21
241.987006
  0
LINE
  8
CSLAYER4
  6
CONTINUOUS
 62
     7
 10
594.462851
 20
241.987006
 11
594.428378
 21
241.905144
  0
LINE
  8
CSLAYER4
  6
CONTINUOUS
 62
     7
 10
594.428378
 20
241.905144
 11
594.396347
 21
241.822407
  0
LINE
  8
CSLAYER4
  6
CONTINUOUS
 62
     7
 10
594.396347
 20
241.822407
 11
594.366755
 21
241.738938
  0
LINE
  8
CSLAYER4
  6
CONTINUOUS
 62
     7
 10
594.366755
 20
241.738938
 11
594.339584
 21
241.654758
  0
LINE
  8
CSLAYER4
  6
CONTINUOUS
 62
     7
 10
594.339584
 20
241.654758
 11
594.314783
 21
241.569879
  0
LINE
  8
CSLAYER4
  6
CONTINUOUS
 62
     7
 10
594.314783
 20
241.569879
 11
594.292340
 21
241.484308
  0
LINE
  8
CSLAYER4
  6
CONTINUOUS
 62
     7
 10
594.292340
 20
241.484308
 11
594.272204
 21
241.398091
  0
LINE
  8
CSLAYER4
  6
CONTINUOUS
 62
     7
 10
594.272204
 20
241.398091
 11
594.254345
 21
241.311223
  0
LINE
  8
CSLAYER4
  6
CONTINUOUS
 62
     7
 10
594.254345
 20
241.311223
 11
594.238740
 21
241.223737
  0
LINE
  8
CSLAYER4
  6
CONTINUOUS
 62
     7
 10
594.238740
 20
241.223737
 11
594.225351
 21
241.135705
  0
LINE
  8
CSLAYER4
  6
CONTINUOUS
 62
     7
 10
594.225351
 20
241.135705
 11
594.214166
 21
241.047397
  0
LINE
  8
CSLAYER4
  6
CONTINUOUS
 62
     7
 10
594.214166
 20
241.047397
 11
594.205143
 21
240.958860
  0
LINE
  8
CSLAYER4
  6
CONTINUOUS
 62
     7
 10
594.205143
 20
240.958860
 11
594.198233
 21
240.870139
  0
LINE
  8
CSLAYER4
  6
CONTINUOUS
 62
     7
 10
594.198233
 20
240.870139
 11
594.193359
 21
240.781263
  0
LINE
  8
CSLAYER4
  6
CONTINUOUS
 62
     7
 10
594.193359
 20
240.781263
 11
594.190476
 21
240.692274
  0
LINE
  8
CSLAYER4
  6
CONTINUOUS
 62
     7
 10
594.190476
 20
240.692274
 11
594.189528
 21
240.603202
  0
LINE
  8
CSLAYER4
  6
CONTINUOUS
 62
     7
 10
594.189528
 20
240.603202
 11
594.190413
 21
240.516840
  0
LINE
  8
CSLAYER4
  6
CONTINUOUS
 62
     7
 10
594.190413
 20
240.516840
 11
594.193143
 21
240.430435
  0
LINE
  8
CSLAYER4
  6
CONTINUOUS
 62
     7
 10
594.193143
 20
240.430435
 11
594.197789
 21
240.344052
  0
LINE
  8
CSLAYER4
  6
CONTINUOUS
 62
     7
 10
594.197789
 20
240.344052
 11
594.204453
 21
240.257802
  0
LINE
  8
CSLAYER4
  6
CONTINUOUS
 62
     7
 10
594.204453
 20
240.257802
 11
594.213228
 21
240.171748
  0
LINE
  8
CSLAYER4
  6
CONTINUOUS
 62
     7
 10
594.213228
 20
240.171748
 11
594.224198
 21
240.085993
  0
LINE
  8
CSLAYER4
  6
CONTINUOUS
 62
     7
 10
594.224198
 20
240.085993
 11
594.237443
 21
240.000609
  0
LINE
  8
CSLAYER4
  6
CONTINUOUS
 62
     7
 10
594.237443
 20
240.000609
 11
594.253077
 21
239.915688
  0
LINE
  8
CSLAYER4
  6
CONTINUOUS
 62
     7
 10
594.253077
 20
239.915688
 11
594.271175
 21
239.831313
  0
LINE
  8
CSLAYER4
  6
CONTINUOUS
 62
     7
 10
594.271175
 20
239.831313
 11
594.291815
 21
239.747596
  0
LINE
  8
CSLAYER4
  6
CONTINUOUS
 62
     7
 10
594.291815
 20
239.747596
 11
594.315041
 21
239.664840
  0
LINE
  8
CSLAYER4
  6
CONTINUOUS
 62
     7
 10
594.315041
 20
239.664840
 11
594.340893
 21
239.583121
  0
LINE
  8
CSLAYER4
  6
CONTINUOUS
 62
     7
 10
594.340893
 20
239.583121
 11
594.369444
 21
239.502516
  0
LINE
  8
CSLAYER4
  6
CONTINUOUS
 62
     7
 10
594.369444
 20
239.502516
 11
594.400764
 21
239.423074
  0
LINE
  8
CSLAYER4
  6
CONTINUOUS
 62
     7
 10
594.400764
 20
239.423074
 11
594.434928
 21
239.344858
  0
LINE
  8
CSLAYER4
  6
CONTINUOUS
 62
     7
 10
594.434928
 20
239.344858
 11
594.471987
 21
239.267931
  0
LINE
  8
CSLAYER4
  6
CONTINUOUS
 62
     7
 10
594.471987
 20
239.267931
 11
594.512033
 21
239.192341
  0
LINE
  8
CSLAYER4
  6
CONTINUOUS
 62
     7
 10
594.512033
 20
239.192341
 11
594.555105
 21
239.118142
  0
LINE
  8
CSLAYER4
  6
CONTINUOUS
 62
     7
 10
594.555105
 20
239.118142
 11
594.601104
 21
239.045704
  0
LINE
  8
CSLAYER4
  6
CONTINUOUS
 62
     7
 10
594.601104
 20
239.045704
 11
594.649781
 21
238.975431
  0
LINE
  8
CSLAYER4
  6
CONTINUOUS
 62
     7
 10
594.649781
 20
238.975431
 11
594.701124
 21
238.907307
  0
LINE
  8
CSLAYER4
  6
CONTINUOUS
 62
     7
 10
594.701124
 20
238.907307
 11
594.755126
 21
238.841338
  0
LINE
  8
CSLAYER4
  6
CONTINUOUS
 62
     7
 10
594.755126
 20
238.841338
 11
594.811784
 21
238.777512
  0
LINE
  8
CSLAYER4
  6
CONTINUOUS
 62
     7
 10
594.811784
 20
238.777512
 11
594.871079
 21
238.715817
  0
LINE
  8
CSLAYER4
  6
CONTINUOUS
 62
     7
 10
594.871079
 20
238.715817
 11
594.905655
 21
238.681600
  0
LINE
  8
CSLAYER4
  6
CONTINUOUS
 62
     7
 10
594.905655
 20
238.681600
 11
594.940664
 21
238.647663
  0
LINE
  8
CSLAYER4
  6
CONTINUOUS
 62
     7
 10
594.940664
 20
238.647663
 11
594.976095
 21
238.614055
  0
LINE
  8
CSLAYER4
  6
CONTINUOUS
 62
     7
 10
594.976095
 20
238.614055
 11
595.011959
 21
238.580787
  0
LINE
  8
CSLAYER4
  6
CONTINUOUS
 62
     7
 10
595.011959
 20
238.580787
 11
595.048244
 21
238.547901
  0
LINE
  8
CSLAYER4
  6
CONTINUOUS
 62
     7
 10
595.048244
 20
238.547901
 11
595.084952
 21
238.515415
  0
LINE
  8
CSLAYER4
  6
CONTINUOUS
 62
     7
 10
595.084952
 20
238.515415
 11
595.122072
 21
238.483374
  0
LINE
  8
CSLAYER4
  6
CONTINUOUS
 62
     7
 10
595.122072
 20
238.483374
 11
595.159604
 21
238.451803
  0
LINE
  8
CSLAYER4
  6
CONTINUOUS
 62
     7
 10
595.159604
 20
238.451803
 11
595.197548
 21
238.420731
  0
LINE
  8
CSLAYER4
  6
CONTINUOUS
 62
     7
 10
595.197548
 20
238.420731
 11
595.235904
 21
238.390180
  0
LINE
  8
CSLAYER4
  6
CONTINUOUS
 62
     7
 10
595.235904
 20
238.390180
 11
595.274652
 21
238.360188
  0
LINE
  8
CSLAYER4
  6
CONTINUOUS
 62
     7
 10
595.274652
 20
238.360188
 11
595.313811
 21
238.330794
  0
LINE
  8
CSLAYER4
  6
CONTINUOUS
 62
     7
 10
595.313811
 20
238.330794
 11
595.353362
 21
238.302016
  0
LINE
  8
CSLAYER4
  6
CONTINUOUS
 62
     7
 10
595.353362
 20
238.302016
 11
595.393304
 21
238.273878
  0
LINE
  8
CSLAYER4
  6
CONTINUOUS
 62
     7
 10
595.393304
 20
238.273878
 11
595.433627
 21
238.246428
  0
LINE
  8
CSLAYER4
  6
CONTINUOUS
 62
     7
 10
595.433627
 20
238.246428
 11
595.474343
 21
238.219680
  0
LINE
  8
CSLAYER4
  6
CONTINUOUS
 62
     7
 10
595.474343
 20
238.219680
 11
595.515447
 21
238.193674
  0
LINE
  8
CSLAYER4
  6
CONTINUOUS
 62
     7
 10
595.515447
 20
238.193674
 11
595.556924
 21
238.168440
  0
LINE
  8
CSLAYER4
  6
CONTINUOUS
 62
     7
 10
595.556924
 20
238.168440
 11
595.598804
 21
238.143988
  0
LINE
  8
CSLAYER4
  6
CONTINUOUS
 62
     7
 10
595.598804
 20
238.143988
 11
595.641125
 21
238.120320
  0
LINE
  8
CSLAYER4
  6
CONTINUOUS
 62
     7
 10
595.641125
 20
238.120320
 11
595.683878
 21
238.097485
  0
LINE
  8
CSLAYER4
  6
CONTINUOUS
 62
     7
 10
595.683878
 20
238.097485
 11
595.727076
 21
238.075506
  0
LINE
  8
CSLAYER4
  6
CONTINUOUS
 62
     7
 10
595.727076
 20
238.075506
 11
595.770705
 21
238.054422
  0
LINE
  8
CSLAYER4
  6
CONTINUOUS
 62
     7
 10
595.770705
 20
238.054422
 11
595.814768
 21
238.034265
  0
LINE
  8
CSLAYER4
  6
CONTINUOUS
 62
     7
 10
598.016712
 20
237.090577
 11
595.814771
 21
238.034266
  0
LINE
  8
CSLAYER4
  6
CONTINUOUS
 62
     7
 10
598.016715
 20
237.090577
 11
598.079606
 21
237.061687
  0
LINE
  8
CSLAYER4
  6
CONTINUOUS
 62
     7
 10
598.079606
 20
237.061687
 11
598.141341
 21
237.030417
  0
LINE
  8
CSLAYER4
  6
CONTINUOUS
 62
     7
 10
598.141341
 20
237.030417
 11
598.201781
 21
236.996655
  0
LINE
  8
CSLAYER4
  6
CONTINUOUS
 62
     7
 10
598.201781
 20
236.996655
 11
598.260695
 21
236.960307
  0
LINE
  8
CSLAYER4
  6
CONTINUOUS
 62
     7
 10
598.260695
 20
236.960307
 11
598.317920
 21
236.921271
  0
LINE
  8
CSLAYER4
  6
CONTINUOUS
 62
     7
 10
598.317920
 20
236.921271
 11
598.373166
 21
236.879517
  0
LINE
  8
CSLAYER4
  6
CONTINUOUS
 62
     7
 10
598.373166
 20
236.879517
 11
598.426046
 21
236.835145
  0
LINE
  8
CSLAYER4
  6
CONTINUOUS
 62
     7
 10
598.426046
 20
236.835145
 11
598.476432
 21
236.788107
  0
LINE
  8
CSLAYER4
  6
CONTINUOUS
 62
     7
 10
598.476432
 20
236.788107
 11
598.524182
 21
236.738328
  0
LINE
  8
CSLAYER4
  6
CONTINUOUS
 62
     7
 10
598.524182
 20
236.738328
 11
598.569210
 21
236.685748
  0
LINE
  8
CSLAYER4
  6
CONTINUOUS
 62
     7
 10
598.569210
 20
236.685748
 11
598.611152
 21
236.630614
  0
LINE
  8
CSLAYER4
  6
CONTINUOUS
 62
     7
 10
598.611152
 20
236.630614
 11
598.649549
 21
236.573565
  0
LINE
  8
CSLAYER4
  6
CONTINUOUS
 62
     7
 10
598.649549
 20
236.573565
 11
598.684445
 21
236.514681
  0
LINE
  8
CSLAYER4
  6
CONTINUOUS
 62
     7
 10
598.684445
 20
236.514681
 11
598.715900
 21
236.453995
  0
LINE
  8
CSLAYER4
  6
CONTINUOUS
 62
     7
 10
598.715900
 20
236.453995
 11
598.743956
 21
236.391568
  0
LINE
  8
CSLAYER4
  6
CONTINUOUS
 62
     7
 10
598.743956
 20
236.391568
 11
598.768716
 21
236.327443
  0
LINE
  8
CSLAYER4
  6
CONTINUOUS
 62
     7
 10
598.768716
 20
236.327443
 11
598.790222
 21
236.261659
  0
LINE
  8
CSLAYER4
  6
CONTINUOUS
 62
     7
 10
598.790222
 20
236.261659
 11
598.808514
 21
236.194453
  0
LINE
  8
CSLAYER4
  6
CONTINUOUS
 62
     7
 10
598.808514
 20
236.194453
 11
598.823552
 21
236.126466
  0
LINE
  8
CSLAYER4
  6
CONTINUOUS
 62
     7
 10
598.823552
 20
236.126466
 11
598.835499
 21
236.057848
  0
LINE
  8
CSLAYER4
  6
CONTINUOUS
 62
     7
 10
598.835499
 20
236.057848
 11
598.844522
 21
235.988749
  0
LINE
  8
CSLAYER4
  6
CONTINUOUS
 62
     7
 10
598.844522
 20
235.988749
 11
598.850742
 21
235.919298
  0
LINE
  8
CSLAYER4
  6
CONTINUOUS
 62
     7
 10
598.850742
 20
235.919298
 11
598.854368
 21
235.849641
  0
LINE
  8
CSLAYER4
  6
CONTINUOUS
 62
     7
 10
598.854368
 20
235.849641
 11
598.855542
 21
235.779901
  0
LINE
  8
CSLAYER4
  6
CONTINUOUS
 62
     7
 10
598.855542
 20
235.779901
 11
598.854080
 21
235.714714
  0
LINE
  8
CSLAYER4
  6
CONTINUOUS
 62
     7
 10
598.854080
 20
235.714714
 11
598.849568
 21
235.649817
  0
LINE
  8
CSLAYER4
  6
CONTINUOUS
 62
     7
 10
598.849568
 20
235.649817
 11
598.841906
 21
235.585269
  0
LINE
  8
CSLAYER4
  6
CONTINUOUS
 62
     7
 10
598.841906
 20
235.585269
 11
598.830906
 21
235.521142
  0
LINE
  8
CSLAYER4
  6
CONTINUOUS
 62
     7
 10
598.830906
 20
235.521142
 11
598.816485
 21
235.457583
  0
LINE
  8
CSLAYER4
  6
CONTINUOUS
 62
     7
 10
598.816485
 20
235.457583
 11
598.798647
 21
235.395136
  0
LINE
  8
CSLAYER4
  6
CONTINUOUS
 62
     7
 10
598.798647
 20
235.395136
 11
598.777388
 21
235.333987
  0
LINE
  8
CSLAYER4
  6
CONTINUOUS
 62
     7
 10
598.777388
 20
235.333987
 11
598.752689
 21
235.274136
  0
LINE
  8
CSLAYER4
  6
CONTINUOUS
 62
     7
 10
598.752689
 20
235.274136
 11
598.724510
 21
235.215603
  0
LINE
  8
CSLAYER4
  6
CONTINUOUS
 62
     7
 10
598.724510
 20
235.215603
 11
598.693076
 21
235.158769
  0
LINE
  8
CSLAYER4
  6
CONTINUOUS
 62
     7
 10
598.693076
 20
235.158769
 11
598.658715
 21
235.104118
  0
LINE
  8
CSLAYER4
  6
CONTINUOUS
 62
     7
 10
598.658715
 20
235.104118
 11
598.621575
 21
235.051611
  0
LINE
  8
CSLAYER4
  6
CONTINUOUS
 62
     7
 10
598.621575
 20
235.051611
 11
598.581818
 21
235.001205
  0
LINE
  8
CSLAYER4
  6
CONTINUOUS
 62
     7
 10
598.581818
 20
235.001205
 11
598.539569
 21
234.952837
  0
LINE
  8
CSLAYER4
  6
CONTINUOUS
 62
     7
 10
598.539569
 20
234.952837
 11
598.494971
 21
234.906459
  0
LINE
  8
CSLAYER4
  6
CONTINUOUS
 62
     7
 10
598.494971
 20
234.906459
 11
598.448127
 21
234.862026
  0
LINE
  8
CSLAYER4
  6
CONTINUOUS
 62
     7
 10
598.448127
 20
234.862026
 11
598.399226
 21
234.819487
  0
LINE
  8
CSLAYER4
  6
CONTINUOUS
 62
     7
 10
598.399226
 20
234.819487
 11
598.348467
 21
234.778885
  0
LINE
  8
CSLAYER4
  6
CONTINUOUS
 62
     7
 10
598.348467
 20
234.778885
 11
598.296126
 21
234.740221
  0
LINE
  8
CSLAYER4
  6
CONTINUOUS
 62
     7
 10
598.296126
 20
234.740221
 11
598.242360
 21
234.703441
  0
LINE
  8
CSLAYER4
  6
CONTINUOUS
 62
     7
 10
598.242360
 20
234.703441
 11
598.187361
 21
234.668484
  0
LINE
  8
CSLAYER4
  6
CONTINUOUS
 62
     7
 10
598.187361
 20
234.668484
 11
598.131309
 21
234.635319
  0
LINE
  8
CSLAYER4
  6
CONTINUOUS
 62
     7
 10
598.131309
 20
234.635319
 11
598.074372
 21
234.603864
  0
LINE
  8
CSLAYER4
  6
CONTINUOUS
 62
     7
 10
598.074372
 20
234.603864
 11
598.016715
 21
234.574077
  0
LINE
  8
CSLAYER4
  6
CONTINUOUS
 62
     7
 10
598.016715
 20
234.574077
 11
597.960891
 21
234.557691
  0
LINE
  8
CSLAYER4
  6
CONTINUOUS
 62
     7
 10
597.960891
 20
234.557691
 11
597.904809
 21
234.542817
  0
LINE
  8
CSLAYER4
  6
CONTINUOUS
 62
     7
 10
597.904809
 20
234.542817
 11
597.848439
 21
234.529489
  0
LINE
  8
CSLAYER4
  6
CONTINUOUS
 62
     7
 10
597.848439
 20
234.529489
 11
597.791802
 21
234.517717
  0
LINE
  8
CSLAYER4
  6
CONTINUOUS
 62
     7
 10
597.791802
 20
234.517717
 11
597.734886
 21
234.507531
  0
LINE
  8
CSLAYER4
  6
CONTINUOUS
 62
     7
 10
597.734886
 20
234.507531
 11
597.677691
 21
234.498940
  0
LINE
  8
CSLAYER4
  6
CONTINUOUS
 62
     7
 10
597.677691
 20
234.498940
 11
597.620229
 21
234.491998
  0
LINE
  8
CSLAYER4
  6
CONTINUOUS
 62
     7
 10
597.620229
 20
234.491998
 11
597.562500
 21
234.486705
  0
LINE
  8
CSLAYER4
  6
CONTINUOUS
 62
     7
 10
597.562500
 20
234.486705
 11
597.504501
 21
234.483090
  0
LINE
  8
CSLAYER4
  6
CONTINUOUS
 62
     7
 10
597.504501
 20
234.483090
 11
597.446495
 21
234.481194
  0
LINE
  8
CSLAYER4
  6
CONTINUOUS
 62
     7
 10
597.446495
 20
234.481194
 11
597.388620
 21
234.480999
  0
LINE
  8
CSLAYER4
  6
CONTINUOUS
 62
     7
 10
597.388620
 20
234.480999
 11
597.330870
 21
234.482491
  0
LINE
  8
CSLAYER4
  6
CONTINUOUS
 62
     7
 10
597.330870
 20
234.482491
 11
597.273233
 21
234.485685
  0
LINE
  8
CSLAYER4
  6
CONTINUOUS
 62
     7
 10
597.273233
 20
234.485685
 11
597.215730
 21
234.490536
  0
LINE
  8
CSLAYER4
  6
CONTINUOUS
 62
     7
 10
597.215730
 20
234.490536
 11
597.158351
 21
234.497067
  0
LINE
  8
CSLAYER4
  6
CONTINUOUS
 62
     7
 10
597.158351
 20
234.497067
 11
597.101084
 21
234.505243
  0
LINE
  8
CSLAYER4
  6
CONTINUOUS
 62
     7
 10
597.101084
 20
234.505243
 11
597.043952
 21
234.515059
  0
LINE
  8
CSLAYER4
  6
CONTINUOUS
 62
     7
 10
597.043952
 20
234.515059
 11
596.986974
 21
234.526503
  0
LINE
  8
CSLAYER4
  6
CONTINUOUS
 62
     7
 10
596.986974
 20
234.526503
 11
596.930378
 21
234.539500
  0
LINE
  8
CSLAYER4
  6
CONTINUOUS
 62
     7
 10
596.930378
 20
234.539500
 11
596.874182
 21
234.554013
  0
LINE
  8
CSLAYER4
  6
CONTINUOUS
 62
     7
 10
596.874182
 20
234.554013
 11
596.818409
 21
234.570009
  0
LINE
  8
CSLAYER4
  6
CONTINUOUS
 62
     7
 10
596.818409
 20
234.570009
 11
596.763059
 21
234.587446
  0
LINE
  8
CSLAYER4
  6
CONTINUOUS
 62
     7
 10
596.763059
 20
234.587446
 11
596.708120
 21
234.606283
  0
LINE
  8
CSLAYER4
  6
CONTINUOUS
 62
     7
 10
596.708120
 20
234.606283
 11
596.653604
 21
234.626502
  0
LINE
  8
CSLAYER4
  6
CONTINUOUS
 62
     7
 10
596.653604
 20
234.626502
 11
596.615505
 21
234.642198
  0
LINE
  8
CSLAYER4
  6
CONTINUOUS
 62
     7
 10
596.615505
 20
234.642198
 11
596.577705
 21
234.658699
  0
LINE
  8
CSLAYER4
  6
CONTINUOUS
 62
     7
 10
596.577705
 20
234.658699
 11
596.540277
 21
234.676033
  0
LINE
  8
CSLAYER4
  6
CONTINUOUS
 62
     7
 10
596.540277
 20
234.676033
 11
596.503239
 21
234.694212
  0
LINE
  8
CSLAYER4
  6
CONTINUOUS
 62
     7
 10
596.503239
 20
234.694212
 11
596.466644
 21
234.713277
  0
LINE
  8
CSLAYER4
  6
CONTINUOUS
 62
     7
 10
596.466644
 20
234.713277
 11
596.430534
 21
234.733227
  0
LINE
  8
CSLAYER4
  6
CONTINUOUS
 62
     7
 10
596.430534
 20
234.733227
 11
596.394959
 21
234.754105
  0
LINE
  8
CSLAYER4
  6
CONTINUOUS
 62
     7
 10
596.394959
 20
234.754105
 11
596.359949
 21
234.775930
  0
LINE
  8
CSLAYER4
  6
CONTINUOUS
 62
     7
 10
596.359949
 20
234.775930
 11
596.325549
 21
234.798712
  0
LINE
  8
CSLAYER4
  6
CONTINUOUS
 62
     7
 10
596.325549
 20
234.798712
 11
596.291828
 21
234.822474
  0
LINE
  8
CSLAYER4
  6
CONTINUOUS
 62
     7
 10
596.291828
 20
234.822474
 11
596.258889
 21
234.847173
  0
LINE
  8
CSLAYER4
  6
CONTINUOUS
 62
     7
 10
596.258889
 20
234.847173
 11
596.226785
 21
234.872818
  0
LINE
  8
CSLAYER4
  6
CONTINUOUS
 62
     7
 10
596.226785
 20
234.872818
 11
596.195546
 21
234.899434
  0
LINE
  8
CSLAYER4
  6
CONTINUOUS
 62
     7
 10
596.195546
 20
234.899434
 11
596.165193
 21
234.927025
  0
LINE
  8
CSLAYER4
  6
CONTINUOUS
 62
     7
 10
596.165193
 20
234.927025
 11
596.135757
 21
234.955618
  0
LINE
  8
CSLAYER4
  6
CONTINUOUS
 62
     7
 10
596.135757
 20
234.955618
 11
596.107268
 21
234.985230
  0
LINE
  8
CSLAYER4
  6
CONTINUOUS
 62
     7
 10
596.107268
 20
234.985230
 11
596.079756
 21
235.015872
  0
LINE
  8
CSLAYER4
  6
CONTINUOUS
 62
     7
 10
596.079756
 20
235.015872
 11
596.053256
 21
235.047564
  0
LINE
  8
CSLAYER4
  6
CONTINUOUS
 62
     7
 10
596.053256
 20
235.047564
 11
596.027888
 21
235.080204
  0
LINE
  8
CSLAYER4
  6
CONTINUOUS
 62
     7
 10
596.027888
 20
235.080204
 11
596.003756
 21
235.113667
  0
LINE
  8
CSLAYER4
  6
CONTINUOUS
 62
     7
 10
596.003756
 20
235.113667
 11
595.980870
 21
235.147933
  0
LINE
  8
CSLAYER4
  6
CONTINUOUS
 62
     7
 10
595.980870
 20
235.147933
 11
595.959219
 21
235.183015
  0
LINE
  8
CSLAYER4
  6
CONTINUOUS
 62
     7
 10
595.959219
 20
235.183015
 11
595.938806
 21
235.218919
  0
LINE
  8
CSLAYER4
  6
CONTINUOUS
 62
     7
 10
595.938806
 20
235.218919
 11
595.919628
 21
235.255627
  0
LINE
  8
CSLAYER4
  6
CONTINUOUS
 62
     7
 10
595.919628
 20
235.255627
 11
595.899039
 21
235.298226
  0
LINE
  8
CSLAYER4
  6
CONTINUOUS
 62
     7
 10
595.899039
 20
235.298226
 11
595.879232
 21
235.342021
  0
LINE
  8
CSLAYER4
  6
CONTINUOUS
 62
     7
 10
595.879232
 20
235.342021
 11
595.860200
 21
235.386937
  0
LINE
  8
CSLAYER4
  6
CONTINUOUS
 62
     7
 10
595.860200
 20
235.386937
 11
595.841907
 21
235.432905
  0
LINE
  8
CSLAYER4
  6
CONTINUOUS
 62
     7
 10
595.841907
 20
235.432905
 11
595.824345
 21
235.479841
  0
LINE
  8
CSLAYER4
  6
CONTINUOUS
 62
     7
 10
595.824345
 20
235.479841
 11
595.807506
 21
235.527663
  0
LINE
  8
CSLAYER4
  6
CONTINUOUS
 62
     7
 10
595.807506
 20
235.527663
 11
595.791356
 21
235.576288
  0
LINE
  8
CSLAYER4
  6
CONTINUOUS
 62
     7
 10
595.791356
 20
235.576288
 11
595.775876
 21
235.625664
  0
LINE
  8
CSLAYER4
  6
CONTINUOUS
 62
     7
 10
595.775876
 20
235.625664
 11
595.761065
 21
235.675680
  0
LINE
  8
CSLAYER4
  6
CONTINUOUS
 62
     7
 10
595.761065
 20
235.675680
 11
595.746903
 21
235.726291
  0
LINE
  8
CSLAYER4
  6
CONTINUOUS
 62
     7
 10
595.746903
 20
235.726291
 11
595.733358
 21
235.777399
  0
LINE
  8
CSLAYER4
  6
CONTINUOUS
 62
     7
 10
595.733358
 20
235.777399
 11
595.720422
 21
235.828929
  0
LINE
  8
CSLAYER4
  6
CONTINUOUS
 62
     7
 10
595.720422
 20
235.828929
 11
595.708073
 21
235.880808
  0
LINE
  8
CSLAYER4
  6
CONTINUOUS
 62
     7
 10
595.708073
 20
235.880808
 11
595.696301
 21
235.932955
  0
LINE
  8
CSLAYER4
  6
CONTINUOUS
 62
     7
 10
595.696301
 20
235.932955
 11
595.685073
 21
235.985289
  0
LINE
  8
CSLAYER4
  6
CONTINUOUS
 62
     7
 10
595.685073
 20
235.985289
 11
595.674392
 21
236.037744
  0
LINE
  8
CSLAYER4
  6
CONTINUOUS
 62
     7
 10
595.674392
 20
236.037744
 11
595.664216
 21
236.090251
  0
LINE
  8
CSLAYER4
  6
CONTINUOUS
 62
     7
 10
595.664216
 20
236.090251
 11
595.654514
 21
236.142966
  0
LINE
  8
CSLAYER4
  6
CONTINUOUS
 62
     7
 10
595.654514
 20
236.142966
 11
595.645244
 21
236.195875
  0
LINE
  8
CSLAYER4
  6
CONTINUOUS
 62
     7
 10
595.645244
 20
236.195875
 11
595.636397
 21
236.248939
  0
LINE
  8
CSLAYER4
  6
CONTINUOUS
 62
     7
 10
595.636397
 20
236.248939
 11
595.627973
 21
236.302086
  0
LINE
  8
CSLAYER4
  6
CONTINUOUS
 62
     7
 10
595.627973
 20
236.302086
 11
595.619949
 21
236.355252
  0
LINE
  8
CSLAYER4
  6
CONTINUOUS
 62
     7
 10
595.619949
 20
236.355252
 11
595.612317
 21
236.408398
  0
LINE
  8
CSLAYER4
  6
CONTINUOUS
 62
     7
 10
595.612317
 20
236.408398
 11
595.605065
 21
236.461452
  0
LINE
  8
CSLAYER4
  6
CONTINUOUS
 62
     7
 10
593.927393
 20
236.461452
 11
595.605063
 21
236.461452
  0
LINE
  8
CSLAYER4
  6
CONTINUOUS
 62
     7
 10
593.927391
 20
236.461452
 11
593.943047
 21
236.275533
  0
LINE
  8
CSLAYER4
  6
CONTINUOUS
 62
     7
 10
593.943047
 20
236.275533
 11
593.963255
 21
236.089303
  0
LINE
  8
CSLAYER4
  6
CONTINUOUS
 62
     7
 10
593.963255
 20
236.089303
 11
593.988354
 21
235.903291
  0
LINE
  8
CSLAYER4
  6
CONTINUOUS
 62
     7
 10
593.988354
 20
235.903291
 11
594.018687
 21
235.718052
  0
LINE
  8
CSLAYER4
  6
CONTINUOUS
 62
     7
 10
594.018687
 20
235.718052
 11
594.054593
 21
235.534131
  0
LINE
  8
CSLAYER4
  6
CONTINUOUS
 62
     7
 10
594.054593
 20
235.534131
 11
594.096408
 21
235.352064
  0
LINE
  8
CSLAYER4
  6
CONTINUOUS
 62
     7
 10
594.096408
 20
235.352064
 11
594.144509
 21
235.172272
  0
LINE
  8
CSLAYER4
  6
CONTINUOUS
 62
     7
 10
594.144509
 20
235.172272
 11
594.199530
 21
234.994468
  0
LINE
  8
CSLAYER4
  6
CONTINUOUS
 62
     7
 10
594.199530
 20
234.994468
 11
594.261956
 21
234.819157
  0
LINE
  8
CSLAYER4
  6
CONTINUOUS
 62
     7
 10
594.261956
 20
234.819157
 11
594.332231
 21
234.647019
  0
LINE
  8
CSLAYER4
  6
CONTINUOUS
 62
     7
 10
594.332231
 20
234.647019
 11
594.410796
 21
234.478764
  0
LINE
  8
CSLAYER4
  6
CONTINUOUS
 62
     7
 10
594.410796
 20
234.478764
 11
594.498096
 21
234.315051
  0
LINE
  8
CSLAYER4
  6
CONTINUOUS
 62
     7
 10
594.498096
 20
234.315051
 11
594.594213
 21
234.157156
  0
LINE
  8
CSLAYER4
  6
CONTINUOUS
 62
     7
 10
594.594213
 20
234.157156
 11
594.698837
 21
234.006523
  0
LINE
  8
CSLAYER4
  6
CONTINUOUS
 62
     7
 10
594.698837
 20
234.006523
 11
594.812237
 21
233.863522
  0
LINE
  8
CSLAYER4
  6
CONTINUOUS
 62
     7
 10
594.812237
 20
233.863522
 11
594.934649
 21
233.728513
  0
LINE
  8
CSLAYER4
  6
CONTINUOUS
 62
     7
 10
594.934649
 20
233.728513
 11
595.066341
 21
233.601828
  0
LINE
  8
CSLAYER4
  6
CONTINUOUS
 62
     7
 10
595.066341
 20
233.601828
 11
595.207518
 21
233.483866
  0
LINE
  8
CSLAYER4
  6
CONTINUOUS
 62
     7
 10
595.207518
 20
233.483866
 11
595.356122
 21
233.376501
  0
LINE
  8
CSLAYER4
  6
CONTINUOUS
 62
     7
 10
595.356122
 20
233.376501
 11
595.510679
 21
233.280415
  0
LINE
  8
CSLAYER4
  6
CONTINUOUS
 62
     7
 10
595.510679
 20
233.280415
 11
595.670849
 21
233.195217
  0
LINE
  8
CSLAYER4
  6
CONTINUOUS
 62
     7
 10
595.670849
 20
233.195217
 11
595.836303
 21
233.120544
  0
LINE
  8
CSLAYER4
  6
CONTINUOUS
 62
     7
 10
595.836303
 20
233.120544
 11
596.006721
 21
233.056017
  0
LINE
  8
CSLAYER4
  6
CONTINUOUS
 62
     7
 10
596.006721
 20
233.056017
 11
596.181765
 21
233.001253
  0
ENDBLK
  8
0
  0
BLOCK
  8
CSLAYER1
  2
BLKF0009
 70
   64
 10
0.0
 20
0.0
 30
0.0
  0
LINE
  8
CSLAYER4
  6
CONTINUOUS
 62
     7
 10
542.362784
 20
219.546322
 11
542.496762
 21
219.507823
  0
LINE
  8
CSLAYER4
  6
CONTINUOUS
 62
     7
 10
542.496762
 20
219.507823
 11
542.631564
 21
219.473361
  0
LINE
  8
CSLAYER4
  6
CONTINUOUS
 62
     7
 10
542.631564
 20
219.473361
 11
542.767149
 21
219.443100
  0
LINE
  8
CSLAYER4
  6
CONTINUOUS
 62
     7
 10
542.767149
 20
219.443100
 11
542.903486
 21
219.417207
  0
LINE
  8
CSLAYER4
  6
CONTINUOUS
 62
     7
 10
542.903486
 20
219.417207
 11
543.040524
 21
219.395865
  0
LINE
  8
CSLAYER4
  6
CONTINUOUS
 62
     7
 10
543.040524
 20
219.395865
 11
543.178209
 21
219.379222
  0
LINE
  8
CSLAYER4
  6
CONTINUOUS
 62
     7
 10
543.178209
 20
219.379222
 11
543.316514
 21
219.367459
  0
LINE
  8
CSLAYER4
  6
CONTINUOUS
 62
     7
 10
543.316514
 20
219.367459
 11
543.455384
 21
219.360733
  0
LINE
  8
CSLAYER4
  6
CONTINUOUS
 62
     7
 10
543.455384
 20
219.360733
 11
543.594791
 21
219.359209
  0
LINE
  8
CSLAYER4
  6
CONTINUOUS
 62
     7
 10
543.594791
 20
219.359209
 11
543.734012
 21
219.363030
  0
LINE
  8
CSLAYER4
  6
CONTINUOUS
 62
     7
 10
543.734012
 20
219.363030
 11
543.872306
 21
219.372217
  0
LINE
  8
CSLAYER4
  6
CONTINUOUS
 62
     7
 10
543.872306
 20
219.372217
 11
544.009683
 21
219.386770
  0
LINE
  8
CSLAYER4
  6
CONTINUOUS
 62
     7
 10
544.009683
 20
219.386770
 11
544.146132
 21
219.406711
  0
LINE
  8
CSLAYER4
  6
CONTINUOUS
 62
     7
 10
544.146132
 20
219.406711
 11
544.281677
 21
219.432027
  0
LINE
  8
CSLAYER4
  6
CONTINUOUS
 62
     7
 10
544.281677
 20
219.432027
 11
544.416294
 21
219.462730
  0
LINE
  8
CSLAYER4
  6
CONTINUOUS
 62
     7
 10
544.416294
 20
219.462730
 11
544.549962
 21
219.498820
  0
LINE
  8
CSLAYER4
  6
CONTINUOUS
 62
     7
 10
544.549962
 20
219.498820
 11
544.682726
 21
219.540309
  0
LINE
  8
CSLAYER4
  6
CONTINUOUS
 62
     7
 10
544.682726
 20
219.540309
 11
544.814459
 21
219.587151
  0
LINE
  8
CSLAYER4
  6
CONTINUOUS
 62
     7
 10
544.814459
 20
219.587151
 11
544.944234
 21
219.638949
  0
LINE
  8
CSLAYER4
  6
CONTINUOUS
 62
     7
 10
544.944234
 20
219.638949
 11
545.071827
 21
219.695484
  0
LINE
  8
CSLAYER4
  6
CONTINUOUS
 62
     7
 10
545.071827
 20
219.695484
 11
545.197277
 21
219.756580
  0
LINE
  8
CSLAYER4
  6
CONTINUOUS
 62
     7
 10
545.197277
 20
219.756580
 11
545.320565
 21
219.822087
  0
LINE
  8
CSLAYER4
  6
CONTINUOUS
 62
     7
 10
545.320565
 20
219.822087
 11
545.441750
 21
219.891867
  0
LINE
  8
CSLAYER4
  6
CONTINUOUS
 62
     7
 10
545.441750
 20
219.891867
 11
545.560835
 21
219.965748
  0
LINE
  8
CSLAYER4
  6
CONTINUOUS
 62
     7
 10
545.560835
 20
219.965748
 11
545.611901
 21
219.999232
  0
LINE
  8
CSLAYER4
  6
CONTINUOUS
 62
     7
 10
545.611901
 20
219.999232
 11
545.661936
 21
220.034044
  0
LINE
  8
CSLAYER4
  6
CONTINUOUS
 62
     7
 10
545.661936
 20
220.034044
 11
545.710943
 21
220.070166
  0
LINE
  8
CSLAYER4
  6
CONTINUOUS
 62
     7
 10
545.710943
 20
220.070166
 11
545.758940
 21
220.107574
  0
LINE
  8
CSLAYER4
  6
CONTINUOUS
 62
     7
 10
545.758940
 20
220.107574
 11
545.805927
 21
220.146249
  0
LINE
  8
CSLAYER4
  6
CONTINUOUS
 62
     7
 10
545.805927
 20
220.146249
 11
545.851946
 21
220.186180
  0
LINE
  8
CSLAYER4
  6
CONTINUOUS
 62
     7
 10
545.851946
 20
220.186180
 11
545.896956
 21
220.227339
  0
LINE
  8
CSLAYER4
  6
CONTINUOUS
 62
     7
 10
545.896956
 20
220.227339
 11
545.940996
 21
220.269721
  0
LINE
  8
CSLAYER4
  6
CONTINUOUS
 62
     7
 10
545.940996
 20
220.269721
 11
545.984028
 21
220.313269
  0
LINE
  8
CSLAYER4
  6
CONTINUOUS
 62
     7
 10
545.984028
 20
220.313269
 11
546.025968
 21
220.357825
  0
LINE
  8
CSLAYER4
  6
CONTINUOUS
 62
     7
 10
546.025968
 20
220.357825
 11
546.066797
 21
220.403359
  0
LINE
  8
CSLAYER4
  6
CONTINUOUS
 62
     7
 10
546.066797
 20
220.403359
 11
546.106554
 21
220.449822
  0
LINE
  8
CSLAYER4
  6
CONTINUOUS
 62
     7
 10
546.106554
 20
220.449822
 11
546.145239
 21
220.497190
  0
LINE
  8
CSLAYER4
  6
CONTINUOUS
 62
     7
 10
546.145239
 20
220.497190
 11
546.182874
 21
220.545424
  0
LINE
  8
CSLAYER4
  6
CONTINUOUS
 62
     7
 10
546.182874
 20
220.545424
 11
546.219480
 21
220.594491
  0
LINE
  8
CSLAYER4
  6
CONTINUOUS
 62
     7
 10
546.219480
 20
220.594491
 11
546.255054
 21
220.644352
  0
LINE
  8
CSLAYER4
  6
CONTINUOUS
 62
     7
 10
546.255054
 20
220.644352
 11
546.289620
 21
220.694974
  0
LINE
  8
CSLAYER4
  6
CONTINUOUS
 62
     7
 10
546.289620
 20
220.694974
 11
546.323219
 21
220.746309
  0
LINE
  8
CSLAYER4
  6
CONTINUOUS
 62
     7
 10
546.323219
 20
220.746309
 11
546.355806
 21
220.798291
  0
LINE
  8
CSLAYER4
  6
CONTINUOUS
 62
     7
 10
546.355806
 20
220.798291
 11
546.387426
 21
220.850902
  0
LINE
  8
CSLAYER4
  6
CONTINUOUS
 62
     7
 10
546.387426
 20
220.850902
 11
546.418098
 21
220.904079
  0
LINE
  8
CSLAYER4
  6
CONTINUOUS
 62
     7
 10
546.418098
 20
220.904079
 11
546.447824
 21
220.957801
  0
LINE
  8
CSLAYER4
  6
CONTINUOUS
 62
     7
 10
546.447824
 20
220.957801
 11
546.476621
 21
221.012029
  0
LINE
  8
CSLAYER4
  6
CONTINUOUS
 62
     7
 10
546.476621
 20
221.012029
 11
546.504533
 21
221.066710
  0
LINE
  8
CSLAYER4
  6
CONTINUOUS
 62
     7
 10
546.504533
 20
221.066710
 11
546.533744
 21
221.127294
  0
LINE
  8
CSLAYER4
  6
CONTINUOUS
 62
     7
 10
546.533744
 20
221.127294
 11
546.561264
 21
221.188650
  0
LINE
  8
CSLAYER4
  6
CONTINUOUS
 62
     7
 10
546.561264
 20
221.188650
 11
546.587117
 21
221.250736
  0
LINE
  8
CSLAYER4
  6
CONTINUOUS
 62
     7
 10
546.587117
 20
221.250736
 11
546.611342
 21
221.313502
  0
LINE
  8
CSLAYER4
  6
CONTINUOUS
 62
     7
 10
546.611342
 20
221.313502
 11
546.634001
 21
221.376907
  0
LINE
  8
CSLAYER4
  6
CONTINUOUS
 62
     7
 10
546.634001
 20
221.376907
 11
546.655115
 21
221.440878
  0
LINE
  8
CSLAYER4
  6
CONTINUOUS
 62
     7
 10
546.655115
 20
221.440878
 11
546.674747
 21
221.505384
  0
LINE
  8
CSLAYER4
  6
CONTINUOUS
 62
     7
 10
546.674747
 20
221.505384
 11
546.692915
 21
221.570365
  0
LINE
  8
CSLAYER4
  6
CONTINUOUS
 62
     7
 10
546.692915
 20
221.570365
 11
546.709662
 21
221.635768
  0
LINE
  8
CSLAYER4
  6
CONTINUOUS
 62
     7
 10
546.709662
 20
221.635768
 11
546.725030
 21
221.701552
  0
LINE
  8
CSLAYER4
  6
CONTINUOUS
 62
     7
 10
546.725030
 20
221.701552
 11
546.739077
 21
221.767666
  0
LINE
  8
CSLAYER4
  6
CONTINUOUS
 62
     7
 10
546.739077
 20
221.767666
 11
546.751829
 21
221.834047
  0
LINE
  8
CSLAYER4
  6
CONTINUOUS
 62
     7
 10
546.751829
 20
221.834047
 11
546.763323
 21
221.900646
  0
LINE
  8
CSLAYER4
  6
CONTINUOUS
 62
     7
 10
546.763323
 20
221.900646
 11
546.773624
 21
221.967429
  0
LINE
  8
CSLAYER4
  6
CONTINUOUS
 62
     7
 10
546.773624
 20
221.967429
 11
546.782748
 21
222.034326
  0
LINE
  8
CSLAYER4
  6
CONTINUOUS
 62
     7
 10
546.782748
 20
222.034326
 11
546.790742
 21
222.101293
  0
LINE
  8
CSLAYER4
  6
CONTINUOUS
 62
     7
 10
546.790742
 20
222.101293
 11
546.797663
 21
222.168283
  0
LINE
  8
CSLAYER4
  6
CONTINUOUS
 62
     7
 10
546.797663
 20
222.168283
 11
546.803532
 21
222.235374
  0
LINE
  8
CSLAYER4
  6
CONTINUOUS
 62
     7
 10
546.803532
 20
222.235374
 11
546.808415
 21
222.302611
  0
LINE
  8
CSLAYER4
  6
CONTINUOUS
 62
     7
 10
546.808415
 20
222.302611
 11
546.812351
 21
222.369951
  0
LINE
  8
CSLAYER4
  6
CONTINUOUS
 62
     7
 10
546.812351
 20
222.369951
 11
546.815336
 21
222.437362
  0
LINE
  8
CSLAYER4
  6
CONTINUOUS
 62
     7
 10
546.815336
 20
222.437362
 11
546.817437
 21
222.504784
  0
LINE
  8
CSLAYER4
  6
CONTINUOUS
 62
     7
 10
546.817437
 20
222.504784
 11
546.818694
 21
222.572185
  0
LINE
  8
CSLAYER4
  6
CONTINUOUS
 62
     7
 10
546.818694
 20
222.572185
 11
546.819086
 21
222.639535
  0
LINE
  8
CSLAYER4
  6
CONTINUOUS
 62
     7
 10
546.819086
 20
222.639535
 11
546.818180
 21
222.723714
  0
LINE
  8
CSLAYER4
  6
CONTINUOUS
 62
     7
 10
546.818180
 20
222.723714
 11
546.815357
 21
222.807894
  0
LINE
  8
CSLAYER4
  6
CONTINUOUS
 62
     7
 10
546.815357
 20
222.807894
 11
546.810537
 21
222.891990
  0
LINE
  8
CSLAYER4
  6
CONTINUOUS
 62
     7
 10
546.810537
 20
222.891990
 11
546.803657
 21
222.975922
  0
LINE
  8
CSLAYER4
  6
CONTINUOUS
 62
     7
 10
546.803657
 20
222.975922
 11
546.794634
 21
223.059628
  0
LINE
  8
CSLAYER4
  6
CONTINUOUS
 62
     7
 10
546.794634
 20
223.059628
 11
546.783345
 21
223.143034
  0
LINE
  8
CSLAYER4
  6
CONTINUOUS
 62
     7
 10
546.783345
 20
223.143034
 11
546.769751
 21
223.226061
  0
LINE
  8
CSLAYER4
  6
CONTINUOUS
 62
     7
 10
546.769751
 20
223.226061
 11
546.753725
 21
223.308643
  0
LINE
  8
CSLAYER4
  6
CONTINUOUS
 62
     7
 10
546.753725
 20
223.308643
 11
546.735204
 21
223.390701
  0
LINE
  8
CSLAYER4
  6
CONTINUOUS
 62
     7
 10
546.735204
 20
223.390701
 11
546.714132
 21
223.472098
  0
LINE
  8
CSLAYER4
  6
CONTINUOUS
 62
     7
 10
546.714132
 20
223.472098
 11
546.690504
 21
223.552498
  0
LINE
  8
CSLAYER4
  6
CONTINUOUS
 62
     7
 10
546.690504
 20
223.552498
 11
546.664260
 21
223.631817
  0
LINE
  8
CSLAYER4
  6
CONTINUOUS
 62
     7
 10
546.664260
 20
223.631817
 11
546.635360
 21
223.710022
  0
LINE
  8
CSLAYER4
  6
CONTINUOUS
 62
     7
 10
546.635360
 20
223.710022
 11
546.603761
 21
223.787073
  0
LINE
  8
CSLAYER4
  6
CONTINUOUS
 62
     7
 10
546.603761
 20
223.787073
 11
546.569400
 21
223.862920
  0
LINE
  8
CSLAYER4
  6
CONTINUOUS
 62
     7
 10
546.569400
 20
223.862920
 11
546.532218
 21
223.937530
  0
LINE
  8
CSLAYER4
  6
CONTINUOUS
 62
     7
 10
546.532218
 20
223.937530
 11
546.492153
 21
224.010865
  0
LINE
  8
CSLAYER4
  6
CONTINUOUS
 62
     7
 10
546.492153
 20
224.010865
 11
546.449183
 21
224.082880
  0
LINE
  8
CSLAYER4
  6
CONTINUOUS
 62
     7
 10
546.449183
 20
224.082880
 11
546.403494
 21
224.153166
  0
LINE
  8
CSLAYER4
  6
CONTINUOUS
 62
     7
 10
546.403494
 20
224.153166
 11
546.355250
 21
224.221422
  0
LINE
  8
CSLAYER4
  6
CONTINUOUS
 62
     7
 10
546.355250
 20
224.221422
 11
546.304535
 21
224.287669
  0
LINE
  8
CSLAYER4
  6
CONTINUOUS
 62
     7
 10
546.304535
 20
224.287669
 11
546.251327
 21
224.351919
  0
LINE
  8
CSLAYER4
  6
CONTINUOUS
 62
     7
 10
546.251327
 20
224.351919
 11
546.195645
 21
224.414179
  0
LINE
  8
CSLAYER4
  6
CONTINUOUS
 62
     7
 10
546.195645
 20
224.414179
 11
546.137535
 21
224.474484
  0
LINE
  8
CSLAYER4
  6
CONTINUOUS
 62
     7
 10
546.137535
 20
224.474484
 11
546.097058
 21
224.514396
  0
LINE
  8
CSLAYER4
  6
CONTINUOUS
 62
     7
 10
546.097058
 20
224.514396
 11
546.056064
 21
224.553669
  0
LINE
  8
CSLAYER4
  6
CONTINUOUS
 62
     7
 10
546.056064
 20
224.553669
 11
546.014577
 21
224.592313
  0
LINE
  8
CSLAYER4
  6
CONTINUOUS
 62
     7
 10
546.014577
 20
224.592313
 11
545.972616
 21
224.630319
  0
LINE
  8
CSLAYER4
  6
CONTINUOUS
 62
     7
 10
545.972616
 20
224.630319
 11
545.930162
 21
224.667696
  0
LINE
  8
CSLAYER4
  6
CONTINUOUS
 62
     7
 10
545.930162
 20
224.667696
 11
545.887211
 21
224.704446
  0
LINE
  8
CSLAYER4
  6
CONTINUOUS
 62
     7
 10
545.887211
 20
224.704446
 11
545.843768
 21
224.740567
  0
LINE
  8
CSLAYER4
  6
CONTINUOUS
 62
     7
 10
545.843768
 20
224.740567
 11
545.799870
 21
224.776069
  0
LINE
  8
CSLAYER4
  6
CONTINUOUS
 62
     7
 10
545.799870
 20
224.776069
 11
545.755478
 21
224.810955
  0
LINE
  8
CSLAYER4
  6
CONTINUOUS
 62
     7
 10
545.755478
 20
224.810955
 11
545.710613
 21
224.845221
  0
LINE
  8
CSLAYER4
  6
CONTINUOUS
 62
     7
 10
545.710613
 20
224.845221
 11
545.665274
 21
224.878870
  0
LINE
  8
CSLAYER4
  6
CONTINUOUS
 62
     7
 10
545.665274
 20
224.878870
 11
545.619482
 21
224.911912
  0
LINE
  8
CSLAYER4
  6
CONTINUOUS
 62
     7
 10
545.619482
 20
224.911912
 11
545.573216
 21
224.944356
  0
LINE
  8
CSLAYER4
  6
CONTINUOUS
 62
     7
 10
545.573216
 20
224.944356
 11
545.526495
 21
224.976183
  0
LINE
  8
CSLAYER4
  6
CONTINUOUS
 62
     7
 10
545.526495
 20
224.976183
 11
545.479304
 21
225.007422
  0
LINE
  8
CSLAYER4
  6
CONTINUOUS
 62
     7
 10
545.479304
 20
225.007422
 11
545.431677
 21
225.038053
  0
LINE
  8
CSLAYER4
  6
CONTINUOUS
 62
     7
 10
545.431677
 20
225.038053
 11
545.383578
 21
225.068086
  0
LINE
  8
CSLAYER4
  6
CONTINUOUS
 62
     7
 10
545.383578
 20
225.068086
 11
545.335046
 21
225.097522
  0
LINE
  8
CSLAYER4
  6
CONTINUOUS
 62
     7
 10
545.335046
 20
225.097522
 11
545.286143
 21
225.126321
  0
LINE
  8
CSLAYER4
  6
CONTINUOUS
 62
     7
 10
545.286143
 20
225.126321
 11
545.236910
 21
225.154491
  0
LINE
  8
CSLAYER4
  6
CONTINUOUS
 62
     7
 10
545.236910
 20
225.154491
 11
545.187327
 21
225.182022
  0
LINE
  8
CSLAYER4
  6
CONTINUOUS
 62
     7
 10
545.187327
 20
225.182022
 11
545.137395
 21
225.208933
  0
LINE
  8
CSLAYER4
  6
CONTINUOUS
 62
     7
 10
545.137395
 20
225.208933
 11
545.087153
 21
225.235219
  0
LINE
  8
CSLAYER4
  6
CONTINUOUS
 62
     7
 10
545.087153
 20
225.235219
 11
545.036561
 21
225.260886
  0
LINE
  8
CSLAYER4
  6
CONTINUOUS
 62
     7
 10
543.254043
 20
226.047298
 11
545.036567
 21
225.260890
  0
LINE
  8
CSLAYER4
  6
CONTINUOUS
 62
     7
 10
543.254046
 20
226.047297
 11
543.215762
 21
226.062871
  0
LINE
  8
CSLAYER4
  6
CONTINUOUS
 62
     7
 10
543.215762
 20
226.062871
 11
543.177593
 21
226.078918
  0
LINE
  8
CSLAYER4
  6
CONTINUOUS
 62
     7
 10
543.177593
 20
226.078918
 11
543.139556
 21
226.095448
  0
LINE
  8
CSLAYER4
  6
CONTINUOUS
 62
     7
 10
543.139556
 20
226.095448
 11
543.101673
 21
226.112484
  0
LINE
  8
CSLAYER4
  6
CONTINUOUS
 62
     7
 10
543.101673
 20
226.112484
 11
543.063986
 21
226.130014
  0
LINE
  8
CSLAYER4
  6
CONTINUOUS
 62
     7
 10
543.063986
 20
226.130014
 11
543.026505
 21
226.148070
  0
LINE
  8
CSLAYER4
  6
CONTINUOUS
 62
     7
 10
543.026505
 20
226.148070
 11
542.989251
 21
226.166650
  0
LINE
  8
CSLAYER4
  6
CONTINUOUS
 62
     7
 10
542.989251
 20
226.166650
 11
542.952266
 21
226.185756
  0
LINE
  8
CSLAYER4
  6
CONTINUOUS
 62
     7
 10
542.952266
 20
226.185756
 11
542.915558
 21
226.205407
  0
LINE
  8
CSLAYER4
  6
CONTINUOUS
 62
     7
 10
542.915558
 20
226.205407
 11
542.879159
 21
226.225605
  0
LINE
  8
CSLAYER4
  6
CONTINUOUS
 62
     7
 10
542.879159
 20
226.225605
 11
542.843090
 21
226.246371
  0
LINE
  8
CSLAYER4
  6
CONTINUOUS
 62
     7
 10
542.843090
 20
226.246371
 11
542.807379
 21
226.267701
  0
LINE
  8
CSLAYER4
  6
CONTINUOUS
 62
     7
 10
542.807379
 20
226.267701
 11
542.772053
 21
226.289598
  0
LINE
  8
CSLAYER4
  6
CONTINUOUS
 62
     7
 10
542.772053
 20
226.289598
 11
542.737125
 21
226.312092
  0
LINE
  8
CSLAYER4
  6
CONTINUOUS
 62
     7
 10
542.737125
 20
226.312092
 11
542.702622
 21
226.335184
  0
LINE
  8
CSLAYER4
  6
CONTINUOUS
 62
     7
 10
542.702622
 20
226.335184
 11
542.668581
 21
226.358884
  0
LINE
  8
CSLAYER4
  6
CONTINUOUS
 62
     7
 10
542.668581
 20
226.358884
 11
542.635014
 21
226.383190
  0
LINE
  8
CSLAYER4
  6
CONTINUOUS
 62
     7
 10
542.635014
 20
226.383190
 11
542.601963
 21
226.408116
  0
LINE
  8
CSLAYER4
  6
CONTINUOUS
 62
     7
 10
542.601963
 20
226.408116
 11
542.569416
 21
226.433680
  0
LINE
  8
CSLAYER4
  6
CONTINUOUS
 62
     7
 10
542.569416
 20
226.433680
 11
542.537415
 21
226.459914
  0
LINE
  8
CSLAYER4
  6
CONTINUOUS
 62
     7
 10
542.537415
 20
226.459914
 11
542.505960
 21
226.486795
  0
LINE
  8
CSLAYER4
  6
CONTINUOUS
 62
     7
 10
542.505960
 20
226.486795
 11
542.475092
 21
226.514368
  0
LINE
  8
CSLAYER4
  6
CONTINUOUS
 62
     7
 10
542.475092
 20
226.514368
 11
542.444831
 21
226.542619
  0
LINE
  8
CSLAYER4
  6
CONTINUOUS
 62
     7
 10
542.444831
 20
226.542619
 11
542.415209
 21
226.571572
  0
LINE
  8
CSLAYER4
  6
CONTINUOUS
 62
     7
 10
542.415209
 20
226.571572
 11
542.391324
 21
226.596075
  0
LINE
  8
CSLAYER4
  6
CONTINUOUS
 62
     7
 10
542.391324
 20
226.596075
 11
542.368139
 21
226.621186
  0
LINE
  8
CSLAYER4
  6
CONTINUOUS
 62
     7
 10
542.368139
 20
226.621186
 11
542.345666
 21
226.646893
  0
LINE
  8
CSLAYER4
  6
CONTINUOUS
 62
     7
 10
542.345666
 20
226.646893
 11
542.323953
 21
226.673220
  0
LINE
  8
CSLAYER4
  6
CONTINUOUS
 62
     7
 10
542.323953
 20
226.673220
 11
542.303025
 21
226.700173
  0
LINE
  8
CSLAYER4
  6
CONTINUOUS
 62
     7
 10
542.303025
 20
226.700173
 11
542.282930
 21
226.727757
  0
LINE
  8
CSLAYER4
  6
CONTINUOUS
 62
     7
 10
542.282930
 20
226.727757
 11
542.263691
 21
226.755988
  0
LINE
  8
CSLAYER4
  6
CONTINUOUS
 62
     7
 10
542.263691
 20
226.755988
 11
542.245347
 21
226.784859
  0
LINE
  8
CSLAYER4
  6
CONTINUOUS
 62
     7
 10
542.245347
 20
226.784859
 11
542.227920
 21
226.814397
  0
LINE
  8
CSLAYER4
  6
CONTINUOUS
 62
     7
 10
542.227920
 20
226.814397
 11
542.211524
 21
226.844493
  0
LINE
  8
CSLAYER4
  6
CONTINUOUS
 62
     7
 10
542.211524
 20
226.844493
 11
542.196228
 21
226.875021
  0
LINE
  8
CSLAYER4
  6
CONTINUOUS
 62
     7
 10
542.196228
 20
226.875021
 11
542.182035
 21
226.905982
  0
LINE
  8
CSLAYER4
  6
CONTINUOUS
 62
     7
 10
542.182035
 20
226.905982
 11
542.168975
 21
226.937376
  0
LINE
  8
CSLAYER4
  6
CONTINUOUS
 62
     7
 10
542.168975
 20
226.937376
 11
542.157027
 21
226.969201
  0
LINE
  8
CSLAYER4
  6
CONTINUOUS
 62
     7
 10
542.157027
 20
226.969201
 11
542.146212
 21
227.001471
  0
LINE
  8
CSLAYER4
  6
CONTINUOUS
 62
     7
 10
542.146212
 20
227.001471
 11
542.136531
 21
227.034172
  0
LINE
  8
CSLAYER4
  6
CONTINUOUS
 62
     7
 10
542.136531
 20
227.034172
 11
542.127992
 21
227.067306
  0
LINE
  8
CSLAYER4
  6
CONTINUOUS
 62
     7
 10
542.127992
 20
227.067306
 11
542.120607
 21
227.100883
  0
LINE
  8
CSLAYER4
  6
CONTINUOUS
 62
     7
 10
542.120607
 20
227.100883
 11
542.114406
 21
227.134677
  0
LINE
  8
CSLAYER4
  6
CONTINUOUS
 62
     7
 10
542.114406
 20
227.134677
 11
542.109392
 21
227.168614
  0
LINE
  8
CSLAYER4
  6
CONTINUOUS
 62
     7
 10
542.109392
 20
227.168614
 11
542.105528
 21
227.202675
  0
LINE
  8
CSLAYER4
  6
CONTINUOUS
 62
     7
 10
542.105528
 20
227.202675
 11
542.102799
 21
227.236860
  0
LINE
  8
CSLAYER4
  6
CONTINUOUS
 62
     7
 10
542.102799
 20
227.236860
 11
542.101182
 21
227.271157
  0
LINE
  8
CSLAYER4
  6
CONTINUOUS
 62
     7
 10
542.101182
 20
227.271157
 11
542.100647
 21
227.305548
  0
LINE
  8
CSLAYER4
  6
CONTINUOUS
 62
     7
 10
542.100647
 20
227.305548
 11
542.101275
 21
227.362999
  0
LINE
  8
CSLAYER4
  6
CONTINUOUS
 62
     7
 10
542.101275
 20
227.362999
 11
542.103212
 21
227.420596
  0
LINE
  8
CSLAYER4
  6
CONTINUOUS
 62
     7
 10
542.103212
 20
227.420596
 11
542.106548
 21
227.478232
  0
LINE
  8
CSLAYER4
  6
CONTINUOUS
 62
     7
 10
542.106548
 20
227.478232
 11
542.111369
 21
227.535819
  0
LINE
  8
CSLAYER4
  6
CONTINUOUS
 62
     7
 10
542.111369
 20
227.535819
 11
542.117765
 21
227.593260
  0
LINE
  8
CSLAYER4
  6
CONTINUOUS
 62
     7
 10
542.117765
 20
227.593260
 11
542.125809
 21
227.650443
  0
LINE
  8
CSLAYER4
  6
CONTINUOUS
 62
     7
 10
542.125809
 20
227.650443
 11
542.135604
 21
227.707297
  0
LINE
  8
CSLAYER4
  6
CONTINUOUS
 62
     7
 10
542.135604
 20
227.707297
 11
542.147232
 21
227.763718
  0
LINE
  8
CSLAYER4
  6
CONTINUOUS
 62
     7
 10
542.147232
 20
227.763718
 11
542.160777
 21
227.819595
  0
LINE
  8
CSLAYER4
  6
CONTINUOUS
 62
     7
 10
542.160777
 20
227.819595
 11
542.176319
 21
227.874843
  0
LINE
  8
CSLAYER4
  6
CONTINUOUS
 62
     7
 10
542.176319
 20
227.874843
 11
542.193942
 21
227.929296
  0
LINE
  8
CSLAYER4
  6
CONTINUOUS
 62
     7
 10
542.193942
 20
227.929296
 11
542.213645
 21
227.982732
  0
LINE
  8
CSLAYER4
  6
CONTINUOUS
 62
     7
 10
542.213645
 20
227.982732
 11
542.235510
 21
228.035074
  0
LINE
  8
CSLAYER4
  6
CONTINUOUS
 62
     7
 10
542.235510
 20
228.035074
 11
542.259602
 21
228.086263
  0
LINE
  8
CSLAYER4
  6
CONTINUOUS
 62
     7
 10
542.259602
 20
228.086263
 11
542.285979
 21
228.136237
  0
LINE
  8
CSLAYER4
  6
CONTINUOUS
 62
     7
 10
542.285979
 20
228.136237
 11
542.314715
 21
228.184903
  0
LINE
  8
CSLAYER4
  6
CONTINUOUS
 62
     7
 10
542.314715
 20
228.184903
 11
542.345862
 21
228.232231
  0
LINE
  8
CSLAYER4
  6
CONTINUOUS
 62
     7
 10
542.345862
 20
228.232231
 11
542.379500
 21
228.278127
  0
LINE
  8
CSLAYER4
  6
CONTINUOUS
 62
     7
 10
542.379500
 20
228.278127
 11
542.415488
 21
228.322281
  0
LINE
  8
CSLAYER4
  6
CONTINUOUS
 62
     7
 10
542.415488
 20
228.322281
 11
542.453472
 21
228.364305
  0
LINE
  8
CSLAYER4
  6
CONTINUOUS
 62
     7
 10
542.453472
 20
228.364305
 11
542.493446
 21
228.404194
  0
LINE
  8
CSLAYER4
  6
CONTINUOUS
 62
     7
 10
542.493446
 20
228.404194
 11
542.535366
 21
228.441984
  0
LINE
  8
CSLAYER4
  6
CONTINUOUS
 62
     7
 10
542.535366
 20
228.441984
 11
542.579201
 21
228.477703
  0
LINE
  8
CSLAYER4
  6
CONTINUOUS
 62
     7
 10
542.579201
 20
228.477703
 11
542.624921
 21
228.511374
  0
LINE
  8
CSLAYER4
  6
CONTINUOUS
 62
     7
 10
542.624921
 20
228.511374
 11
542.667027
 21
228.539811
  0
LINE
  8
CSLAYER4
  6
CONTINUOUS
 62
     7
 10
542.667027
 20
228.539811
 11
542.709935
 21
228.566683
  0
LINE
  8
CSLAYER4
  6
CONTINUOUS
 62
     7
 10
542.709935
 20
228.566683
 11
542.753646
 21
228.591916
  0
LINE
  8
CSLAYER4
  6
CONTINUOUS
 62
     7
 10
542.753646
 20
228.591916
 11
542.798162
 21
228.615462
  0
LINE
  8
CSLAYER4
  6
CONTINUOUS
 62
     7
 10
542.798162
 20
228.615462
 11
542.843511
 21
228.637257
  0
LINE
  8
CSLAYER4
  6
CONTINUOUS
 62
     7
 10
542.843511
 20
228.637257
 11
542.889684
 21
228.657228
  0
LINE
  8
CSLAYER4
  6
CONTINUOUS
 62
     7
 10
542.889684
 20
228.657228
 11
542.936693
 21
228.675324
  0
LINE
  8
CSLAYER4
  6
CONTINUOUS
 62
     7
 10
542.936693
 20
228.675324
 11
542.984535
 21
228.691473
  0
LINE
  8
CSLAYER4
  6
CONTINUOUS
 62
     7
 10
542.984535
 20
228.691473
 11
543.033221
 21
228.705615
  0
LINE
  8
CSLAYER4
  6
CONTINUOUS
 62
     7
 10
543.033221
 20
228.705615
 11
543.082341
 21
228.717592
  0
LINE
  8
CSLAYER4
  6
CONTINUOUS
 62
     7
 10
543.082341
 20
228.717592
 11
543.131655
 21
228.727368
  0
LINE
  8
CSLAYER4
  6
CONTINUOUS
 62
     7
 10
543.131655
 20
228.727368
 11
543.181166
 21
228.734958
  0
LINE
  8
CSLAYER4
  6
CONTINUOUS
 62
     7
 10
543.181166
 20
228.734958
 11
543.230861
 21
228.740397
  0
LINE
  8
CSLAYER4
  6
CONTINUOUS
 62
     7
 10
543.230861
 20
228.740397
 11
543.280754
 21
228.743703
  0
LINE
  8
CSLAYER4
  6
CONTINUOUS
 62
     7
 10
543.280754
 20
228.743703
 11
543.330819
 21
228.744907
  0
LINE
  8
CSLAYER4
  6
CONTINUOUS
 62
     7
 10
543.330819
 20
228.744907
 11
543.381072
 21
228.744033
  0
LINE
  8
CSLAYER4
  6
CONTINUOUS
 62
     7
 10
543.381072
 20
228.744033
 11
543.431489
 21
228.741097
  0
LINE
  8
CSLAYER4
  6
CONTINUOUS
 62
     7
 10
543.431489
 20
228.741097
 11
543.481988
 21
228.736143
  0
LINE
  8
CSLAYER4
  6
CONTINUOUS
 62
     7
 10
543.481988
 20
228.736143
 11
543.532241
 21
228.729264
  0
LINE
  8
CSLAYER4
  6
CONTINUOUS
 62
     7
 10
543.532241
 20
228.729264
 11
543.582174
 21
228.720519
  0
LINE
  8
CSLAYER4
  6
CONTINUOUS
 62
     7
 10
543.582174
 20
228.720519
 11
543.631766
 21
228.710013
  0
LINE
  8
CSLAYER4
  6
CONTINUOUS
 62
     7
 10
543.631766
 20
228.710013
 11
543.680999
 21
228.697807
  0
LINE
  8
CSLAYER4
  6
CONTINUOUS
 62
     7
 10
543.680999
 20
228.697807
 11
543.729861
 21
228.683995
  0
LINE
  8
CSLAYER4
  6
CONTINUOUS
 62
     7
 10
543.729861
 20
228.683995
 11
543.778311
 21
228.668659
  0
LINE
  8
CSLAYER4
  6
CONTINUOUS
 62
     7
 10
543.778311
 20
228.668659
 11
543.865683
 21
228.638379
  0
LINE
  8
CSLAYER4
  6
CONTINUOUS
 62
     7
 10
543.865683
 20
228.638379
 11
543.950922
 21
228.603267
  0
LINE
  8
CSLAYER4
  6
CONTINUOUS
 62
     7
 10
543.950922
 20
228.603267
 11
544.033907
 21
228.563149
  0
LINE
  8
CSLAYER4
  6
CONTINUOUS
 62
     7
 10
544.033907
 20
228.563149
 11
544.114533
 21
228.517882
  0
LINE
  8
CSLAYER4
  6
CONTINUOUS
 62
     7
 10
544.114533
 20
228.517882
 11
544.192337
 21
228.467517
  0
LINE
  8
CSLAYER4
  6
CONTINUOUS
 62
     7
 10
544.192337
 20
228.467517
 11
544.266516
 21
228.412548
  0
LINE
  8
CSLAYER4
  6
CONTINUOUS
 62
     7
 10
544.266516
 20
228.412548
 11
544.337006
 21
228.353067
  0
LINE
  8
CSLAYER4
  6
CONTINUOUS
 62
     7
 10
544.337006
 20
228.353067
 11
544.403892
 21
228.289137
  0
LINE
  8
CSLAYER4
  6
CONTINUOUS
 62
     7
 10
544.403892
 20
228.289137
 11
544.467071
 21
228.220921
  0
LINE
  8
CSLAYER4
  6
CONTINUOUS
 62
     7
 10
544.467071
 20
228.220921
 11
544.526027
 21
228.149287
  0
LINE
  8
CSLAYER4
  6
CONTINUOUS
 62
     7
 10
544.526027
 20
228.149287
 11
544.580780
 21
228.074605
  0
LINE
  8
CSLAYER4
  6
CONTINUOUS
 62
     7
 10
544.580780
 20
228.074605
 11
544.631516
 21
227.997130
  0
LINE
  8
CSLAYER4
  6
CONTINUOUS
 62
     7
 10
544.631516
 20
227.997130
 11
544.678358
 21
227.917153
  0
LINE
  8
CSLAYER4
  6
CONTINUOUS
 62
     7
 10
544.678358
 20
227.917153
 11
544.721493
 21
227.834920
  0
LINE
  8
CSLAYER4
  6
CONTINUOUS
 62
     7
 10
544.721493
 20
227.834920
 11
544.761065
 21
227.750710
  0
LINE
  8
CSLAYER4
  6
CONTINUOUS
 62
     7
 10
544.761065
 20
227.750710
 11
544.797237
 21
227.664780
  0
LINE
  8
CSLAYER4
  6
CONTINUOUS
 62
     7
 10
544.797237
 20
227.664780
 11
544.830176
 21
227.577387
  0
LINE
  8
CSLAYER4
  6
CONTINUOUS
 62
     7
 10
544.830176
 20
227.577387
 11
544.860107
 21
227.488573
  0
LINE
  8
CSLAYER4
  6
CONTINUOUS
 62
     7
 10
544.860107
 20
227.488573
 11
544.887153
 21
227.398543
  0
LINE
  8
CSLAYER4
  6
CONTINUOUS
 62
     7
 10
544.887153
 20
227.398543
 11
544.911461
 21
227.307526
  0
LINE
  8
CSLAYER4
  6
CONTINUOUS
 62
     7
 10
544.911461
 20
227.307526
 11
544.933193
 21
227.215786
  0
LINE
  8
CSLAYER4
  6
CONTINUOUS
 62
     7
 10
544.933193
 20
227.215786
 11
544.952453
 21
227.123542
  0
LINE
  8
CSLAYER4
  6
CONTINUOUS
 62
     7
 10
544.952453
 20
227.123542
 11
544.969386
 21
227.031051
  0
LINE
  8
CSLAYER4
  6
CONTINUOUS
 62
     7
 10
544.969386
 20
227.031051
 11
544.984136
 21
226.938561
  0
LINE
  8
CSLAYER4
  6
CONTINUOUS
 62
     7
 10
546.556955
 20
226.938561
 11
544.984140
 21
226.938561
  0
LINE
  8
CSLAYER4
  6
CONTINUOUS
 62
     7
 10
546.556959
 20
226.938561
 11
546.552098
 21
227.048416
  0
LINE
  8
CSLAYER4
  6
CONTINUOUS
 62
     7
 10
546.552098
 20
227.048416
 11
546.545033
 21
227.158242
  0
LINE
  8
CSLAYER4
  6
CONTINUOUS
 62
     7
 10
546.545033
 20
227.158242
 11
546.535659
 21
227.267944
  0
LINE
  8
CSLAYER4
  6
CONTINUOUS
 62
     7
 10
546.535659
 20
227.267944
 11
546.523896
 21
227.377429
  0
LINE
  8
CSLAYER4
  6
CONTINUOUS
 62
     7
 10
546.523896
 20
227.377429
 11
546.509642
 21
227.486607
  0
LINE
  8
CSLAYER4
  6
CONTINUOUS
 62
     7
 10
546.509642
 20
227.486607
 11
546.492792
 21
227.595372
  0
LINE
  8
CSLAYER4
  6
CONTINUOUS
 62
     7
 10
546.492792
 20
227.595372
 11
546.473264
 21
227.703642
  0
LINE
  8
CSLAYER4
  6
CONTINUOUS
 62
     7
 10
546.473264
 20
227.703642
 11
546.450975
 21
227.811324
  0
LINE
  8
CSLAYER4
  6
CONTINUOUS
 62
     7
 10
546.450975
 20
227.811324
 11
546.425783
 21
227.918307
  0
LINE
  8
CSLAYER4
  6
CONTINUOUS
 62
     7
 10
546.425783
 20
227.918307
 11
546.397664
 21
228.024475
  0
LINE
  8
CSLAYER4
  6
CONTINUOUS
 62
     7
 10
546.397664
 20
228.024475
 11
546.366518
 21
228.129553
  0
LINE
  8
CSLAYER4
  6
CONTINUOUS
 62
     7
 10
546.366518
 20
228.129553
 11
546.332343
 21
228.233427
  0
LINE
  8
CSLAYER4
  6
CONTINUOUS
 62
     7
 10
546.332343
 20
228.233427
 11
546.295017
 21
228.336042
  0
LINE
  8
CSLAYER4
  6
CONTINUOUS
 62
     7
 10
546.295017
 20
228.336042
 11
546.254478
 21
228.437308
  0
LINE
  8
CSLAYER4
  6
CONTINUOUS
 62
     7
 10
546.254478
 20
228.437308
 11
546.210642
 21
228.537163
  0
LINE
  8
CSLAYER4
  6
CONTINUOUS
 62
     7
 10
546.210642
 20
228.537163
 11
546.163449
 21
228.635535
  0
LINE
  8
CSLAYER4
  6
CONTINUOUS
 62
     7
 10
546.163449
 20
228.635535
 11
546.112817
 21
228.732363
  0
LINE
  8
CSLAYER4
  6
CONTINUOUS
 62
     7
 10
546.112817
 20
228.732363
 11
546.058661
 21
228.827572
  0
LINE
  8
CSLAYER4
  6
CONTINUOUS
 62
     7
 10
546.058661
 20
228.827572
 11
546.001127
 21
228.920766
  0
LINE
  8
CSLAYER4
  6
CONTINUOUS
 62
     7
 10
546.001127
 20
228.920766
 11
545.940420
 21
229.011535
  0
LINE
  8
CSLAYER4
  6
CONTINUOUS
 62
     7
 10
545.940420
 20
229.011535
 11
545.876520
 21
229.099876
  0
LINE
  8
CSLAYER4
  6
CONTINUOUS
 62
     7
 10
545.876520
 20
229.099876
 11
545.809428
 21
229.185766
  0
LINE
  8
CSLAYER4
  6
CONTINUOUS
 62
     7
 10
545.809428
 20
229.185766
 11
545.739164
 21
229.269214
  0
LINE
  8
CSLAYER4
  6
CONTINUOUS
 62
     7
 10
545.739164
 20
229.269214
 11
545.665686
 21
229.350210
  0
LINE
  8
CSLAYER4
  6
CONTINUOUS
 62
     7
 10
545.665686
 20
229.350210
 11
545.591384
 21
229.430392
  0
LINE
  8
CSLAYER4
  6
CONTINUOUS
 62
     7
 10
545.591384
 20
229.430392
 11
545.514878
 21
229.508115
  0
LINE
  8
CSLAYER4
  6
CONTINUOUS
 62
     7
 10
545.514878
 20
229.508115
 11
545.436147
 21
229.583262
  0
LINE
  8
CSLAYER4
  6
CONTINUOUS
 62
     7
 10
545.436147
 20
229.583262
 11
545.355131
 21
229.655688
  0
LINE
  8
CSLAYER4
  6
CONTINUOUS
 62
     7
 10
545.355131
 20
229.655688
 11
545.271827
 21
229.725273
  0
LINE
  8
CSLAYER4
  6
CONTINUOUS
 62
     7
 10
545.271827
 20
229.725273
 11
545.186174
 21
229.791891
  0
LINE
  8
CSLAYER4
  6
CONTINUOUS
 62
     7
 10
545.186174
 20
229.791891
 11
545.098112
 21
229.855410
  0
LINE
  8
CSLAYER4
  6
CONTINUOUS
 62
     7
 10
545.098112
 20
229.855410
 11
545.007660
 21
229.915693
  0
LINE
  8
CSLAYER4
  6
CONTINUOUS
 62
     7
 10
545.007660
 20
229.915693
 11
544.914716
 21
229.972620
  0
LINE
  8
CSLAYER4
  6
CONTINUOUS
 62
     7
 10
544.914716
 20
229.972620
 11
544.819793
 21
230.025777
  0
LINE
  8
CSLAYER4
  6
CONTINUOUS
 62
     7
 10
544.819793
 20
230.025777
 11
544.723389
 21
230.074864
  0
LINE
  8
CSLAYER4
  6
CONTINUOUS
 62
     7
 10
544.723389
 20
230.074864
 11
544.625501
 21
230.119896
  0
LINE
  8
CSLAYER4
  6
CONTINUOUS
 62
     7
 10
544.625501
 20
230.119896
 11
544.526109
 21
230.160858
  0
LINE
  8
CSLAYER4
  6
CONTINUOUS
 62
     7
 10
544.526109
 20
230.160858
 11
544.425233
 21
230.197771
  0
LINE
  8
CSLAYER4
  6
CONTINUOUS
 62
     7
 10
544.425233
 20
230.197771
 11
544.322876
 21
230.230636
  0
LINE
  8
CSLAYER4
  6
CONTINUOUS
 62
     7
 10
544.322876
 20
230.230636
 11
544.219055
 21
230.259456
  0
LINE
  8
CSLAYER4
  6
CONTINUOUS
 62
     7
 10
544.219055
 20
230.259456
 11
544.113729
 21
230.284248
  0
LINE
  8
CSLAYER4
  6
CONTINUOUS
 62
     7
 10
544.113729
 20
230.284248
 11
544.007036
 21
230.304990
  0
LINE
  8
CSLAYER4
  6
CONTINUOUS
 62
     7
 10
544.007036
 20
230.304990
 11
543.899744
 21
230.321604
  0
LINE
  8
CSLAYER4
  6
CONTINUOUS
 62
     7
 10
543.899744
 20
230.321604
 11
543.792092
 21
230.334169
  0
LINE
  8
CSLAYER4
  6
CONTINUOUS
 62
     7
 10
543.792092
 20
230.334169
 11
543.684120
 21
230.342802
  0
LINE
  8
CSLAYER4
  6
CONTINUOUS
 62
     7
 10
543.684120
 20
230.342802
 11
543.575891
 21
230.347632
  0
LINE
  8
CSLAYER4
  6
CONTINUOUS
 62
     7
 10
543.575891
 20
230.347632
 11
543.467466
 21
230.348764
  0
LINE
  8
CSLAYER4
  6
CONTINUOUS
 62
     7
 10
543.467466
 20
230.348764
 11
543.358898
 21
230.346322
  0
LINE
  8
CSLAYER4
  6
CONTINUOUS
 62
     7
 10
543.358898
 20
230.346322
 11
543.244725
 21
230.340256
  0
LINE
  8
CSLAYER4
  6
CONTINUOUS
 62
     7
 10
543.244725
 20
230.340256
 11
543.131213
 21
230.330463
  0
LINE
  8
CSLAYER4
  6
CONTINUOUS
 62
     7
 10
543.131213
 20
230.330463
 11
543.018380
 21
230.316856
  0
LINE
  8
CSLAYER4
  6
CONTINUOUS
 62
     7
 10
543.018380
 20
230.316856
 11
542.906288
 21
230.299347
  0
LINE
  8
CSLAYER4
  6
CONTINUOUS
 62
     7
 10
542.906288
 20
230.299347
 11
542.794968
 21
230.277850
  0
LINE
  8
CSLAYER4
  6
CONTINUOUS
 62
     7
 10
542.794968
 20
230.277850
 11
542.684474
 21
230.252277
  0
LINE
  8
CSLAYER4
  6
CONTINUOUS
 62
     7
 10
542.684474
 20
230.252277
 11
542.574845
 21
230.222532
  0
LINE
  8
CSLAYER4
  6
CONTINUOUS
 62
     7
 10
542.574845
 20
230.222532
 11
542.466120
 21
230.188542
  0
LINE
  8
CSLAYER4
  6
CONTINUOUS
 62
     7
 10
542.466120
 20
230.188542
 11
542.358375
 21
230.150217
  0
LINE
  8
CSLAYER4
  6
CONTINUOUS
 62
     7
 10
542.358375
 20
230.150217
 11
542.252423
 21
230.107803
  0
LINE
  8
CSLAYER4
  6
CONTINUOUS
 62
     7
 10
542.252423
 20
230.107803
 11
542.148642
 21
230.061475
  0
LINE
  8
CSLAYER4
  6
CONTINUOUS
 62
     7
 10
542.148642
 20
230.061475
 11
542.046996
 21
230.011285
  0
LINE
  8
CSLAYER4
  6
CONTINUOUS
 62
     7
 10
542.046996
 20
230.011285
 11
541.947459
 21
229.957273
  0
LINE
  8
CSLAYER4
  6
CONTINUOUS
 62
     7
 10
541.947459
 20
229.957273
 11
541.850034
 21
229.899492
  0
LINE
  8
CSLAYER4
  6
CONTINUOUS
 62
     7
 10
541.850034
 20
229.899492
 11
541.754690
 21
229.838002
  0
LINE
  8
CSLAYER4
  6
CONTINUOUS
 62
     7
 10
541.754690
 20
229.838002
 11
541.661406
 21
229.772827
  0
LINE
  8
CSLAYER4
  6
CONTINUOUS
 62
     7
 10
541.661406
 20
229.772827
 11
541.570161
 21
229.704036
  0
LINE
  8
CSLAYER4
  6
CONTINUOUS
 62
     7
 10
541.570161
 20
229.704036
 11
541.481049
 21
229.631752
  0
LINE
  8
CSLAYER4
  6
CONTINUOUS
 62
     7
 10
541.481049
 20
229.631752
 11
541.394510
 21
229.556461
  0
LINE
  8
CSLAYER4
  6
CONTINUOUS
 62
     7
 10
541.394510
 20
229.556461
 11
541.310547
 21
229.478349
  0
LINE
  8
CSLAYER4
  6
CONTINUOUS
 62
     7
 10
541.310547
 20
229.478349
 11
541.229139
 21
229.397559
  0
LINE
  8
CSLAYER4
  6
CONTINUOUS
 62
     7
 10
541.229139
 20
229.397559
 11
541.150212
 21
229.314234
  0
LINE
  8
CSLAYER4
  6
CONTINUOUS
 62
     7
 10
541.150212
 20
229.314234
 11
541.073748
 21
229.228498
  0
LINE
  8
CSLAYER4
  6
CONTINUOUS
 62
     7
 10
541.073748
 20
229.228498
 11
540.999672
 21
229.140498
  0
LINE
  8
CSLAYER4
  6
CONTINUOUS
 62
     7
 10
540.999672
 20
229.140498
 11
540.947556
 21
229.068946
  0
LINE
  8
CSLAYER4
  6
CONTINUOUS
 62
     7
 10
540.947556
 20
229.068946
 11
540.897593
 21
228.996106
  0
LINE
  8
CSLAYER4
  6
CONTINUOUS
 62
     7
 10
540.897593
 20
228.996106
 11
540.849792
 21
228.922000
  0
LINE
  8
CSLAYER4
  6
CONTINUOUS
 62
     7
 10
540.849792
 20
228.922000
 11
540.804185
 21
228.846607
  0
LINE
  8
CSLAYER4
  6
CONTINUOUS
 62
     7
 10
540.804185
 20
228.846607
 11
540.760782
 21
228.769926
  0
LINE
  8
CSLAYER4
  6
CONTINUOUS
 62
     7
 10
540.760782
 20
228.769926
 11
540.719583
 21
228.691947
  0
LINE
  8
CSLAYER4
  6
CONTINUOUS
 62
     7
 10
540.719583
 20
228.691947
 11
540.680609
 21
228.612670
  0
LINE
  8
CSLAYER4
  6
CONTINUOUS
 62
     7
 10
540.680609
 20
228.612670
 11
540.643869
 21
228.532075
  0
LINE
  8
CSLAYER4
  6
CONTINUOUS
 62
     7
 10
540.643869
 20
228.532075
 11
540.609398
 21
228.450214
  0
LINE
  8
CSLAYER4
  6
CONTINUOUS
 62
     7
 10
540.609398
 20
228.450214
 11
540.577365
 21
228.367476
  0
LINE
  8
CSLAYER4
  6
CONTINUOUS
 62
     7
 10
540.577365
 20
228.367476
 11
540.547775
 21
228.284008
  0
LINE
  8
CSLAYER4
  6
CONTINUOUS
 62
     7
 10
540.547775
 20
228.284008
 11
540.520604
 21
228.199828
  0
LINE
  8
CSLAYER4
  6
CONTINUOUS
 62
     7
 10
540.520604
 20
228.199828
 11
540.495801
 21
228.114948
  0
LINE
  8
CSLAYER4
  6
CONTINUOUS
 62
     7
 10
540.495801
 20
228.114948
 11
540.473358
 21
228.029379
  0
LINE
  8
CSLAYER4
  6
CONTINUOUS
 62
     7
 10
540.473358
 20
228.029379
 11
540.453222
 21
227.943160
  0
LINE
  8
CSLAYER4
  6
CONTINUOUS
 62
     7
 10
540.453222
 20
227.943160
 11
540.435363
 21
227.856292
  0
LINE
  8
CSLAYER4
  6
CONTINUOUS
 62
     7
 10
540.435363
 20
227.856292
 11
540.419759
 21
227.768808
  0
LINE
  8
CSLAYER4
  6
CONTINUOUS
 62
     7
 10
540.419759
 20
227.768808
 11
540.406370
 21
227.680776
  0
LINE
  8
CSLAYER4
  6
CONTINUOUS
 62
     7
 10
540.406370
 20
227.680776
 11
540.395184
 21
227.592466
  0
LINE
  8
CSLAYER4
  6
CONTINUOUS
 62
     7
 10
540.395184
 20
227.592466
 11
540.386162
 21
227.503930
  0
LINE
  8
CSLAYER4
  6
CONTINUOUS
 62
     7
 10
540.386162
 20
227.503930
 11
540.379250
 21
227.415210
  0
LINE
  8
CSLAYER4
  6
CONTINUOUS
 62
     7
 10
540.379250
 20
227.415210
 11
540.374378
 21
227.326332
  0
LINE
  8
CSLAYER4
  6
CONTINUOUS
 62
     7
 10
540.374378
 20
227.326332
 11
540.371495
 21
227.237343
  0
LINE
  8
CSLAYER4
  6
CONTINUOUS
 62
     7
 10
540.371495
 20
227.237343
 11
540.370547
 21
227.148271
  0
LINE
  8
CSLAYER4
  6
CONTINUOUS
 62
     7
 10
540.370547
 20
227.148271
 11
540.371433
 21
227.061909
  0
LINE
  8
CSLAYER4
  6
CONTINUOUS
 62
     7
 10
540.371433
 20
227.061909
 11
540.374162
 21
226.975506
  0
LINE
  8
CSLAYER4
  6
CONTINUOUS
 62
     7
 10
540.374162
 20
226.975506
 11
540.378807
 21
226.889121
  0
LINE
  8
CSLAYER4
  6
CONTINUOUS
 62
     7
 10
540.378807
 20
226.889121
 11
540.385472
 21
226.802872
  0
LINE
  8
CSLAYER4
  6
CONTINUOUS
 62
     7
 10
540.385472
 20
226.802872
 11
540.394247
 21
226.716819
  0
LINE
  8
CSLAYER4
  6
CONTINUOUS
 62
     7
 10
540.394247
 20
226.716819
 11
540.405216
 21
226.631062
  0
LINE
  8
CSLAYER4
  6
CONTINUOUS
 62
     7
 10
540.405216
 20
226.631062
 11
540.418461
 21
226.545679
  0
LINE
  8
CSLAYER4
  6
CONTINUOUS
 62
     7
 10
540.418461
 20
226.545679
 11
540.434096
 21
226.460757
  0
LINE
  8
CSLAYER4
  6
CONTINUOUS
 62
     7
 10
540.434096
 20
226.460757
 11
540.452192
 21
226.376382
  0
LINE
  8
CSLAYER4
  6
CONTINUOUS
 62
     7
 10
540.452192
 20
226.376382
 11
540.472833
 21
226.292667
  0
LINE
  8
CSLAYER4
  6
CONTINUOUS
 62
     7
 10
540.472833
 20
226.292667
 11
540.496059
 21
226.209909
  0
LINE
  8
CSLAYER4
  6
CONTINUOUS
 62
     7
 10
540.496059
 20
226.209909
 11
540.521912
 21
226.128192
  0
LINE
  8
CSLAYER4
  6
CONTINUOUS
 62
     7
 10
540.521912
 20
226.128192
 11
540.550463
 21
226.047586
  0
LINE
  8
CSLAYER4
  6
CONTINUOUS
 62
     7
 10
540.550463
 20
226.047586
 11
540.581783
 21
225.968145
  0
LINE
  8
CSLAYER4
  6
CONTINUOUS
 62
     7
 10
540.581783
 20
225.968145
 11
540.615947
 21
225.889929
  0
LINE
  8
CSLAYER4
  6
CONTINUOUS
 62
     7
 10
540.615947
 20
225.889929
 11
540.653006
 21
225.813000
  0
LINE
  8
CSLAYER4
  6
CONTINUOUS
 62
     7
 10
540.653006
 20
225.813000
 11
540.693051
 21
225.737412
  0
LINE
  8
CSLAYER4
  6
CONTINUOUS
 62
     7
 10
540.693051
 20
225.737412
 11
540.736124
 21
225.663213
  0
LINE
  8
CSLAYER4
  6
CONTINUOUS
 62
     7
 10
540.736124
 20
225.663213
 11
540.782123
 21
225.590775
  0
LINE
  8
CSLAYER4
  6
CONTINUOUS
 62
     7
 10
540.782123
 20
225.590775
 11
540.830799
 21
225.520500
  0
LINE
  8
CSLAYER4
  6
CONTINUOUS
 62
     7
 10
540.830799
 20
225.520500
 11
540.882143
 21
225.452377
  0
LINE
  8
CSLAYER4
  6
CONTINUOUS
 62
     7
 10
540.882143
 20
225.452377
 11
540.936144
 21
225.386409
  0
LINE
  8
CSLAYER4
  6
CONTINUOUS
 62
     7
 10
540.936144
 20
225.386409
 11
540.992802
 21
225.322581
  0
LINE
  8
CSLAYER4
  6
CONTINUOUS
 62
     7
 10
540.992802
 20
225.322581
 11
541.052099
 21
225.260886
  0
LINE
  8
CSLAYER4
  6
CONTINUOUS
 62
     7
 10
541.052099
 20
225.260886
 11
541.086674
 21
225.226671
  0
LINE
  8
CSLAYER4
  6
CONTINUOUS
 62
     7
 10
541.086674
 20
225.226671
 11
541.121682
 21
225.192733
  0
LINE
  8
CSLAYER4
  6
CONTINUOUS
 62
     7
 10
541.121682
 20
225.192733
 11
541.157114
 21
225.159126
  0
LINE
  8
CSLAYER4
  6
CONTINUOUS
 62
     7
 10
541.157114
 20
225.159126
 11
541.192977
 21
225.125857
  0
LINE
  8
CSLAYER4
  6
CONTINUOUS
 62
     7
 10
541.192977
 20
225.125857
 11
541.229262
 21
225.092970
  0
LINE
  8
CSLAYER4
  6
CONTINUOUS
 62
     7
 10
541.229262
 20
225.092970
 11
541.265970
 21
225.060486
  0
LINE
  8
CSLAYER4
  6
CONTINUOUS
 62
     7
 10
541.265970
 20
225.060486
 11
541.303091
 21
225.028443
  0
LINE
  8
CSLAYER4
  6
CONTINUOUS
 62
     7
 10
541.303091
 20
225.028443
 11
541.340622
 21
224.996874
  0
LINE
  8
CSLAYER4
  6
CONTINUOUS
 62
     7
 10
541.340622
 20
224.996874
 11
541.378566
 21
224.965800
  0
LINE
  8
CSLAYER4
  6
CONTINUOUS
 62
     7
 10
541.378566
 20
224.965800
 11
541.416923
 21
224.935251
  0
LINE
  8
CSLAYER4
  6
CONTINUOUS
 62
     7
 10
541.416923
 20
224.935251
 11
541.455669
 21
224.905258
  0
LINE
  8
CSLAYER4
  6
CONTINUOUS
 62
     7
 10
541.455669
 20
224.905258
 11
541.494830
 21
224.875863
  0
LINE
  8
CSLAYER4
  6
CONTINUOUS
 62
     7
 10
541.494830
 20
224.875863
 11
541.534380
 21
224.847087
  0
LINE
  8
CSLAYER4
  6
CONTINUOUS
 62
     7
 10
541.534380
 20
224.847087
 11
541.574322
 21
224.818947
  0
LINE
  8
CSLAYER4
  6
CONTINUOUS
 62
     7
 10
541.574322
 20
224.818947
 11
541.614645
 21
224.791498
  0
LINE
  8
CSLAYER4
  6
CONTINUOUS
 62
     7
 10
541.614645
 20
224.791498
 11
541.655361
 21
224.764750
  0
LINE
  8
CSLAYER4
  6
CONTINUOUS
 62
     7
 10
541.655361
 20
224.764750
 11
541.696467
 21
224.738743
  0
LINE
  8
CSLAYER4
  6
CONTINUOUS
 62
     7
 10
541.696467
 20
224.738743
 11
541.737944
 21
224.713509
  0
LINE
  8
CSLAYER4
  6
CONTINUOUS
 62
     7
 10
541.737944
 20
224.713509
 11
541.779822
 21
224.689057
  0
LINE
  8
CSLAYER4
  6
CONTINUOUS
 62
     7
 10
541.779822
 20
224.689057
 11
541.822143
 21
224.665389
  0
LINE
  8
CSLAYER4
  6
CONTINUOUS
 62
     7
 10
541.822143
 20
224.665389
 11
541.864898
 21
224.642554
  0
LINE
  8
CSLAYER4
  6
CONTINUOUS
 62
     7
 10
541.864898
 20
224.642554
 11
541.908095
 21
224.620575
  0
LINE
  8
CSLAYER4
  6
CONTINUOUS
 62
     7
 10
541.908095
 20
224.620575
 11
541.951724
 21
224.599492
  0
LINE
  8
CSLAYER4
  6
CONTINUOUS
 62
     7
 10
541.951724
 20
224.599492
 11
541.995786
 21
224.579335
  0
LINE
  8
CSLAYER4
  6
CONTINUOUS
 62
     7
 10
544.197731
 20
223.635648
 11
541.995789
 21
224.579337
  0
LINE
  8
CSLAYER4
  6
CONTINUOUS
 62
     7
 10
544.197734
 20
223.635648
 11
544.260624
 21
223.606756
  0
LINE
  8
CSLAYER4
  6
CONTINUOUS
 62
     7
 10
544.260624
 20
223.606756
 11
544.322361
 21
223.575487
  0
LINE
  8
CSLAYER4
  6
CONTINUOUS
 62
     7
 10
544.322361
 20
223.575487
 11
544.382799
 21
223.541724
  0
LINE
  8
CSLAYER4
  6
CONTINUOUS
 62
     7
 10
544.382799
 20
223.541724
 11
544.441713
 21
223.505377
  0
LINE
  8
CSLAYER4
  6
CONTINUOUS
 62
     7
 10
544.441713
 20
223.505377
 11
544.498938
 21
223.466341
  0
LINE
  8
CSLAYER4
  6
CONTINUOUS
 62
     7
 10
544.498938
 20
223.466341
 11
544.554185
 21
223.424587
  0
LINE
  8
CSLAYER4
  6
CONTINUOUS
 62
     7
 10
544.554185
 20
223.424587
 11
544.607064
 21
223.380216
  0
LINE
  8
CSLAYER4
  6
CONTINUOUS
 62
     7
 10
544.607064
 20
223.380216
 11
544.657451
 21
223.333176
  0
LINE
  8
CSLAYER4
  6
CONTINUOUS
 62
     7
 10
544.657451
 20
223.333176
 11
544.705200
 21
223.283398
  0
LINE
  8
CSLAYER4
  6
CONTINUOUS
 62
     7
 10
544.705200
 20
223.283398
 11
544.750230
 21
223.230819
  0
LINE
  8
CSLAYER4
  6
CONTINUOUS
 62
     7
 10
544.750230
 20
223.230819
 11
544.792170
 21
223.175685
  0
LINE
  8
CSLAYER4
  6
CONTINUOUS
 62
     7
 10
544.792170
 20
223.175685
 11
544.830567
 21
223.118634
  0
LINE
  8
CSLAYER4
  6
CONTINUOUS
 62
     7
 10
544.830567
 20
223.118634
 11
544.865463
 21
223.059751
  0
LINE
  8
CSLAYER4
  6
CONTINUOUS
 62
     7
 10
544.865463
 20
223.059751
 11
544.896918
 21
222.999064
  0
LINE
  8
CSLAYER4
  6
CONTINUOUS
 62
     7
 10
544.896918
 20
222.999064
 11
544.924974
 21
222.936639
  0
LINE
  8
CSLAYER4
  6
CONTINUOUS
 62
     7
 10
544.924974
 20
222.936639
 11
544.949735
 21
222.872514
  0
LINE
  8
CSLAYER4
  6
CONTINUOUS
 62
     7
 10
544.949735
 20
222.872514
 11
544.971240
 21
222.806730
  0
LINE
  8
CSLAYER4
  6
CONTINUOUS
 62
     7
 10
544.971240
 20
222.806730
 11
544.989533
 21
222.739524
  0
LINE
  8
CSLAYER4
  6
CONTINUOUS
 62
     7
 10
544.989533
 20
222.739524
 11
545.004570
 21
222.671535
  0
LINE
  8
CSLAYER4
  6
CONTINUOUS
 62
     7
 10
545.004570
 20
222.671535
 11
545.016518
 21
222.602919
  0
LINE
  8
CSLAYER4
  6
CONTINUOUS
 62
     7
 10
545.016518
 20
222.602919
 11
545.025540
 21
222.533818
  0
LINE
  8
CSLAYER4
  6
CONTINUOUS
 62
     7
 10
545.025540
 20
222.533818
 11
545.031761
 21
222.464368
  0
LINE
  8
CSLAYER4
  6
CONTINUOUS
 62
     7
 10
545.031761
 20
222.464368
 11
545.035386
 21
222.394711
  0
LINE
  8
CSLAYER4
  6
CONTINUOUS
 62
     7
 10
545.035386
 20
222.394711
 11
545.036561
 21
222.324972
  0
LINE
  8
CSLAYER4
  6
CONTINUOUS
 62
     7
 10
545.036561
 20
222.324972
 11
545.035098
 21
222.259785
  0
LINE
  8
CSLAYER4
  6
CONTINUOUS
 62
     7
 10
545.035098
 20
222.259785
 11
545.030586
 21
222.194887
  0
LINE
  8
CSLAYER4
  6
CONTINUOUS
 62
     7
 10
545.030586
 20
222.194887
 11
545.022924
 21
222.130339
  0
LINE
  8
CSLAYER4
  6
CONTINUOUS
 62
     7
 10
545.022924
 20
222.130339
 11
545.011925
 21
222.066213
  0
LINE
  8
CSLAYER4
  6
CONTINUOUS
 62
     7
 10
545.011925
 20
222.066213
 11
544.997505
 21
222.002653
  0
LINE
  8
CSLAYER4
  6
CONTINUOUS
 62
     7
 10
544.997505
 20
222.002653
 11
544.979666
 21
221.940207
  0
LINE
  8
CSLAYER4
  6
CONTINUOUS
 62
     7
 10
544.979666
 20
221.940207
 11
544.958406
 21
221.879058
  0
LINE
  8
CSLAYER4
  6
CONTINUOUS
 62
     7
 10
544.958406
 20
221.879058
 11
544.933709
 21
221.819205
  0
LINE
  8
CSLAYER4
  6
CONTINUOUS
 62
     7
 10
544.933709
 20
221.819205
 11
544.905528
 21
221.760673
  0
LINE
  8
CSLAYER4
  6
CONTINUOUS
 62
     7
 10
544.905528
 20
221.760673
 11
544.874094
 21
221.703838
  0
LINE
  8
CSLAYER4
  6
CONTINUOUS
 62
     7
 10
544.874094
 20
221.703838
 11
544.839734
 21
221.649189
  0
LINE
  8
CSLAYER4
  6
CONTINUOUS
 62
     7
 10
544.839734
 20
221.649189
 11
544.802594
 21
221.596681
  0
LINE
  8
CSLAYER4
  6
CONTINUOUS
 62
     7
 10
544.802594
 20
221.596681
 11
544.762836
 21
221.546274
  0
LINE
  8
CSLAYER4
  6
CONTINUOUS
 62
     7
 10
544.762836
 20
221.546274
 11
544.720587
 21
221.497908
  0
LINE
  8
CSLAYER4
  6
CONTINUOUS
 62
     7
 10
544.720587
 20
221.497908
 11
544.675989
 21
221.451528
  0
LINE
  8
CSLAYER4
  6
CONTINUOUS
 62
     7
 10
544.675989
 20
221.451528
 11
544.629146
 21
221.407095
  0
LINE
  8
CSLAYER4
  6
CONTINUOUS
 62
     7
 10
544.629146
 20
221.407095
 11
544.580244
 21
221.364556
  0
LINE
  8
CSLAYER4
  6
CONTINUOUS
 62
     7
 10
544.580244
 20
221.364556
 11
544.529487
 21
221.323956
  0
LINE
  8
CSLAYER4
  6
CONTINUOUS
 62
     7
 10
544.529487
 20
221.323956
 11
544.477143
 21
221.285292
  0
LINE
  8
CSLAYER4
  6
CONTINUOUS
 62
     7
 10
544.477143
 20
221.285292
 11
544.423379
 21
221.248510
  0
LINE
  8
CSLAYER4
  6
CONTINUOUS
 62
     7
 10
544.423379
 20
221.248510
 11
544.368380
 21
221.213554
  0
LINE
  8
CSLAYER4
  6
CONTINUOUS
 62
     7
 10
544.368380
 20
221.213554
 11
544.312328
 21
221.180389
  0
LINE
  8
CSLAYER4
  6
CONTINUOUS
 62
     7
 10
544.312328
 20
221.180389
 11
544.255392
 21
221.148933
  0
LINE
  8
CSLAYER4
  6
CONTINUOUS
 62
     7
 10
544.255392
 20
221.148933
 11
544.197734
 21
221.119147
  0
LINE
  8
CSLAYER4
  6
CONTINUOUS
 62
     7
 10
544.197734
 20
221.119147
 11
544.141910
 21
221.102760
  0
LINE
  8
CSLAYER4
  6
CONTINUOUS
 62
     7
 10
544.141910
 20
221.102760
 11
544.085828
 21
221.087887
  0
LINE
  8
CSLAYER4
  6
CONTINUOUS
 62
     7
 10
544.085828
 20
221.087887
 11
544.029458
 21
221.074558
  0
LINE
  8
CSLAYER4
  6
CONTINUOUS
 62
     7
 10
544.029458
 20
221.074558
 11
543.972819
 21
221.062786
  0
LINE
  8
CSLAYER4
  6
CONTINUOUS
 62
     7
 10
543.972819
 20
221.062786
 11
543.915903
 21
221.052601
  0
LINE
  8
CSLAYER4
  6
CONTINUOUS
 62
     7
 10
543.915903
 20
221.052601
 11
543.858710
 21
221.044011
  0
LINE
  8
CSLAYER4
  6
CONTINUOUS
 62
     7
 10
543.858710
 20
221.044011
 11
543.801248
 21
221.037069
  0
LINE
  8
CSLAYER4
  6
CONTINUOUS
 62
     7
 10
543.801248
 20
221.037069
 11
543.743519
 21
221.031775
  0
LINE
  8
CSLAYER4
  6
CONTINUOUS
 62
     7
 10
543.743519
 20
221.031775
 11
543.685521
 21
221.028159
  0
LINE
  8
CSLAYER4
  6
CONTINUOUS
 62
     7
 10
543.685521
 20
221.028159
 11
543.627513
 21
221.026264
  0
LINE
  8
CSLAYER4
  6
CONTINUOUS
 62
     7
 10
543.627513
 20
221.026264
 11
543.569639
 21
221.026069
  0
LINE
  8
CSLAYER4
  6
CONTINUOUS
 62
     7
 10
543.569639
 20
221.026069
 11
543.511889
 21
221.027562
  0
LINE
  8
CSLAYER4
  6
CONTINUOUS
 62
     7
 10
543.511889
 20
221.027562
 11
543.454251
 21
221.030755
  0
LINE
  8
CSLAYER4
  6
CONTINUOUS
 62
     7
 10
543.454251
 20
221.030755
 11
543.396749
 21
221.035606
  0
LINE
  8
CSLAYER4
  6
CONTINUOUS
 62
     7
 10
543.396749
 20
221.035606
 11
543.339369
 21
221.042136
  0
LINE
  8
CSLAYER4
  6
CONTINUOUS
 62
     7
 10
543.339369
 20
221.042136
 11
543.282102
 21
221.050314
  0
LINE
  8
CSLAYER4
  6
CONTINUOUS
 62
     7
 10
543.282102
 20
221.050314
 11
543.224970
 21
221.060130
  0
LINE
  8
CSLAYER4
  6
CONTINUOUS
 62
     7
 10
543.224970
 20
221.060130
 11
543.167993
 21
221.071573
  0
LINE
  8
CSLAYER4
  6
CONTINUOUS
 62
     7
 10
543.167993
 20
221.071573
 11
543.111395
 21
221.084571
  0
LINE
  8
CSLAYER4
  6
CONTINUOUS
 62
     7
 10
543.111395
 20
221.084571
 11
543.055200
 21
221.099083
  0
LINE
  8
CSLAYER4
  6
CONTINUOUS
 62
     7
 10
543.055200
 20
221.099083
 11
542.999429
 21
221.115079
  0
LINE
  8
CSLAYER4
  6
CONTINUOUS
 62
     7
 10
542.999429
 20
221.115079
 11
542.944077
 21
221.132515
  0
LINE
  8
CSLAYER4
  6
CONTINUOUS
 62
     7
 10
542.944077
 20
221.132515
 11
542.889138
 21
221.151354
  0
LINE
  8
CSLAYER4
  6
CONTINUOUS
 62
     7
 10
542.889138
 20
221.151354
 11
542.834622
 21
221.171572
  0
LINE
  8
CSLAYER4
  6
CONTINUOUS
 62
     7
 10
542.834622
 20
221.171572
 11
542.796524
 21
221.187268
  0
LINE
  8
CSLAYER4
  6
CONTINUOUS
 62
     7
 10
542.796524
 20
221.187268
 11
542.758724
 21
221.203770
  0
LINE
  8
CSLAYER4
  6
CONTINUOUS
 62
     7
 10
542.758724
 20
221.203770
 11
542.721294
 21
221.221104
  0
LINE
  8
CSLAYER4
  6
CONTINUOUS
 62
     7
 10
542.721294
 20
221.221104
 11
542.684258
 21
221.239282
  0
LINE
  8
CSLAYER4
  6
CONTINUOUS
 62
     7
 10
542.684258
 20
221.239282
 11
542.647664
 21
221.258347
  0
LINE
  8
CSLAYER4
  6
CONTINUOUS
 62
     7
 10
542.647664
 20
221.258347
 11
542.611553
 21
221.278297
  0
LINE
  8
CSLAYER4
  6
CONTINUOUS
 62
     7
 10
542.611553
 20
221.278297
 11
542.575977
 21
221.299174
  0
LINE
  8
CSLAYER4
  6
CONTINUOUS
 62
     7
 10
542.575977
 20
221.299174
 11
542.540969
 21
221.320999
  0
LINE
  8
CSLAYER4
  6
CONTINUOUS
 62
     7
 10
542.540969
 20
221.320999
 11
542.506568
 21
221.343783
  0
LINE
  8
CSLAYER4
  6
CONTINUOUS
 62
     7
 10
542.506568
 20
221.343783
 11
542.472846
 21
221.367544
  0
LINE
  8
CSLAYER4
  6
CONTINUOUS
 62
     7
 10
542.472846
 20
221.367544
 11
542.439908
 21
221.392243
  0
LINE
  8
CSLAYER4
  6
CONTINUOUS
 62
     7
 10
542.439908
 20
221.392243
 11
542.407805
 21
221.417889
  0
LINE
  8
CSLAYER4
  6
CONTINUOUS
 62
     7
 10
542.407805
 20
221.417889
 11
542.376566
 21
221.444503
  0
LINE
  8
CSLAYER4
  6
CONTINUOUS
 62
     7
 10
542.376566
 20
221.444503
 11
542.346212
 21
221.472096
  0
LINE
  8
CSLAYER4
  6
CONTINUOUS
 62
     7
 10
542.346212
 20
221.472096
 11
542.316776
 21
221.500689
  0
LINE
  8
CSLAYER4
  6
CONTINUOUS
 62
     7
 10
542.316776
 20
221.500689
 11
542.288286
 21
221.530300
  0
LINE
  8
CSLAYER4
  6
CONTINUOUS
 62
     7
 10
542.288286
 20
221.530300
 11
542.260776
 21
221.560941
  0
LINE
  8
CSLAYER4
  6
CONTINUOUS
 62
     7
 10
542.260776
 20
221.560941
 11
542.234276
 21
221.592633
  0
LINE
  8
CSLAYER4
  6
CONTINUOUS
 62
     7
 10
542.234276
 20
221.592633
 11
542.208906
 21
221.625273
  0
LINE
  8
CSLAYER4
  6
CONTINUOUS
 62
     7
 10
542.208906
 20
221.625273
 11
542.184774
 21
221.658736
  0
LINE
  8
CSLAYER4
  6
CONTINUOUS
 62
     7
 10
542.184774
 20
221.658736
 11
542.161889
 21
221.693004
  0
LINE
  8
CSLAYER4
  6
CONTINUOUS
 62
     7
 10
542.161889
 20
221.693004
 11
542.140239
 21
221.728084
  0
LINE
  8
CSLAYER4
  6
CONTINUOUS
 62
     7
 10
542.140239
 20
221.728084
 11
542.119824
 21
221.763990
  0
LINE
  8
CSLAYER4
  6
CONTINUOUS
 62
     7
 10
542.119824
 20
221.763990
 11
542.100647
 21
221.800696
  0
LINE
  8
CSLAYER4
  6
CONTINUOUS
 62
     7
 10
542.100647
 20
221.800696
 11
542.080058
 21
221.843296
  0
LINE
  8
CSLAYER4
  6
CONTINUOUS
 62
     7
 10
542.080058
 20
221.843296
 11
542.060252
 21
221.887090
  0
LINE
  8
CSLAYER4
  6
CONTINUOUS
 62
     7
 10
542.060252
 20
221.887090
 11
542.041218
 21
221.932008
  0
LINE
  8
CSLAYER4
  6
CONTINUOUS
 62
     7
 10
542.041218
 20
221.932008
 11
542.022926
 21
221.977975
  0
LINE
  8
CSLAYER4
  6
CONTINUOUS
 62
     7
 10
542.022926
 20
221.977975
 11
542.005365
 21
222.024912
  0
LINE
  8
CSLAYER4
  6
CONTINUOUS
 62
     7
 10
542.005365
 20
222.024912
 11
541.988525
 21
222.072733
  0
LINE
  8
CSLAYER4
  6
CONTINUOUS
 62
     7
 10
541.988525
 20
222.072733
 11
541.972374
 21
222.121357
  0
LINE
  8
CSLAYER4
  6
CONTINUOUS
 62
     7
 10
541.972374
 20
222.121357
 11
541.956894
 21
222.170734
  0
LINE
  8
CSLAYER4
  6
CONTINUOUS
 62
     7
 10
541.956894
 20
222.170734
 11
541.942083
 21
222.220749
  0
LINE
  8
CSLAYER4
  6
CONTINUOUS
 62
     7
 10
541.942083
 20
222.220749
 11
541.927922
 21
222.271362
  0
LINE
  8
CSLAYER4
  6
CONTINUOUS
 62
     7
 10
541.927922
 20
222.271362
 11
541.914377
 21
222.322470
  0
LINE
  8
CSLAYER4
  6
CONTINUOUS
 62
     7
 10
541.914377
 20
222.322470
 11
541.901441
 21
222.373998
  0
LINE
  8
CSLAYER4
  6
CONTINUOUS
 62
     7
 10
541.901441
 20
222.373998
 11
541.889091
 21
222.425877
  0
LINE
  8
CSLAYER4
  6
CONTINUOUS
 62
     7
 10
541.889091
 20
222.425877
 11
541.877319
 21
222.478026
  0
LINE
  8
CSLAYER4
  6
CONTINUOUS
 62
     7
 10
541.877319
 20
222.478026
 11
541.866092
 21
222.530358
  0
LINE
  8
CSLAYER4
  6
CONTINUOUS
 62
     7
 10
541.866092
 20
222.530358
 11
541.855412
 21
222.582814
  0
LINE
  8
CSLAYER4
  6
CONTINUOUS
 62
     7
 10
541.855412
 20
222.582814
 11
541.845234
 21
222.635322
  0
LINE
  8
CSLAYER4
  6
CONTINUOUS
 62
     7
 10
541.845234
 20
222.635322
 11
541.835532
 21
222.688036
  0
LINE
  8
CSLAYER4
  6
CONTINUOUS
 62
     7
 10
541.835532
 20
222.688036
 11
541.826262
 21
222.740944
  0
LINE
  8
CSLAYER4
  6
CONTINUOUS
 62
     7
 10
541.826262
 20
222.740944
 11
541.817415
 21
222.794008
  0
LINE
  8
CSLAYER4
  6
CONTINUOUS
 62
     7
 10
541.817415
 20
222.794008
 11
541.808991
 21
222.847156
  0
LINE
  8
CSLAYER4
  6
CONTINUOUS
 62
     7
 10
541.808991
 20
222.847156
 11
541.800968
 21
222.900322
  0
LINE
  8
CSLAYER4
  6
CONTINUOUS
 62
     7
 10
541.800968
 20
222.900322
 11
541.793336
 21
222.953469
  0
LINE
  8
CSLAYER4
  6
CONTINUOUS
 62
     7
 10
541.793336
 20
222.953469
 11
541.786085
 21
223.006522
  0
LINE
  8
CSLAYER4
  6
CONTINUOUS
 62
     7
 10
540.108411
 20
223.006521
 11
541.786082
 21
223.006521
  0
LINE
  8
CSLAYER4
  6
CONTINUOUS
 62
     7
 10
540.108410
 20
223.006522
 11
540.124065
 21
222.820603
  0
LINE
  8
CSLAYER4
  6
CONTINUOUS
 62
     7
 10
540.124065
 20
222.820603
 11
540.144273
 21
222.634374
  0
LINE
  8
CSLAYER4
  6
CONTINUOUS
 62
     7
 10
540.144273
 20
222.634374
 11
540.169374
 21
222.448362
  0
LINE
  8
CSLAYER4
  6
CONTINUOUS
 62
     7
 10
540.169374
 20
222.448362
 11
540.199706
 21
222.263122
  0
LINE
  8
CSLAYER4
  6
CONTINUOUS
 62
     7
 10
540.199706
 20
222.263122
 11
540.235611
 21
222.079201
  0
LINE
  8
CSLAYER4
  6
CONTINUOUS
 62
     7
 10
540.235611
 20
222.079201
 11
540.277428
 21
221.897133
  0
LINE
  8
CSLAYER4
  6
CONTINUOUS
 62
     7
 10
540.277428
 20
221.897133
 11
540.325527
 21
221.717341
  0
LINE
  8
CSLAYER4
  6
CONTINUOUS
 62
     7
 10
540.325527
 20
221.717341
 11
540.380547
 21
221.539539
  0
LINE
  8
CSLAYER4
  6
CONTINUOUS
 62
     7
 10
540.380547
 20
221.539539
 11
540.442974
 21
221.364228
  0
LINE
  8
CSLAYER4
  6
CONTINUOUS
 62
     7
 10
540.442974
 20
221.364228
 11
540.513249
 21
221.192089
  0
LINE
  8
CSLAYER4
  6
CONTINUOUS
 62
     7
 10
540.513249
 20
221.192089
 11
540.591816
 21
221.023833
  0
LINE
  8
CSLAYER4
  6
CONTINUOUS
 62
     7
 10
540.591816
 20
221.023833
 11
540.679116
 21
220.860120
  0
LINE
  8
CSLAYER4
  6
CONTINUOUS
 62
     7
 10
540.679116
 20
220.860120
 11
540.775232
 21
220.702227
  0
LINE
  8
CSLAYER4
  6
CONTINUOUS
 62
     7
 10
540.775232
 20
220.702227
 11
540.879857
 21
220.551594
  0
LINE
  8
CSLAYER4
  6
CONTINUOUS
 62
     7
 10
540.879857
 20
220.551594
 11
540.993257
 21
220.408593
  0
LINE
  8
CSLAYER4
  6
CONTINUOUS
 62
     7
 10
540.993257
 20
220.408593
 11
541.115667
 21
220.273584
  0
LINE
  8
CSLAYER4
  6
CONTINUOUS
 62
     7
 10
541.115667
 20
220.273584
 11
541.247360
 21
220.146897
  0
LINE
  8
CSLAYER4
  6
CONTINUOUS
 62
     7
 10
541.247360
 20
220.146897
 11
541.388537
 21
220.028935
  0
LINE
  8
CSLAYER4
  6
CONTINUOUS
 62
     7
 10
541.388537
 20
220.028935
 11
541.537140
 21
219.921571
  0
LINE
  8
CSLAYER4
  6
CONTINUOUS
 62
     7
 10
541.537140
 20
219.921571
 11
541.691697
 21
219.825486
  0
LINE
  8
CSLAYER4
  6
CONTINUOUS
 62
     7
 10
541.691697
 20
219.825486
 11
541.851867
 21
219.740287
  0
LINE
  8
CSLAYER4
  6
CONTINUOUS
 62
     7
 10
541.851867
 20
219.740287
 11
542.017322
 21
219.665614
  0
LINE
  8
CSLAYER4
  6
CONTINUOUS
 62
     7
 10
542.017322
 20
219.665614
 11
542.187741
 21
219.601087
  0
LINE
  8
CSLAYER4
  6
CONTINUOUS
 62
     7
 10
542.187741
 20
219.601087
 11
542.362784
 21
219.546322
  0
ENDBLK
  8
0
  0
BLOCK
  8
CSLAYER1
  2
BLKF0010
 70
   64
 10
0.0
 20
0.0
 30
0.0
  0
LINE
  8
CSLAYER4
  6
CONTINUOUS
 62
     7
 10
562.254243
 20
224.846601
 11
562.287975
 21
224.315317
  0
LINE
  8
CSLAYER4
  6
CONTINUOUS
 62
     7
 10
562.287975
 20
224.315317
 11
562.376408
 21
223.778292
  0
LINE
  8
CSLAYER4
  6
CONTINUOUS
 62
     7
 10
562.376408
 20
223.778292
 11
562.519760
 21
223.245963
  0
LINE
  8
CSLAYER4
  6
CONTINUOUS
 62
     7
 10
562.519760
 20
223.245963
 11
562.718204
 21
222.728743
  0
LINE
  8
CSLAYER4
  6
CONTINUOUS
 62
     7
 10
562.718204
 20
222.728743
 11
562.969710
 21
222.236034
  0
LINE
  8
CSLAYER4
  6
CONTINUOUS
 62
     7
 10
562.969710
 20
222.236034
 11
563.267156
 21
221.775076
  0
LINE
  8
CSLAYER4
  6
CONTINUOUS
 62
     7
 10
563.267156
 20
221.775076
 11
563.602698
 21
221.352825
  0
LINE
  8
CSLAYER4
  6
CONTINUOUS
 62
     7
 10
563.602698
 20
221.352825
 11
563.969748
 21
220.975068
  0
LINE
  8
CSLAYER4
  6
CONTINUOUS
 62
     7
 10
563.969748
 20
220.975068
 11
564.378821
 21
220.631055
  0
LINE
  8
CSLAYER4
  6
CONTINUOUS
 62
     7
 10
564.378821
 20
220.631055
 11
564.828917
 21
220.322280
  0
LINE
  8
CSLAYER4
  6
CONTINUOUS
 62
     7
 10
564.828917
 20
220.322280
 11
565.312982
 21
220.056312
  0
LINE
  8
CSLAYER4
  6
CONTINUOUS
 62
     7
 10
565.312982
 20
220.056312
 11
565.823918
 21
219.840646
  0
LINE
  8
CSLAYER4
  6
CONTINUOUS
 62
     7
 10
565.823918
 20
219.840646
 11
566.353239
 21
219.679410
  0
LINE
  8
CSLAYER4
  6
CONTINUOUS
 62
     7
 10
566.353239
 20
219.679410
 11
566.890646
 21
219.572395
  0
LINE
  8
CSLAYER4
  6
CONTINUOUS
 62
     7
 10
566.890646
 20
219.572395
 11
567.425756
 21
219.519121
  0
LINE
  8
CSLAYER4
  6
CONTINUOUS
 62
     7
 10
567.425756
 20
219.519121
 11
567.952614
 21
219.519121
  0
LINE
  8
CSLAYER4
  6
CONTINUOUS
 62
     7
 10
567.952614
 20
219.519121
 11
568.487714
 21
219.572395
  0
LINE
  8
CSLAYER4
  6
CONTINUOUS
 62
     7
 10
568.487714
 20
219.572395
 11
569.025131
 21
219.679410
  0
LINE
  8
CSLAYER4
  6
CONTINUOUS
 62
     7
 10
569.025131
 20
219.679410
 11
569.554452
 21
219.840646
  0
LINE
  8
CSLAYER4
  6
CONTINUOUS
 62
     7
 10
569.554452
 20
219.840646
 11
570.065378
 21
220.056312
  0
LINE
  8
CSLAYER4
  6
CONTINUOUS
 62
     7
 10
570.065378
 20
220.056312
 11
570.549443
 21
220.322280
  0
LINE
  8
CSLAYER4
  6
CONTINUOUS
 62
     7
 10
570.549443
 20
220.322280
 11
570.999549
 21
220.631055
  0
LINE
  8
CSLAYER4
  6
CONTINUOUS
 62
     7
 10
570.999549
 20
220.631055
 11
571.408622
 21
220.975068
  0
LINE
  8
CSLAYER4
  6
CONTINUOUS
 62
     7
 10
571.408622
 20
220.975068
 11
571.775661
 21
221.352825
  0
LINE
  8
CSLAYER4
  6
CONTINUOUS
 62
     7
 10
571.775661
 20
221.352825
 11
572.111216
 21
221.775076
  0
LINE
  8
CSLAYER4
  6
CONTINUOUS
 62
     7
 10
572.111216
 20
221.775076
 11
572.408660
 21
222.236034
  0
LINE
  8
CSLAYER4
  6
CONTINUOUS
 62
     7
 10
572.408660
 20
222.236034
 11
572.660157
 21
222.728743
  0
LINE
  8
CSLAYER4
  6
CONTINUOUS
 62
     7
 10
572.660157
 20
222.728743
 11
572.858612
 21
223.245963
  0
LINE
  8
CSLAYER4
  6
CONTINUOUS
 62
     7
 10
572.858612
 20
223.245963
 11
573.001952
 21
223.778292
  0
LINE
  8
CSLAYER4
  6
CONTINUOUS
 62
     7
 10
573.001952
 20
223.778292
 11
573.090395
 21
224.315317
  0
LINE
  8
CSLAYER4
  6
CONTINUOUS
 62
     7
 10
573.090395
 20
224.315317
 11
573.124127
 21
224.846601
  0
LINE
  8
CSLAYER4
  6
CONTINUOUS
 62
     7
 10
573.124127
 20
224.846601
 11
573.124292
 21
224.861530
  0
LINE
  8
CSLAYER4
  6
CONTINUOUS
 62
     7
 10
573.124292
 20
224.861530
 11
573.103064
 21
225.402022
  0
LINE
  8
CSLAYER4
  6
CONTINUOUS
 62
     7
 10
573.103064
 20
225.402022
 11
573.029411
 21
225.936802
  0
LINE
  8
CSLAYER4
  6
CONTINUOUS
 62
     7
 10
573.029411
 20
225.936802
 11
572.903972
 21
226.461993
  0
LINE
  8
CSLAYER4
  6
CONTINUOUS
 62
     7
 10
572.903972
 20
226.461993
 11
572.727806
 21
226.972681
  0
LINE
  8
CSLAYER4
  6
CONTINUOUS
 62
     7
 10
572.727806
 20
226.972681
 11
572.503344
 21
227.462164
  0
LINE
  8
CSLAYER4
  6
CONTINUOUS
 62
     7
 10
572.503344
 20
227.462164
 11
572.232545
 21
227.926824
  0
LINE
  8
CSLAYER4
  6
CONTINUOUS
 62
     7
 10
572.232545
 20
227.926824
 11
571.917293
 21
228.363211
  0
LINE
  8
CSLAYER4
  6
CONTINUOUS
 62
     7
 10
571.917293
 20
228.363211
 11
571.560254
 21
228.767073
  0
LINE
  8
CSLAYER4
  6
CONTINUOUS
 62
     7
 10
571.560254
 20
228.767073
 11
571.166219
 21
229.132923
  0
LINE
  8
CSLAYER4
  6
CONTINUOUS
 62
     7
 10
571.166219
 20
229.132923
 11
570.738288
 21
229.458000
  0
LINE
  8
CSLAYER4
  6
CONTINUOUS
 62
     7
 10
570.738288
 20
229.458000
 11
570.279458
 21
229.739718
  0
LINE
  8
CSLAYER4
  6
CONTINUOUS
 62
     7
 10
570.279458
 20
229.739718
 11
569.793704
 21
229.975035
  0
LINE
  8
CSLAYER4
  6
CONTINUOUS
 62
     7
 10
569.793704
 20
229.975035
 11
569.287206
 21
230.160660
  0
LINE
  8
CSLAYER4
  6
CONTINUOUS
 62
     7
 10
569.287206
 20
230.160660
 11
568.763787
 21
230.294962
  0
LINE
  8
CSLAYER4
  6
CONTINUOUS
 62
     7
 10
568.763787
 20
230.294962
 11
568.229295
 21
230.376181
  0
LINE
  8
CSLAYER4
  6
CONTINUOUS
 62
     7
 10
568.229295
 20
230.376181
 11
567.688964
 21
230.403363
  0
LINE
  8
CSLAYER4
  6
CONTINUOUS
 62
     7
 10
567.688964
 20
230.403363
 11
567.148827
 21
230.376156
  0
LINE
  8
CSLAYER4
  6
CONTINUOUS
 62
     7
 10
567.148827
 20
230.376156
 11
566.614202
 21
230.294886
  0
LINE
  8
CSLAYER4
  6
CONTINUOUS
 62
     7
 10
566.614202
 20
230.294886
 11
566.090937
 21
230.160588
  0
LINE
  8
CSLAYER4
  6
CONTINUOUS
 62
     7
 10
566.090937
 20
230.160588
 11
565.583945
 21
229.974735
  0
LINE
  8
CSLAYER4
  6
CONTINUOUS
 62
     7
 10
565.583945
 20
229.974735
 11
565.099346
 21
229.739955
  0
LINE
  8
CSLAYER4
  6
CONTINUOUS
 62
     7
 10
565.099346
 20
229.739955
 11
564.640628
 21
229.458376
  0
LINE
  8
CSLAYER4
  6
CONTINUOUS
 62
     7
 10
564.640628
 20
229.458376
 11
564.211307
 21
229.132212
  0
LINE
  8
CSLAYER4
  6
CONTINUOUS
 62
     7
 10
564.211307
 20
229.132212
 11
563.816870
 21
228.765795
  0
LINE
  8
CSLAYER4
  6
CONTINUOUS
 62
     7
 10
563.816870
 20
228.765795
 11
563.460677
 21
228.362712
  0
LINE
  8
CSLAYER4
  6
CONTINUOUS
 62
     7
 10
563.460677
 20
228.362712
 11
563.145258
 21
227.925958
  0
LINE
  8
CSLAYER4
  6
CONTINUOUS
 62
     7
 10
563.145258
 20
227.925958
 11
562.873790
 21
227.459800
  0
LINE
  8
CSLAYER4
  6
CONTINUOUS
 62
     7
 10
562.873790
 20
227.459800
 11
562.649556
 21
226.970169
  0
LINE
  8
CSLAYER4
  6
CONTINUOUS
 62
     7
 10
562.649556
 20
226.970169
 11
562.474038
 21
226.460767
  0
LINE
  8
CSLAYER4
  6
CONTINUOUS
 62
     7
 10
562.474038
 20
226.460767
 11
562.348661
 21
225.935220
  0
LINE
  8
CSLAYER4
  6
CONTINUOUS
 62
     7
 10
562.348661
 20
225.935220
 11
562.275143
 21
225.400132
  0
LINE
  8
CSLAYER4
  6
CONTINUOUS
 62
     7
 10
562.275143
 20
225.400132
 11
562.254078
 21
224.861530
  0
LINE
  8
CSLAYER4
  6
CONTINUOUS
 62
     7
 10
562.254078
 20
224.861530
 11
562.254243
 21
224.846601
  0
CIRCLE
  8
CSLAYER4
  6
CONTINUOUS
 62
     7
 10
567.689186
 20
224.912487
 40
4.860000
  0
ENDBLK
  8
0
  0
ENDSEC
  0
SECTION
  2
ENTITIES
  0
LINE
  8
CSLAYER1
  6
CONTINUOUS
 62
     7
 10
482.462778
 20
122.174051
 11
482.462778
 21
155.174051
  0
LINE
  8
CSLAYER1
  6
CONTINUOUS
 62
     7
 10
473.962778
 20
327.804273
 11
473.962778
 21
340.174051
  0
LINE
  8
CSLAYER1
  6
CONTINUOUS
 62
     7
 10
435.962778
 20
345.174051
 11
433.962778
 21
347.174051
  0
ARC
  8
CSLAYER1
  6
CONTINUOUS
 62
     7
 10
468.962778
 20
340.174051
 40
5.000000
 50
0.000000
 51
90.000000
  0
LINE
  8
CSLAYER1
  6
CONTINUOUS
 62
     7
 10
435.962778
 20
345.174051
 11
711.962778
 21
345.174051
  0
LINE
  8
CSLAYER1
  6
CONTINUOUS
 62
     7
 10
433.962778
 20
369.674051
 11
433.962778
 21
347.174051
  0
LINE
  8
CSLAYER1
  6
CONTINUOUS
 62
     7
 10
435.462778
 20
371.174051
 11
712.462778
 21
371.174051
  0
LINE
  8
CSLAYER1
  6
CONTINUOUS
 62
     7
 10
435.962778
 20
117.174051
 11
433.962778
 21
115.174051
  0
LINE
  8
CSLAYER1
  6
CONTINUOUS
 62
     7
 10
433.962778
 20
92.674051
 11
433.962778
 21
115.174051
  0
LINE
  8
CSLAYER1
  6
CONTINUOUS
 62
     7
 10
435.962778
 20
117.174051
 11
477.462778
 21
117.174051
  0
ARC
  8
CSLAYER1
  6
CONTINUOUS
 62
     7
 10
477.462778
 20
122.174051
 40
5.000000
 50
270.000000
 51
360.000000
  0
LINE
  8
CSLAYER1
  6
CENTER
 62
     7
 10
453.962778
 20
84.507384
 11
453.962778
 21
123.840718
  0
LINE
  8
CSLAYER1
  6
CENTER
 62
     7
 10
453.962778
 20
338.507384
 11
453.962778
 21
377.840718
  0
LINE
  8
CSLAYER1
  6
CENTER
 62
     7
 10
573.962778
 20
86.174051
 11
573.962778
 21
231.174051
  0
LINE
  8
CSLAYER1
  6
CONTINUOUS
 62
     7
 10
435.462778
 20
91.174051
 11
433.962778
 21
92.674051
  0
LINE
  8
CSLAYER1
  6
CONTINUOUS
 62
     7
 10
433.962778
 20
369.674051
 11
435.462778
 21
371.174051
  0
LINE
  8
CSLAYER1
  6
CONTINUOUS
 62
     7
 10
467.962778
 20
165.174051
 11
679.962778
 21
165.174051
  0
ARC
  8
CSLAYER1
  6
CONTINUOUS
 62
     7
 10
472.462778
 20
155.174051
 40
10.000000
 50
0.000000
 51
90.000000
  0
LINE
  8
CSLAYER1
  6
CONTINUOUS
 62
     7
 10
442.962778
 20
190.174051
 11
442.962778
 21
283.925652
  0
ARC
  8
CSLAYER1
  6
CONTINUOUS
 62
     7
 10
467.962778
 20
190.174051
 40
25.000000
 50
180.000000
 51
270.000000
  0
LINE
  8
CSLAYER1
  6
CONTINUOUS
 62
     7
 10
466.462778
 20
314.813892
 11
457.962778
 21
309.906414
  0
ARC
  8
CSLAYER1
  6
CONTINUOUS
 62
     7
 10
472.962778
 20
283.925652
 40
30.000000
 50
120.000000
 51
180.000000
  0
ARC
  8
CSLAYER1
  6
CONTINUOUS
 62
     7
 10
458.962778
 20
327.804273
 40
15.000000
 50
300.000000
 51
360.000000
  0
LINE
  8
CSLAYER1
  6
CONTINUOUS
 62
     7
 10
673.962778
 20
327.804273
 11
673.962778
 21
340.174051
  0
LINE
  8
CSLAYER1
  6
CONTINUOUS
 62
     7
 10
711.962778
 20
345.174051
 11
713.962778
 21
347.174051
  0
ARC
  8
CSLAYER1
  6
CONTINUOUS
 62
     7
 10
678.962778
 20
340.174051
 40
5.000000
 50
90.000000
 51
180.000000
  0
LINE
  8
CSLAYER1
  6
CONTINUOUS
 62
     7
 10
435.462778
 20
91.174051
 11
712.462778
 21
91.174051
  0
LINE
  8
CSLAYER1
  6
CONTINUOUS
 62
     7
 10
713.962778
 20
369.674051
 11
713.962778
 21
347.174051
  0
LINE
  8
CSLAYER1
  6
CONTINUOUS
 62
     7
 10
711.962778
 20
117.174051
 11
713.962778
 21
115.174051
  0
LINE
  8
CSLAYER1
  6
CONTINUOUS
 62
     7
 10
713.962778
 20
92.674051
 11
713.962778
 21
115.174051
  0
LINE
  8
CSLAYER1
  6
CONTINUOUS
 62
     7
 10
711.962778
 20
117.174051
 11
435.962778
 21
117.174051
  0
ARC
  8
CSLAYER1
  6
CONTINUOUS
 62
     7
 10
670.462778
 20
122.174051
 40
5.000000
 50
180.000000
 51
270.000000
  0
LINE
  8
CSLAYER1
  6
CENTER
 62
     7
 10
693.962778
 20
84.507384
 11
693.962778
 21
123.840718
  0
LINE
  8
CSLAYER1
  6
CENTER
 62
     7
 10
693.962778
 20
338.507384
 11
693.962778
 21
377.840718
  0
LINE
  8
CSLAYER1
  6
CONTINUOUS
 62
     7
 10
712.462778
 20
91.174051
 11
713.962778
 21
92.674051
  0
LINE
  8
CSLAYER1
  6
CONTINUOUS
 62
     7
 10
713.962778
 20
369.674051
 11
712.462778
 21
371.174051
  0
LINE
  8
CSLAYER1
  6
CONTINUOUS
 62
     7
 10
681.462778
 20
314.813892
 11
689.962778
 21
309.906414
  0
ARC
  8
CSLAYER1
  6
CONTINUOUS
 62
     7
 10
674.962778
 20
283.925652
 40
30.000000
 50
0.000000
 51
60.000000
  0
ARC
  8
CSLAYER1
  6
CONTINUOUS
 62
     7
 10
688.962778
 20
327.804273
 40
15.000000
 50
180.000000
 51
240.000000
  0
LINE
  8
CSLAYER1
  6
CONTINUOUS
 62
     7
 10
667.962778
 20
133.103285
 11
710.962778
 21
157.929347
  0
LINE
  8
CSLAYER1
  6
CONTINUOUS
 62
     7
 10
738.462778
 20
211.804822
 11
738.462778
 21
250.674051
  0
LINE
  8
CSLAYER1
  6
CONTINUOUS
 62
     7
 10
707.783992
 20
254.505620
 11
736.335794
 21
252.801035
  0
LINE
  8
CSLAYER1
  6
CONTINUOUS
 62
     7
 10
728.783992
 20
209.096213
 11
736.466333
 21
209.554860
  0
LINE
  8
CSLAYER1
  6
CONTINUOUS
 62
     7
 10
725.962778
 20
206.101545
 11
725.962778
 21
183.910109
  0
LINE
  8
CSLAYER1
  6
CONTINUOUS
 62
     7
 10
704.962778
 20
257.500288
 11
704.962778
 21
283.925652
  0
ARC
  8
CSLAYER1
  6
CONTINUOUS
 62
     7
 10
695.962778
 20
183.910109
 40
30.000000
 50
300.000000
 51
360.000000
  0
ARC
  8
CSLAYER1
  6
CONTINUOUS
 62
     7
 10
670.462778
 20
128.773158
 40
5.000000
 50
120.000000
 51
180.000000
  0
ARC
  8
CSLAYER1
  6
CONTINUOUS
 62
     7
 10
707.962778
 20
257.500288
 40
3.000000
 50
180.000000
 51
266.583412
  0
ARC
  8
CSLAYER1
  6
CONTINUOUS
 62
     7
 10
728.962778
 20
206.101545
 40
3.000000
 50
93.416588
 51
180.000000
  0
LINE
  8
CSLAYER1
  6
CONTINUOUS
 62
     7
 10
736.466333
 20
209.554860
 11
738.462778
 21
211.804822
  0
LINE
  8
CSLAYER1
  6
CONTINUOUS
 62
     7
 10
738.462778
 20
250.674051
 11
736.335794
 21
252.801035
  0
LINE
  8
CSLAYER1
  6
CENTER
 62
     2
 10
573.962778
 20
296.174051
 11
573.962778
 21
303.174051
  0
LINE
  8
CSLAYER1
  6
CENTER
 62
     7
 10
573.962778
 20
231.174051
 11
573.962778
 21
376.174051
  0
LINE
  8
CSLAYER1
  6
CONTINUOUS
 62
     7
 10
704.962778
 20
190.174051
 11
704.962778
 21
283.925652
  0
ARC
  8
CSLAYER1
  6
CONTINUOUS
 62
     7
 10
679.962778
 20
190.174051
 40
25.000000
 50
270.000000
 51
360.000000
  0
LINE
  8
CSLAYER1
  6
CONTINUOUS
 62
     7
 10
707.783992
 20
207.842482
 11
736.335794
 21
209.547067
  0
ARC
  8
CSLAYER1
  6
CONTINUOUS
 62
     7
 10
707.962778
 20
204.847814
 40
3.000000
 50
93.416588
 51
180.000000
  0
ARC
  8
CSLAYER1
  6
CONTINUOUS
 62
     7
 10
675.462778
 20
155.174051
 40
10.000000
 50
90.000000
 51
180.000000
  0
LINE
  8
CSLAYER1
  6
CONTINUOUS
 62
     7
 10
665.462778
 20
122.174051
 11
665.462778
 21
155.174051
  0
LINE
  8
CSLAYER1
  6
CONTINUOUS
 62
     7
 10
433.962778
 20
93.174051
 11
713.962778
 21
93.174051
  0
LINE
  8
CSLAYER1
  6
CONTINUOUS
 62
     7
 10
713.962778
 20
115.174051
 11
433.962778
 21
115.174051
  0
LINE
  8
CSLAYER1
  6
CONTINUOUS
 62
     7
 10
433.962778
 20
369.174051
 11
713.962778
 21
369.174051
  0
LINE
  8
CSLAYER1
  6
CONTINUOUS
 62
     7
 10
433.962778
 20
347.174051
 11
713.962778
 21
347.174051
  0
LINE
  8
CSLAYER1
  6
CONTINUOUS
 62
     7
 10
738.517171
 20
247.712685
 11
738.517171
 21
250.438888
  0
LINE
  8
CSLAYER1
  6
CONTINUOUS
 62
     7
 10
741.466938
 20
248.258386
 11
741.466938
 21
231.207351
  0
LINE
  8
CSLAYER1
  6
CONTINUOUS
 62
     7
 10
750.466938
 20
243.739320
 11
750.466938
 21
231.207351
  0
LINE
  8
CSLAYER1
  6
CONTINUOUS
 62
     7
 10
738.966253
 20
249.338406
 11
740.519274
 21
249.257016
  0
LINE
  8
CSLAYER1
  6
CONTINUOUS
 62
     7
 10
748.862450
 20
245.486407
 11
742.466938
 21
245.486407
  0
LINE
  8
CSLAYER1
  6
CONTINUOUS
 62
     7
 10
750.364053
 20
243.885554
 11
749.728475
 21
244.986407
  0
LINE
  8
CSLAYER1
  6
CONTINUOUS
 62
     7
 10
756.216938
 20
240.351688
 11
750.730078
 21
243.519528
  0
LINE
  8
CSLAYER1
  6
CONTINUOUS
 62
     7
 10
756.466938
 20
239.918675
 11
756.466938
 21
231.207351
  0
LINE
  8
CSLAYER1
  6
CONTINUOUS
 62
     7
 10
749.439800
 20
238.424229
 11
741.466938
 21
238.424229
  0
ARC
  8
CSLAYER1
  6
CONTINUOUS
 62
     7
 10
740.466938
 20
248.258386
 40
1.000000
 50
0.000000
 51
87.000000
  0
ARC
  8
CSLAYER1
  6
CONTINUOUS
 62
     7
 10
742.466938
 20
246.486407
 40
1.000000
 50
180.000000
 51
270.000000
  0
ARC
  8
CSLAYER1
  6
CONTINUOUS
 62
     7
 10
755.966938
 20
239.918675
 40
0.500000
 50
0.000000
 51
60.000000
  0
ARC
  8
CSLAYER1
  6
CONTINUOUS
 62
     7
 10
743.886707
 20
241.955318
 40
6.580686
 50
-32.451377
 51
27.532576
  0
ARC
  8
CSLAYER1
  6
CONTINUOUS
 62
     7
 10
724.599763
 20
231.207351
 40
25.867175
 50
0.000000
 51
16.200384
  0
ARC
  8
CSLAYER1
  6
CONTINUOUS
 62
     7
 10
751.230078
 20
244.385554
 40
1.000000
 50
210.000000
 51
240.000000
  0
ARC
  8
CSLAYER1
  6
CONTINUOUS
 62
     7
 10
748.862450
 20
244.486407
 40
1.000000
 50
30.000000
 51
90.000000
  0
LINE
  8
CSLAYER1
  6
CONTINUOUS
 62
     7
 10
738.966253
 20
249.338406
 11
738.466938
 21
248.888821
  0
LINE
  8
CSLAYER1
  6
CONTINUOUS
 62
     7
 10
738.966253
 20
249.338406
 11
738.966253
 21
231.207351
  0
LINE
  8
CSLAYER1
  6
CONTINUOUS
 62
     7
 10
761.966938
 20
235.707351
 11
759.566938
 21
238.107351
  0
LINE
  8
CSLAYER1
  6
CONTINUOUS
 62
     7
 10
756.466938
 20
238.107351
 11
759.566938
 21
238.107351
  0
LINE
  8
CSLAYER1
  6
CONTINUOUS
 62
     7
 10
761.966938
 20
235.707351
 11
761.966938
 21
231.207351
  0
LINE
  8
CSLAYER1
  6
CONTINUOUS
 62
     7
 10
759.566938
 20
238.107351
 11
759.566938
 21
231.207351
  0
LINE
  8
CSLAYER1
  6
CONTINUOUS
 62
     7
 10
779.966938
 20
233.207351
 11
779.966938
 21
231.207351
  0
LINE
  8
CSLAYER1
  6
CONTINUOUS
 62
     7
 10
778.966938
 20
234.207351
 11
779.966938
 21
233.207351
  0
LINE
  8
CSLAYER1
  6
CONTINUOUS
 62
     7
 10
779.966938
 20
229.207351
 11
779.966938
 21
231.207351
  0
LINE
  8
CSLAYER1
  6
CONTINUOUS
 62
     7
 10
762.966938
 20
242.707351
 11
764.166938
 21
242.707351
  0
LINE
  8
CSLAYER1
  6
CONTINUOUS
 62
     7
 10
772.966938
 20
256.207351
 11
766.842455
 21
256.207351
  0
ARC
  8
CSLAYER1
  6
CONTINUOUS
 62
     7
 10
772.966938
 20
255.207351
 40
1.000000
 50
0.000000
 51
90.000000
  0
ARC
  8
CSLAYER1
  6
CONTINUOUS
 62
     7
 10
766.842455
 20
255.207351
 40
1.000000
 50
90.000000
 51
172.405357
  0
LINE
  8
CSLAYER1
  6
CONTINUOUS
 62
     7
 10
773.966938
 20
236.157096
 11
773.966938
 21
255.207351
  0
LINE
  8
CSLAYER1
  6
CONTINUOUS
 62
     7
 10
765.851227
 20
255.339514
 11
764.166938
 21
242.707351
  0
LINE
  8
CSLAYER1
  6
CONTINUOUS
 62
     7
 10
773.966938
 20
234.207351
 11
773.966938
 21
231.207351
  0
LINE
  8
CSLAYER1
  6
CONTINUOUS
 62
     7
 10
778.520356
 20
236.980853
 11
773.966938
 21
236.980853
  0
LINE
  8
CSLAYER1
  6
CONTINUOUS
 62
     7
 10
778.520356
 20
234.094102
 11
773.966938
 21
234.094102
  0
LINE
  8
CSLAYER1
  6
CONTINUOUS
 62
     7
 10
778.966938
 20
236.207351
 11
778.520356
 21
236.980853
  0
ARC
  8
CSLAYER1
  6
CONTINUOUS
 62
     7
 10
775.688106
 20
235.537478
 40
3.178833
 50
-27.004365
 51
27.004365
  0
ARC
  8
CSLAYER1
  6
CONTINUOUS
 62
     7
 10
766.671480
 20
231.207351
 40
12.195458
 50
0.000000
 51
13.692271
  0
LINE
  8
CSLAYER1
  6
CONTINUOUS
 62
     7
 10
778.966938
 20
236.207351
 11
778.966938
 21
231.207351
  0
LINE
  8
CSLAYER1
  6
CONTINUOUS
 62
     7
 10
773.966938
 20
236.980853
 11
773.966938
 21
231.207351
  0
LINE
  8
CSLAYER1
  6
CONTINUOUS
 62
     7
 10
764.166938
 20
242.707351
 11
764.166938
 21
231.207351
  0
LINE
  8
CSLAYER1
  6
CONTINUOUS
 62
     7
 10
765.851227
 20
255.339514
 11
765.851227
 21
231.207351
  0
LINE
  8
CSLAYER1
  6
CONTINUOUS
 62
     7
 10
772.966938
 20
234.093625
 11
766.851227
 21
234.093625
  0
LINE
  8
CSLAYER1
  6
CONTINUOUS
 62
     7
 10
772.966938
 20
245.301338
 11
766.851227
 21
245.301338
  0
LINE
  8
CSLAYER1
  6
CONTINUOUS
 62
     7
 10
772.966938
 20
254.025532
 11
766.851227
 21
254.025532
  0
LINE
  8
CSLAYER1
  6
CONTINUOUS
 62
     7
 10
772.966938
 20
249.763700
 11
766.851227
 21
249.763700
  0
ARC
  8
CSLAYER1
  6
CONTINUOUS
 62
     7
 10
762.966938
 20
241.707351
 40
1.000000
 50
90.000000
 51
180.000000
  0
LINE
  8
CSLAYER1
  6
CONTINUOUS
 62
     7
 10
761.966938
 20
241.707351
 11
761.966938
 21
231.207351
  0
LINE
  8
CSLAYER1
  6
CONTINUOUS
 62
     7
 10
741.466938
 20
214.156315
 11
741.466938
 21
231.207351
  0
LINE
  8
CSLAYER1
  6
CONTINUOUS
 62
     7
 10
750.466938
 20
218.675381
 11
750.466938
 21
231.207351
  0
LINE
  8
CSLAYER1
  6
CONTINUOUS
 62
     7
 10
738.966253
 20
213.076295
 11
740.519274
 21
213.157686
  0
LINE
  8
CSLAYER1
  6
CONTINUOUS
 62
     7
 10
748.862450
 20
216.928294
 11
742.466938
 21
216.928294
  0
LINE
  8
CSLAYER1
  6
CONTINUOUS
 62
     7
 10
750.364053
 20
218.529147
 11
749.728475
 21
217.428294
  0
LINE
  8
CSLAYER1
  6
CONTINUOUS
 62
     7
 10
756.216938
 20
222.063013
 11
750.730078
 21
218.895173
  0
LINE
  8
CSLAYER1
  6
CONTINUOUS
 62
     7
 10
756.466938
 20
222.496026
 11
756.466938
 21
231.207351
  0
LINE
  8
CSLAYER1
  6
CONTINUOUS
 62
     7
 10
749.439800
 20
223.990472
 11
741.466938
 21
223.990472
  0
ARC
  8
CSLAYER1
  6
CONTINUOUS
 62
     7
 10
740.466938
 20
214.156315
 40
1.000000
 50
273.000000
 51
360.000000
  0
ARC
  8
CSLAYER1
  6
CONTINUOUS
 62
     7
 10
742.466938
 20
215.928294
 40
1.000000
 50
90.000000
 51
180.000000
  0
ARC
  8
CSLAYER1
  6
CONTINUOUS
 62
     7
 10
755.966938
 20
222.496026
 40
0.500000
 50
300.000000
 51
360.000000
  0
ARC
  8
CSLAYER1
  6
CONTINUOUS
 62
     7
 10
743.886707
 20
220.459383
 40
6.580686
 50
-27.532576
 51
32.451377
  0
ARC
  8
CSLAYER1
  6
CONTINUOUS
 62
     7
 10
724.599763
 20
231.207351
 40
25.867175
 50
343.799616
 51
360.000000
  0
ARC
  8
CSLAYER1
  6
CONTINUOUS
 62
     7
 10
751.230078
 20
218.029147
 40
1.000000
 50
120.000000
 51
150.000000
  0
ARC
  8
CSLAYER1
  6
CONTINUOUS
 62
     7
 10
748.862450
 20
217.928294
 40
1.000000
 50
270.000000
 51
330.000000
  0
LINE
  8
CSLAYER1
  6
CONTINUOUS
 62
     7
 10
738.966253
 20
213.076295
 11
738.466938
 21
213.525880
  0
LINE
  8
CSLAYER1
  6
CONTINUOUS
 62
     7
 10
738.966253
 20
213.076295
 11
738.966253
 21
231.207351
  0
LINE
  8
CSLAYER1
  6
CONTINUOUS
 62
     7
 10
761.966938
 20
226.707351
 11
759.566938
 21
224.307351
  0
LINE
  8
CSLAYER1
  6
CONTINUOUS
 62
     7
 10
756.466938
 20
224.307351
 11
759.566938
 21
224.307351
  0
LINE
  8
CSLAYER1
  6
CONTINUOUS
 62
     7
 10
761.966938
 20
226.707351
 11
761.966938
 21
231.207351
  0
LINE
  8
CSLAYER1
  6
CONTINUOUS
 62
     7
 10
759.566938
 20
224.307351
 11
759.566938
 21
231.207351
  0
LINE
  8
CSLAYER1
  6
CONTINUOUS
 62
     7
 10
779.966938
 20
229.207351
 11
779.966938
 21
231.207351
  0
LINE
  8
CSLAYER1
  6
CONTINUOUS
 62
     7
 10
778.966938
 20
228.207351
 11
779.966938
 21
229.207351
  0
LINE
  8
CSLAYER1
  6
CONTINUOUS
 62
     7
 10
779.966938
 20
233.207351
 11
779.966938
 21
231.207351
  0
LINE
  8
CSLAYER1
  6
CONTINUOUS
 62
     7
 10
762.966938
 20
219.707351
 11
764.166938
 21
219.707351
  0
LINE
  8
CSLAYER1
  6
CONTINUOUS
 62
     7
 10
772.966938
 20
206.207351
 11
766.842455
 21
206.207351
  0
ARC
  8
CSLAYER1
  6
CONTINUOUS
 62
     7
 10
772.966938
 20
207.207351
 40
1.000000
 50
270.000000
 51
360.000000
  0
ARC
  8
CSLAYER1
  6
CONTINUOUS
 62
     7
 10
766.842455
 20
207.207351
 40
1.000000
 50
187.594643
 51
270.000000
  0
LINE
  8
CSLAYER1
  6
CONTINUOUS
 62
     7
 10
773.966938
 20
226.257606
 11
773.966938
 21
207.207351
  0
LINE
  8
CSLAYER1
  6
CONTINUOUS
 62
     7
 10
765.851227
 20
207.075187
 11
764.166938
 21
219.707351
  0
LINE
  8
CSLAYER1
  6
CONTINUOUS
 62
     7
 10
773.966938
 20
228.207351
 11
773.966938
 21
231.207351
  0
LINE
  8
CSLAYER1
  6
CONTINUOUS
 62
     7
 10
778.520356
 20
225.433848
 11
773.966938
 21
225.433848
  0
LINE
  8
CSLAYER1
  6
CONTINUOUS
 62
     7
 10
778.520356
 20
228.320599
 11
773.966938
 21
228.320599
  0
LINE
  8
CSLAYER1
  6
CONTINUOUS
 62
     7
 10
778.966938
 20
226.207351
 11
778.520356
 21
225.433848
  0
ARC
  8
CSLAYER1
  6
CONTINUOUS
 62
     7
 10
775.688106
 20
226.877224
 40
3.178833
 50
-27.004365
 51
27.004365
  0
ARC
  8
CSLAYER1
  6
CONTINUOUS
 62
     7
 10
766.671480
 20
231.207351
 40
12.195458
 50
346.307729
 51
360.000000
  0
LINE
  8
CSLAYER1
  6
CONTINUOUS
 62
     7
 10
778.966938
 20
226.207351
 11
778.966938
 21
231.207351
  0
LINE
  8
CSLAYER1
  6
CONTINUOUS
 62
     7
 10
773.966938
 20
225.433848
 11
773.966938
 21
231.207351
  0
LINE
  8
CSLAYER1
  6
CONTINUOUS
 62
     7
 10
764.166938
 20
219.707351
 11
764.166938
 21
231.207351
  0
LINE
  8
CSLAYER1
  6
CONTINUOUS
 62
     7
 10
765.851227
 20
207.075187
 11
765.851227
 21
231.207351
  0
LINE
  8
CSLAYER1
  6
CONTINUOUS
 62
     7
 10
772.966938
 20
228.321076
 11
766.851227
 21
228.321076
  0
LINE
  8
CSLAYER1
  6
CONTINUOUS
 62
     7
 10
772.966938
 20
217.113363
 11
766.851227
 21
217.113363
  0
LINE
  8
CSLAYER1
  6
CONTINUOUS
 62
     7
 10
772.966938
 20
208.389169
 11
766.851227
 21
208.389169
  0
LINE
  8
CSLAYER1
  6
CONTINUOUS
 62
     7
 10
772.966938
 20
212.651001
 11
766.851227
 21
212.651001
  0
ARC
  8
CSLAYER1
  6
CONTINUOUS
 62
     7
 10
762.966938
 20
220.707351
 40
1.000000
 50
180.000000
 51
270.000000
  0
LINE
  8
CSLAYER1
  6
CONTINUOUS
 62
     7
 10
761.966938
 20
220.707351
 11
761.966938
 21
231.207351
  0
LINE
  8
CSLAYER1
  6
CONTINUOUS
 62
     5
 10
779.962778
 20
20.000000
 11
779.962778
 21
231.174051
  0
LINE
  8
CSLAYER1
  6
CONTINUOUS
 62
     5
 10
837.738904
 20
91.174051
 11
712.462778
 21
91.174051
  0
LINE
  8
CSLAYER1
  6
CONTINUOUS
 62
     5
 10
837.738904
 20
371.174051
 11
712.462778
 21
371.174051
  0
LINE
  8
CSLAYER1
  6
CONTINUOUS
 62
     5
 10
833.601854
 20
231.174051
 11
833.601854
 21
371.174051
  0
LINE
  8
CSLAYER1
  6
CONTINUOUS
 62
     5
 10
833.601854
 20
231.174051
 11
833.084215
 21
233.105903
  0
LINE
  8
CSLAYER1
  6
CONTINUOUS
 62
     5
 10
833.601854
 20
231.174051
 11
834.119492
 21
233.105903
  0
LINE
  8
CSLAYER1
  6
CONTINUOUS
 62
     5
 10
833.601854
 20
371.174051
 11
833.084215
 21
369.242199
  0
LINE
  8
CSLAYER1
  6
CONTINUOUS
 62
     5
 10
833.601854
 20
371.174051
 11
834.119492
 21
369.242199
  0
LINE
  8
CSLAYER1
  6
CONTINUOUS
 62
     5
 10
833.601854
 20
91.174051
 11
833.601854
 21
232.262522
  0
LINE
  8
CSLAYER1
  6
CONTINUOUS
 62
     5
 10
833.601854
 20
91.174051
 11
833.084215
 21
93.105903
  0
LINE
  8
CSLAYER1
  6
CONTINUOUS
 62
     5
 10
833.601854
 20
91.174051
 11
834.119492
 21
93.105903
  0
LINE
  8
CSLAYER1
  6
CONTINUOUS
 62
     5
 10
833.601854
 20
232.262522
 11
833.084215
 21
230.330670
  0
LINE
  8
CSLAYER1
  6
CONTINUOUS
 62
     5
 10
833.601854
 20
232.262522
 11
834.119492
 21
230.330670
  0
INSERT
  8
CSLAYER1
  2
BLKF0000
 10
0.0
 20
0.0
 30
0.0
  0
INSERT
  8
CSLAYER1
  2
BLKF0001
 10
0.0
 20
0.0
 30
0.0
  0
LINE
  8
CSLAYER1
  6
CONTINUOUS
 62
     5
 10
573.962778
 20
20.000000
 11
573.962778
 21
91.174051
  0
LINE
  8
CSLAYER1
  6
CONTINUOUS
 62
     5
 10
573.962778
 20
24.455285
 11
779.962778
 21
24.455285
  0
LINE
  8
CSLAYER1
  6
CONTINUOUS
 62
     5
 10
573.962778
 20
24.455285
 11
575.894630
 21
24.972924
  0
LINE
  8
CSLAYER1
  6
CONTINUOUS
 62
     5
 10
573.962778
 20
24.455285
 11
575.894630
 21
23.937647
  0
LINE
  8
CSLAYER1
  6
CONTINUOUS
 62
     5
 10
779.962778
 20
24.455285
 11
778.030927
 21
24.972924
  0
LINE
  8
CSLAYER1
  6
CONTINUOUS
 62
     5
 10
779.962778
 20
24.455285
 11
778.030927
 21
23.937647
  0
INSERT
  8
CSLAYER1
  2
BLKF0002
 10
0.0
 20
0.0
 30
0.0
  0
LINE
  8
CSLAYER1
  6
CONTINUOUS
 62
     7
 10
123.255400
 20
122.174051
 11
123.255400
 21
155.174051
  0
LINE
  8
CSLAYER1
  6
CONTINUOUS
 62
     7
 10
114.755400
 20
327.804273
 11
114.755400
 21
340.174051
  0
LINE
  8
CSLAYER1
  6
CONTINUOUS
 62
     7
 10
76.755400
 20
345.174051
 11
74.755400
 21
347.174051
  0
ARC
  8
CSLAYER1
  6
CONTINUOUS
 62
     7
 10
109.755400
 20
340.174051
 40
5.000000
 50
0.000000
 51
90.000000
  0
LINE
  8
CSLAYER1
  6
CONTINUOUS
 62
     7
 10
76.755400
 20
345.174051
 11
352.755400
 21
345.174051
  0
LINE
  8
CSLAYER1
  6
CONTINUOUS
 62
     7
 10
74.755400
 20
369.674051
 11
74.755400
 21
347.174051
  0
LINE
  8
CSLAYER1
  6
CONTINUOUS
 62
     7
 10
76.255400
 20
371.174051
 11
353.255400
 21
371.174051
  0
LINE
  8
CSLAYER1
  6
CONTINUOUS
 62
     7
 10
76.755400
 20
117.174051
 11
74.755400
 21
115.174051
  0
LINE
  8
CSLAYER1
  6
CONTINUOUS
 62
     7
 10
74.755400
 20
92.674051
 11
74.755400
 21
115.174051
  0
ARC
  8
CSLAYER1
  6
CONTINUOUS
 62
     7
 10
118.255400
 20
122.174051
 40
5.000000
 50
270.000000
 51
360.000000
  0
LINE
  8
CSLAYER1
  6
CENTER
 62
     7
 10
94.755400
 20
84.507384
 11
94.755400
 21
123.840718
  0
LINE
  8
CSLAYER1
  6
CENTER
 62
     7
 10
94.755400
 20
338.507384
 11
94.755400
 21
377.840718
  0
LINE
  8
CSLAYER1
  6
CENTER
 62
     7
 10
214.755400
 20
86.174051
 11
214.755400
 21
231.174051
  0
LINE
  8
CSLAYER1
  6
CONTINUOUS
 62
     7
 10
76.255400
 20
91.174051
 11
74.755400
 21
92.674051
  0
LINE
  8
CSLAYER1
  6
CONTINUOUS
 62
     7
 10
74.755400
 20
369.674051
 11
76.255400
 21
371.174051
  0
LINE
  8
CSLAYER1
  6
CONTINUOUS
 62
     7
 10
108.755400
 20
165.174051
 11
316.255400
 21
165.174051
  0
ARC
  8
CSLAYER1
  6
CONTINUOUS
 62
     7
 10
113.255400
 20
155.174051
 40
10.000000
 50
0.000000
 51
90.000000
  0
LINE
  8
CSLAYER1
  6
CONTINUOUS
 62
     7
 10
83.755400
 20
190.174051
 11
83.755400
 21
283.925652
  0
ARC
  8
CSLAYER1
  6
CONTINUOUS
 62
     7
 10
108.755400
 20
190.174051
 40
25.000000
 50
180.000000
 51
270.000000
  0
LINE
  8
CSLAYER1
  6
CONTINUOUS
 62
     7
 10
107.255400
 20
314.813892
 11
98.755400
 21
309.906414
  0
ARC
  8
CSLAYER1
  6
CONTINUOUS
 62
     7
 10
113.755400
 20
283.925652
 40
30.000000
 50
120.000000
 51
180.000000
  0
ARC
  8
CSLAYER1
  6
CONTINUOUS
 62
     7
 10
99.755400
 20
327.804273
 40
15.000000
 50
300.000000
 51
360.000000
  0
LINE
  8
CSLAYER1
  6
CONTINUOUS
 62
     7
 10
314.755400
 20
327.804273
 11
314.755400
 21
340.174051
  0
LINE
  8
CSLAYER1
  6
CONTINUOUS
 62
     7
 10
352.755400
 20
345.174051
 11
354.755400
 21
347.174051
  0
ARC
  8
CSLAYER1
  6
CONTINUOUS
 62
     7
 10
319.755400
 20
340.174051
 40
5.000000
 50
90.000000
 51
180.000000
  0
LINE
  8
CSLAYER1
  6
CONTINUOUS
 62
     7
 10
76.255400
 20
91.174051
 11
353.255400
 21
91.174051
  0
LINE
  8
CSLAYER1
  6
CONTINUOUS
 62
     7
 10
354.755400
 20
369.674051
 11
354.755400
 21
347.174051
  0
LINE
  8
CSLAYER1
  6
CONTINUOUS
 62
     7
 10
352.755400
 20
117.174051
 11
354.755400
 21
115.174051
  0
LINE
  8
CSLAYER1
  6
CONTINUOUS
 62
     7
 10
354.755400
 20
92.674051
 11
354.755400
 21
115.174051
  0
LINE
  8
CSLAYER1
  6
CONTINUOUS
 62
     7
 10
352.755400
 20
117.174051
 11
76.755400
 21
117.174051
  0
ARC
  8
CSLAYER1
  6
CONTINUOUS
 62
     7
 10
311.255400
 20
122.174051
 40
5.000000
 50
180.000000
 51
270.000000
  0
LINE
  8
CSLAYER1
  6
CENTER
 62
     7
 10
334.755400
 20
84.507384
 11
334.755400
 21
123.840718
  0
LINE
  8
CSLAYER1
  6
CENTER
 62
     7
 10
334.755400
 20
338.507384
 11
334.755400
 21
377.840718
  0
LINE
  8
CSLAYER1
  6
CONTINUOUS
 62
     7
 10
353.255400
 20
91.174051
 11
354.755400
 21
92.674051
  0
LINE
  8
CSLAYER1
  6
CONTINUOUS
 62
     7
 10
354.755400
 20
369.674051
 11
353.255400
 21
371.174051
  0
LINE
  8
CSLAYER1
  6
CONTINUOUS
 62
     7
 10
322.255400
 20
314.813892
 11
330.755400
 21
309.906414
  0
ARC
  8
CSLAYER1
  6
CONTINUOUS
 62
     7
 10
315.755400
 20
283.925652
 40
30.000000
 50
0.000000
 51
60.000000
  0
ARC
  8
CSLAYER1
  6
CONTINUOUS
 62
     7
 10
329.755400
 20
327.804273
 40
15.000000
 50
180.000000
 51
240.000000
  0
LINE
  8
CSLAYER1
  6
CENTER
 62
     2
 10
214.755400
 20
196.174051
 11
214.755400
 21
208.174051
  0
LINE
  8
CSLAYER1
  6
CENTER
 62
     2
 10
214.755400
 20
296.174051
 11
214.755400
 21
303.174051
  0
LINE
  8
CSLAYER1
  6
CENTER
 62
     7
 10
214.755400
 20
231.174051
 11
214.755400
 21
376.174051
  0
LINE
  8
CSLAYER1
  6
CONTINUOUS
 62
     7
 10
345.755400
 20
190.174051
 11
345.755400
 21
283.925652
  0
ARC
  8
CSLAYER1
  6
CONTINUOUS
 62
     7
 10
320.755400
 20
190.174051
 40
25.000000
 50
270.000000
 51
360.000000
  0
LINE
  8
CSLAYER1
  6
CONTINUOUS
 62
     7
 10
316.255400
 20
165.174051
 11
320.755400
 21
165.174051
  0
ARC
  8
CSLAYER1
  6
CONTINUOUS
 62
     7
 10
316.255400
 20
155.174051
 40
10.000000
 50
90.000000
 51
180.000000
  0
LINE
  8
CSLAYER1
  6
CONTINUOUS
 62
     7
 10
306.255400
 20
122.174051
 11
306.255400
 21
155.174051
  0
LINE
  8
CSLAYER1
  6
CONTINUOUS
 62
     7
 10
74.755400
 20
93.174051
 11
354.755400
 21
93.174051
  0
LINE
  8
CSLAYER1
  6
CONTINUOUS
 62
     7
 10
354.755400
 20
115.174051
 11
74.755400
 21
115.174051
  0
LINE
  8
CSLAYER1
  6
CONTINUOUS
 62
     7
 10
74.755400
 20
369.174051
 11
354.755400
 21
369.174051
  0
LINE
  8
CSLAYER1
  6
CONTINUOUS
 62
     7
 10
74.755400
 20
347.174051
 11
354.755400
 21
347.174051
  0
LINE
  8
CSLAYER1
  6
CONTINUOUS
 62
     5
 10
24.000012
 20
371.174051
 11
76.255400
 21
371.174051
  0
LINE
  8
CSLAYER1
  6
CONTINUOUS
 62
     5
 10
24.000012
 20
91.174051
 11
79.261386
 21
91.174051
  0
LINE
  8
CSLAYER1
  6
CONTINUOUS
 62
     5
 10
28.354794
 20
91.174051
 11
28.354794
 21
371.174051
  0
LINE
  8
CSLAYER1
  6
CONTINUOUS
 62
     5
 10
28.354794
 20
91.174051
 11
27.837156
 21
93.105903
  0
LINE
  8
CSLAYER1
  6
CONTINUOUS
 62
     5
 10
28.354794
 20
91.174051
 11
28.872432
 21
93.105903
  0
LINE
  8
CSLAYER1
  6
CONTINUOUS
 62
     5
 10
28.354794
 20
371.174051
 11
27.837156
 21
369.242199
  0
LINE
  8
CSLAYER1
  6
CONTINUOUS
 62
     5
 10
28.354794
 20
371.174051
 11
28.872432
 21
369.242199
  0
INSERT
  8
CSLAYER1
  2
BLKF0003
 10
0.0
 20
0.0
 30
0.0
  0
LINE
  8
CSLAYER1
  6
CENTER
 62
     7
 10
573.962778
 20
600.495479
 11
573.962778
 21
750.584113
  0
LINE
  8
CSLAYER1
  6
CENTER
 62
     7
 10
573.962778
 20
450.584113
 11
573.962778
 21
600.495479
  0
LINE
  8
CSLAYER1
  6
CENTER
 62
     7
 10
783.683338
 20
600.584113
 11
423.962778
 21
600.584113
  0
CIRCLE
  8
CSLAYER1
  6
CONTINUOUS
 62
     7
 10
573.962778
 20
600.495479
 40
140.000000
  0
CIRCLE
  8
CSLAYER1
  6
CENTER
 62
     7
 10
573.962778
 20
600.584113
 40
120.000000
  0
CIRCLE
  8
CSLAYER1
  6
CONTINUOUS
 62
     7
 10
573.962778
 20
600.584113
 40
75.000000
  0
CIRCLE
  8
CSLAYER1
  6
CONTINUOUS
 62
     7
 10
573.962778
 20
600.584113
 40
138.000000
  0
LINE
  8
CSLAYER1
  6
CENTER
 62
     7
 10
672.704183
 20
641.484143
 11
697.615183
 21
651.802617
  0
LINE
  8
CSLAYER1
  6
CENTER
 62
     7
 10
475.221373
 20
641.484143
 11
450.310374
 21
651.802617
  0
LINE
  8
CSLAYER1
  6
CENTER
 62
     7
 10
672.704183
 20
559.684084
 11
697.677857
 21
549.339650
  0
LINE
  8
CSLAYER1
  6
CENTER
 62
     7
 10
475.221373
 20
641.484143
 11
450.310374
 21
651.802617
  0
LINE
  8
CSLAYER1
  6
CENTER
 62
     7
 10
475.221373
 20
559.684084
 11
450.247700
 21
549.339650
  0
LINE
  8
CSLAYER1
  6
CENTER
 62
     7
 10
533.062749
 20
699.325518
 11
522.762624
 21
724.192220
  0
LINE
  8
CSLAYER1
  6
CENTER
 62
     7
 10
614.862807
 20
699.325518
 11
625.162933
 21
724.192220
  0
LINE
  8
CSLAYER1
  6
CENTER
 62
     7
 10
614.862807
 20
501.842709
 11
625.225607
 21
476.824699
  0
LINE
  8
CSLAYER1
  6
CENTER
 62
     7
 10
533.062749
 20
501.842709
 11
522.699950
 21
476.824699
  0
CIRCLE
  8
CSLAYER1
  6
CONTINUOUS
 62
     7
 10
528.040767
 20
489.718570
 40
11.500000
  0
CIRCLE
  8
CSLAYER1
  6
CONTINUOUS
 62
     7
 10
463.097234
 20
554.662102
 40
11.500000
  0
CIRCLE
  8
CSLAYER1
  6
CONTINUOUS
 62
     7
 10
619.884790
 20
489.718570
 40
11.500000
  0
CIRCLE
  8
CSLAYER1
  6
CONTINUOUS
 62
     7
 10
684.828322
 20
554.662102
 40
11.500000
  0
CIRCLE
  8
CSLAYER1
  6
CONTINUOUS
 62
     7
 10
684.828322
 20
646.506125
 40
11.500000
  0
CIRCLE
  8
CSLAYER1
  6
CONTINUOUS
 62
     7
 10
619.884790
 20
711.449657
 40
11.500000
  0
CIRCLE
  8
CSLAYER1
  6
CONTINUOUS
 62
     7
 10
528.040767
 20
711.449657
 40
11.500000
  0
CIRCLE
  8
CSLAYER1
  6
CONTINUOUS
 62
     7
 10
463.097234
 20
646.506125
 40
11.500000
  0
LINE
  8
CSLAYER1
  6
CONTINUOUS
 62
     7
 10
738.462778
 20
581.277232
 11
738.462778
 21
620.146460
  0
LINE
  8
CSLAYER1
  6
CONTINUOUS
 62
     7
 10
712.022146
 20
623.725005
 11
736.335794
 21
622.273444
  0
LINE
  8
CSLAYER1
  6
CONTINUOUS
 62
     7
 10
728.783992
 20
578.568622
 11
736.466333
 21
579.027269
  0
LINE
  8
CSLAYER1
  6
CONTINUOUS
 62
     7
 10
736.466333
 20
579.027269
 11
738.462778
 21
581.277232
  0
LINE
  8
CSLAYER1
  6
CONTINUOUS
 62
     7
 10
738.462778
 20
620.146460
 11
736.335794
 21
622.273444
  0
LINE
  8
CSLAYER1
  6
CONTINUOUS
 62
     7
 10
712.073120
 20
577.570958
 11
736.335794
 21
579.019476
  0
LINE
  8
CSLAYER1
  6
CONTINUOUS
 62
     7
 10
738.517171
 20
617.185094
 11
738.517171
 21
619.911297
  0
LINE
  8
CSLAYER1
  6
CONTINUOUS
 62
     7
 10
741.466938
 20
617.730795
 11
741.466938
 21
600.679760
  0
LINE
  8
CSLAYER1
  6
CONTINUOUS
 62
     7
 10
750.466938
 20
613.211729
 11
750.466938
 21
600.679760
  0
LINE
  8
CSLAYER1
  6
CONTINUOUS
 62
     7
 10
738.966253
 20
618.810815
 11
740.519274
 21
618.729425
  0
LINE
  8
CSLAYER1
  6
CONTINUOUS
 62
     7
 10
748.862450
 20
614.958816
 11
742.466938
 21
614.958816
  0
LINE
  8
CSLAYER1
  6
CONTINUOUS
 62
     7
 10
750.364053
 20
613.357963
 11
749.728475
 21
614.458816
  0
LINE
  8
CSLAYER1
  6
CONTINUOUS
 62
     7
 10
756.216938
 20
609.824097
 11
750.730078
 21
612.991937
  0
LINE
  8
CSLAYER1
  6
CONTINUOUS
 62
     7
 10
756.466938
 20
609.391084
 11
756.466938
 21
600.679760
  0
LINE
  8
CSLAYER1
  6
CONTINUOUS
 62
     7
 10
749.439800
 20
607.896638
 11
741.466938
 21
607.896638
  0
ARC
  8
CSLAYER1
  6
CONTINUOUS
 62
     7
 10
740.466938
 20
617.730795
 40
1.000000
 50
0.000000
 51
87.000000
  0
ARC
  8
CSLAYER1
  6
CONTINUOUS
 62
     7
 10
742.466938
 20
615.958816
 40
1.000000
 50
180.000000
 51
270.000000
  0
ARC
  8
CSLAYER1
  6
CONTINUOUS
 62
     7
 10
755.966938
 20
609.391084
 40
0.500000
 50
0.000000
 51
60.000000
  0
ARC
  8
CSLAYER1
  6
CONTINUOUS
 62
     7
 10
743.886707
 20
611.427727
 40
6.580686
 50
-32.451377
 51
27.532576
  0
ARC
  8
CSLAYER1
  6
CONTINUOUS
 62
     7
 10
724.599763
 20
600.679760
 40
25.867175
 50
0.000000
 51
16.200384
  0
ARC
  8
CSLAYER1
  6
CONTINUOUS
 62
     7
 10
751.230078
 20
613.857963
 40
1.000000
 50
210.000000
 51
240.000000
  0
ARC
  8
CSLAYER1
  6
CONTINUOUS
 62
     7
 10
748.862450
 20
613.958816
 40
1.000000
 50
30.000000
 51
90.000000
  0
LINE
  8
CSLAYER1
  6
CONTINUOUS
 62
     7
 10
738.966253
 20
618.810815
 11
738.466938
 21
618.361230
  0
LINE
  8
CSLAYER1
  6
CONTINUOUS
 62
     7
 10
738.966253
 20
618.810815
 11
738.966253
 21
600.679760
  0
LINE
  8
CSLAYER1
  6
CONTINUOUS
 62
     7
 10
761.966938
 20
605.179760
 11
759.566938
 21
607.579760
  0
LINE
  8
CSLAYER1
  6
CONTINUOUS
 62
     7
 10
756.466938
 20
607.579760
 11
759.566938
 21
607.579760
  0
LINE
  8
CSLAYER1
  6
CONTINUOUS
 62
     7
 10
761.966938
 20
605.179760
 11
761.966938
 21
600.679760
  0
LINE
  8
CSLAYER1
  6
CONTINUOUS
 62
     7
 10
759.566938
 20
607.579760
 11
759.566938
 21
600.679760
  0
LINE
  8
CSLAYER1
  6
CONTINUOUS
 62
     7
 10
779.966938
 20
602.679760
 11
779.966938
 21
600.679760
  0
LINE
  8
CSLAYER1
  6
CONTINUOUS
 62
     7
 10
778.966938
 20
603.679760
 11
779.966938
 21
602.679760
  0
LINE
  8
CSLAYER1
  6
CONTINUOUS
 62
     7
 10
779.966938
 20
598.679760
 11
779.966938
 21
600.679760
  0
LINE
  8
CSLAYER1
  6
CONTINUOUS
 62
     7
 10
762.966938
 20
612.179760
 11
764.166938
 21
612.179760
  0
LINE
  8
CSLAYER1
  6
CONTINUOUS
 62
     7
 10
772.966938
 20
625.679760
 11
766.842455
 21
625.679760
  0
ARC
  8
CSLAYER1
  6
CONTINUOUS
 62
     7
 10
772.966938
 20
624.679760
 40
1.000000
 50
0.000000
 51
90.000000
  0
ARC
  8
CSLAYER1
  6
CONTINUOUS
 62
     7
 10
766.842455
 20
624.679760
 40
1.000000
 50
90.000000
 51
172.405357
  0
LINE
  8
CSLAYER1
  6
CONTINUOUS
 62
     7
 10
773.966938
 20
605.629505
 11
773.966938
 21
624.679760
  0
LINE
  8
CSLAYER1
  6
CONTINUOUS
 62
     7
 10
765.851227
 20
624.811923
 11
764.166938
 21
612.179760
  0
LINE
  8
CSLAYER1
  6
CONTINUOUS
 62
     7
 10
773.966938
 20
603.679760
 11
773.966938
 21
600.679760
  0
LINE
  8
CSLAYER1
  6
CONTINUOUS
 62
     7
 10
778.520356
 20
606.453262
 11
773.966938
 21
606.453262
  0
LINE
  8
CSLAYER1
  6
CONTINUOUS
 62
     7
 10
778.520356
 20
603.566511
 11
773.966938
 21
603.566511
  0
LINE
  8
CSLAYER1
  6
CONTINUOUS
 62
     7
 10
778.966938
 20
605.679760
 11
778.520356
 21
606.453262
  0
ARC
  8
CSLAYER1
  6
CONTINUOUS
 62
     7
 10
775.688106
 20
605.009887
 40
3.178833
 50
-27.004365
 51
27.004365
  0
ARC
  8
CSLAYER1
  6
CONTINUOUS
 62
     7
 10
766.671480
 20
600.679760
 40
12.195458
 50
0.000000
 51
13.692271
  0
LINE
  8
CSLAYER1
  6
CONTINUOUS
 62
     7
 10
778.966938
 20
605.679760
 11
778.966938
 21
600.679760
  0
LINE
  8
CSLAYER1
  6
CONTINUOUS
 62
     7
 10
773.966938
 20
606.453262
 11
773.966938
 21
600.679760
  0
LINE
  8
CSLAYER1
  6
CONTINUOUS
 62
     7
 10
764.166938
 20
612.179760
 11
764.166938
 21
600.679760
  0
LINE
  8
CSLAYER1
  6
CONTINUOUS
 62
     7
 10
765.851227
 20
624.811923
 11
765.851227
 21
600.679760
  0
LINE
  8
CSLAYER1
  6
CONTINUOUS
 62
     7
 10
772.966938
 20
603.566034
 11
766.851227
 21
603.566034
  0
LINE
  8
CSLAYER1
  6
CONTINUOUS
 62
     7
 10
772.966938
 20
614.773747
 11
766.851227
 21
614.773747
  0
LINE
  8
CSLAYER1
  6
CONTINUOUS
 62
     7
 10
772.966938
 20
623.497941
 11
766.851227
 21
623.497941
  0
LINE
  8
CSLAYER1
  6
CONTINUOUS
 62
     7
 10
772.966938
 20
619.236109
 11
766.851227
 21
619.236109
  0
ARC
  8
CSLAYER1
  6
CONTINUOUS
 62
     7
 10
762.966938
 20
611.179760
 40
1.000000
 50
90.000000
 51
180.000000
  0
LINE
  8
CSLAYER1
  6
CONTINUOUS
 62
     7
 10
761.966938
 20
611.179760
 11
761.966938
 21
600.679760
  0
LINE
  8
CSLAYER1
  6
CONTINUOUS
 62
     7
 10
741.466938
 20
583.628724
 11
741.466938
 21
600.679760
  0
LINE
  8
CSLAYER1
  6
CONTINUOUS
 62
     7
 10
750.466938
 20
588.147790
 11
750.466938
 21
600.679760
  0
LINE
  8
CSLAYER1
  6
CONTINUOUS
 62
     7
 10
738.966253
 20
582.548704
 11
740.519274
 21
582.630095
  0
LINE
  8
CSLAYER1
  6
CONTINUOUS
 62
     7
 10
748.862450
 20
586.400703
 11
742.466938
 21
586.400703
  0
LINE
  8
CSLAYER1
  6
CONTINUOUS
 62
     7
 10
750.364053
 20
588.001556
 11
749.728475
 21
586.900703
  0
LINE
  8
CSLAYER1
  6
CONTINUOUS
 62
     7
 10
756.216938
 20
591.535422
 11
750.730078
 21
588.367582
  0
LINE
  8
CSLAYER1
  6
CONTINUOUS
 62
     7
 10
756.466938
 20
591.968435
 11
756.466938
 21
600.679760
  0
LINE
  8
CSLAYER1
  6
CONTINUOUS
 62
     7
 10
749.439800
 20
593.462881
 11
741.466938
 21
593.462881
  0
ARC
  8
CSLAYER1
  6
CONTINUOUS
 62
     7
 10
740.466938
 20
583.628724
 40
1.000000
 50
273.000000
 51
360.000000
  0
ARC
  8
CSLAYER1
  6
CONTINUOUS
 62
     7
 10
742.466938
 20
585.400703
 40
1.000000
 50
90.000000
 51
180.000000
  0
ARC
  8
CSLAYER1
  6
CONTINUOUS
 62
     7
 10
755.966938
 20
591.968435
 40
0.500000
 50
300.000000
 51
360.000000
  0
ARC
  8
CSLAYER1
  6
CONTINUOUS
 62
     7
 10
743.886707
 20
589.931792
 40
6.580686
 50
-27.532576
 51
32.451377
  0
ARC
  8
CSLAYER1
  6
CONTINUOUS
 62
     7
 10
724.599763
 20
600.679760
 40
25.867175
 50
343.799616
 51
360.000000
  0
ARC
  8
CSLAYER1
  6
CONTINUOUS
 62
     7
 10
751.230078
 20
587.501556
 40
1.000000
 50
120.000000
 51
150.000000
  0
ARC
  8
CSLAYER1
  6
CONTINUOUS
 62
     7
 10
748.862450
 20
587.400703
 40
1.000000
 50
270.000000
 51
330.000000
  0
LINE
  8
CSLAYER1
  6
CONTINUOUS
 62
     7
 10
738.966253
 20
582.548704
 11
738.466938
 21
582.998289
  0
LINE
  8
CSLAYER1
  6
CONTINUOUS
 62
     7
 10
738.966253
 20
582.548704
 11
738.966253
 21
600.679760
  0
LINE
  8
CSLAYER1
  6
CONTINUOUS
 62
     7
 10
761.966938
 20
596.179760
 11
759.566938
 21
593.779760
  0
LINE
  8
CSLAYER1
  6
CONTINUOUS
 62
     7
 10
756.466938
 20
593.779760
 11
759.566938
 21
593.779760
  0
LINE
  8
CSLAYER1
  6
CONTINUOUS
 62
     7
 10
761.966938
 20
596.179760
 11
761.966938
 21
600.679760
  0
LINE
  8
CSLAYER1
  6
CONTINUOUS
 62
     7
 10
759.566938
 20
593.779760
 11
759.566938
 21
600.679760
  0
LINE
  8
CSLAYER1
  6
CONTINUOUS
 62
     7
 10
779.966938
 20
598.679760
 11
779.966938
 21
600.679760
  0
LINE
  8
CSLAYER1
  6
CONTINUOUS
 62
     7
 10
778.966938
 20
597.679760
 11
779.966938
 21
598.679760
  0
LINE
  8
CSLAYER1
  6
CONTINUOUS
 62
     7
 10
779.966938
 20
602.679760
 11
779.966938
 21
600.679760
  0
LINE
  8
CSLAYER1
  6
CONTINUOUS
 62
     7
 10
762.966938
 20
589.179760
 11
764.166938
 21
589.179760
  0
LINE
  8
CSLAYER1
  6
CONTINUOUS
 62
     7
 10
772.966938
 20
575.679760
 11
766.842455
 21
575.679760
  0
ARC
  8
CSLAYER1
  6
CONTINUOUS
 62
     7
 10
772.966938
 20
576.679760
 40
1.000000
 50
270.000000
 51
360.000000
  0
ARC
  8
CSLAYER1
  6
CONTINUOUS
 62
     7
 10
766.842455
 20
576.679760
 40
1.000000
 50
187.594643
 51
270.000000
  0
LINE
  8
CSLAYER1
  6
CONTINUOUS
 62
     7
 10
773.966938
 20
595.730015
 11
773.966938
 21
576.679760
  0
LINE
  8
CSLAYER1
  6
CONTINUOUS
 62
     7
 10
765.851227
 20
576.547596
 11
764.166938
 21
589.179760
  0
LINE
  8
CSLAYER1
  6
CONTINUOUS
 62
     7
 10
773.966938
 20
597.679760
 11
773.966938
 21
600.679760
  0
LINE
  8
CSLAYER1
  6
CONTINUOUS
 62
     7
 10
778.520356
 20
594.906257
 11
773.966938
 21
594.906257
  0
LINE
  8
CSLAYER1
  6
CONTINUOUS
 62
     7
 10
778.520356
 20
597.793008
 11
773.966938
 21
597.793008
  0
LINE
  8
CSLAYER1
  6
CONTINUOUS
 62
     7
 10
778.966938
 20
595.679760
 11
778.520356
 21
594.906257
  0
ARC
  8
CSLAYER1
  6
CONTINUOUS
 62
     7
 10
775.688106
 20
596.349633
 40
3.178833
 50
-27.004365
 51
27.004365
  0
ARC
  8
CSLAYER1
  6
CONTINUOUS
 62
     7
 10
766.671480
 20
600.679760
 40
12.195458
 50
346.307729
 51
360.000000
  0
LINE
  8
CSLAYER1
  6
CONTINUOUS
 62
     7
 10
778.966938
 20
595.679760
 11
778.966938
 21
600.679760
  0
LINE
  8
CSLAYER1
  6
CONTINUOUS
 62
     7
 10
773.966938
 20
594.906257
 11
773.966938
 21
600.679760
  0
LINE
  8
CSLAYER1
  6
CONTINUOUS
 62
     7
 10
764.166938
 20
589.179760
 11
764.166938
 21
600.679760
  0
LINE
  8
CSLAYER1
  6
CONTINUOUS
 62
     7
 10
765.851227
 20
576.547596
 11
765.851227
 21
600.679760
  0
LINE
  8
CSLAYER1
  6
CONTINUOUS
 62
     7
 10
772.966938
 20
597.793485
 11
766.851227
 21
597.793485
  0
LINE
  8
CSLAYER1
  6
CONTINUOUS
 62
     7
 10
772.966938
 20
586.585772
 11
766.851227
 21
586.585772
  0
LINE
  8
CSLAYER1
  6
CONTINUOUS
 62
     7
 10
772.966938
 20
577.861578
 11
766.851227
 21
577.861578
  0
LINE
  8
CSLAYER1
  6
CONTINUOUS
 62
     7
 10
772.966938
 20
582.123410
 11
766.851227
 21
582.123410
  0
ARC
  8
CSLAYER1
  6
CONTINUOUS
 62
     7
 10
762.966938
 20
590.179760
 40
1.000000
 50
180.000000
 51
270.000000
  0
LINE
  8
CSLAYER1
  6
CONTINUOUS
 62
     7
 10
761.966938
 20
590.179760
 11
761.966938
 21
600.679760
  0
LINE
  8
CSLAYER4
  6
CONTINUOUS
 62
     7
 10
564.778538
 20
252.985339
 11
564.776840
 21
253.005928
  0
LINE
  8
CSLAYER4
  6
CONTINUOUS
 62
     7
 10
579.693108
 20
253.005928
 11
579.691410
 21
252.985339
  0
INSERT
  8
CSLAYER4
  2
BLKF0004
 10
0.0
 20
0.0
 30
0.0
  0
LINE
  8
CSLAYER4
  6
CONTINUOUS
 62
     7
 10
562.902740
 20
262.627084
 11
562.900193
 21
262.657968
  0
INSERT
  8
CSLAYER4
  2
BLKF0005
 10
0.0
 20
0.0
 30
0.0
  0
LINE
  8
CSLAYER4
  6
CONTINUOUS
 62
     7
 10
585.274595
 20
262.657968
 11
585.272048
 21
262.627084
  0
LINE
  8
CSLAYER4
  6
CONTINUOUS
 62
     7
 10
536.053152
 20
237.160854
 11
532.427706
 21
237.160854
  0
LINE
  8
CSLAYER4
  6
CONTINUOUS
 62
     7
 10
528.747716
 20
244.377297
 11
536.053152
 21
237.160854
  0
LINE
  8
CSLAYER4
  6
CONTINUOUS
 62
     7
 10
528.747716
 20
244.377297
 11
528.747716
 21
224.200113
  0
LINE
  8
CSLAYER4
  6
CONTINUOUS
 62
     7
 10
532.427706
 20
224.200113
 11
528.747716
 21
224.200113
  0
LINE
  8
CSLAYER4
  6
CONTINUOUS
 62
     7
 10
532.427706
 20
224.200113
 11
532.427706
 21
237.160854
  0
LINE
  8
CSLAYER4
  6
CONTINUOUS
 62
     7
 10
569.649462
 20
216.451473
 11
567.173364
 21
212.236839
  0
LINE
  8
CSLAYER4
  6
CONTINUOUS
 62
     7
 10
567.173364
 20
212.236839
 11
569.912876
 21
205.651473
  0
LINE
  8
CSLAYER4
  6
CONTINUOUS
 62
     7
 10
569.912876
 20
205.651473
 11
568.174340
 21
205.651473
  0
LINE
  8
CSLAYER4
  6
CONTINUOUS
 62
     7
 10
568.174340
 20
205.651473
 11
566.277755
 21
210.603669
  0
LINE
  8
CSLAYER4
  6
CONTINUOUS
 62
     7
 10
566.277755
 20
210.603669
 11
565.592876
 21
209.497327
  0
LINE
  8
CSLAYER4
  6
CONTINUOUS
 62
     7
 10
565.592876
 20
205.651473
 11
565.592876
 21
209.497327
  0
LINE
  8
CSLAYER4
  6
CONTINUOUS
 62
     7
 10
565.592876
 20
205.651473
 11
564.117755
 21
205.651473
  0
LINE
  8
CSLAYER4
  6
CONTINUOUS
 62
     7
 10
564.117755
 20
216.451473
 11
564.117755
 21
205.651473
  0
LINE
  8
CSLAYER4
  6
CONTINUOUS
 62
     7
 10
564.117755
 20
216.451473
 11
565.592876
 21
216.451473
  0
LINE
  8
CSLAYER4
  6
CONTINUOUS
 62
     7
 10
565.592876
 20
212.394888
 11
565.592876
 21
216.451473
  0
LINE
  8
CSLAYER4
  6
CONTINUOUS
 62
     7
 10
565.592876
 20
212.394888
 11
567.858243
 21
216.451473
  0
LINE
  8
CSLAYER4
  6
CONTINUOUS
 62
     7
 10
567.858243
 20
216.451473
 11
569.649462
 21
216.451473
  0
LINE
  8
CSLAYER4
  6
CONTINUOUS
 62
     7
 10
576.656291
 20
210.182205
 11
576.656291
 21
211.657327
  0
LINE
  8
CSLAYER4
  6
CONTINUOUS
 62
     7
 10
576.656291
 20
210.182205
 11
570.703121
 21
210.182205
  0
LINE
  8
CSLAYER4
  6
CONTINUOUS
 62
     7
 10
570.703121
 20
211.657327
 11
570.703121
 21
210.182205
  0
LINE
  8
CSLAYER4
  6
CONTINUOUS
 62
     7
 10
570.703121
 20
211.657327
 11
576.656291
 21
211.657327
  0
LINE
  8
CSLAYER1
  6
CONTINUOUS
 62
     7
 10
549.088934
 20
232.971931
 11
549.088934
 21
243.803694
  0
LINE
  8
CSLAYER1
  6
CONTINUOUS
 62
     7
 10
549.088934
 20
243.803694
 11
550.646261
 21
243.803694
  0
LINE
  8
CSLAYER1
  6
CONTINUOUS
 62
     7
 10
549.088934
 20
232.971931
 11
550.090073
 21
232.971931
  0
LINE
  8
CSLAYER1
  6
CONTINUOUS
 62
     7
 10
552.648537
 20
232.971931
 11
553.691390
 21
232.971931
  0
LINE
  8
CSLAYER1
  6
CONTINUOUS
 62
     7
 10
556.235951
 20
232.971931
 11
557.195375
 21
232.971931
  0
LINE
  8
CSLAYER1
  6
CONTINUOUS
 62
     7
 10
550.090073
 20
232.971931
 11
550.090073
 21
241.884846
  0
LINE
  8
CSLAYER1
  6
CONTINUOUS
 62
     7
 10
557.195375
 20
232.971931
 11
557.195375
 21
243.803694
  0
LINE
  8
CSLAYER1
  6
CONTINUOUS
 62
     7
 10
556.235951
 20
232.971931
 11
556.235951
 21
241.884846
  0
LINE
  8
CSLAYER1
  6
CONTINUOUS
 62
     7
 10
550.090073
 20
241.884846
 11
550.174478
 21
241.884846
  0
LINE
  8
CSLAYER1
  6
CONTINUOUS
 62
     7
 10
550.174478
 20
241.884846
 11
552.648537
 21
232.971931
  0
LINE
  8
CSLAYER1
  6
CONTINUOUS
 62
     7
 10
556.235951
 20
241.884846
 11
556.162638
 21
241.884846
  0
LINE
  8
CSLAYER1
  6
CONTINUOUS
 62
     7
 10
553.691390
 20
232.971931
 11
556.162638
 21
241.884846
  0
LINE
  8
CSLAYER1
  6
CONTINUOUS
 62
     5
 10
553.124559
 20
234.992035
 11
553.219697
 21
234.992035
  0
LINE
  8
CSLAYER1
  6
CONTINUOUS
 62
     7
 10
557.195375
 20
243.803694
 11
555.731055
 21
243.803694
  0
LINE
  8
CSLAYER1
  6
CONTINUOUS
 62
     7
 10
550.646261
 20
243.803694
 11
553.124559
 21
234.992035
  0
LINE
  8
CSLAYER1
  6
CONTINUOUS
 62
     7
 10
553.219697
 20
234.992035
 11
555.731055
 21
243.803694
  0
LINE
  8
CSLAYER1
  6
CONTINUOUS
 62
     7
 10
567.455543
 20
243.803694
 11
567.455543
 21
232.971931
  0
LINE
  8
CSLAYER1
  6
CONTINUOUS
 62
     7
 10
567.455543
 20
232.971931
 11
573.194813
 21
232.971931
  0
LINE
  8
CSLAYER1
  6
CONTINUOUS
 62
     7
 10
573.194813
 20
232.971931
 11
573.194813
 21
234.366300
  0
LINE
  8
CSLAYER1
  6
CONTINUOUS
 62
     7
 10
573.194813
 20
234.366300
 11
568.406930
 21
234.366300
  0
LINE
  8
CSLAYER1
  6
CONTINUOUS
 62
     7
 10
568.406930
 20
234.366300
 11
568.406930
 21
243.803694
  0
LINE
  8
CSLAYER1
  6
CONTINUOUS
 62
     7
 10
567.455543
 20
243.803694
 11
568.406930
 21
243.803694
  0
LINE
  8
CSLAYER1
  6
CONTINUOUS
 62
     7
 10
576.197187
 20
243.803694
 11
576.197187
 21
232.971931
  0
LINE
  8
CSLAYER1
  6
CONTINUOUS
 62
     7
 10
576.197187
 20
243.803694
 11
582.234147
 21
243.803694
  0
LINE
  8
CSLAYER1
  6
CONTINUOUS
 62
     7
 10
582.234147
 20
243.803694
 11
582.234147
 21
242.369575
  0
LINE
  8
CSLAYER1
  6
CONTINUOUS
 62
     7
 10
582.234147
 20
242.369575
 11
577.178541
 21
242.369575
  0
LINE
  8
CSLAYER1
  6
CONTINUOUS
 62
     7
 10
577.178541
 20
242.369575
 11
577.178541
 21
239.356432
  0
LINE
  8
CSLAYER1
  6
CONTINUOUS
 62
     7
 10
577.178541
 20
239.356432
 11
581.733605
 21
239.356432
  0
LINE
  8
CSLAYER1
  6
CONTINUOUS
 62
     7
 10
581.733605
 20
239.356432
 11
581.733605
 21
237.950935
  0
LINE
  8
CSLAYER1
  6
CONTINUOUS
 62
     7
 10
581.733605
 20
237.950935
 11
577.178541
 21
237.950935
  0
LINE
  8
CSLAYER1
  6
CONTINUOUS
 62
     7
 10
577.178541
 20
237.950935
 11
577.178541
 21
234.353766
  0
LINE
  8
CSLAYER1
  6
CONTINUOUS
 62
     7
 10
577.178541
 20
234.353766
 11
582.234147
 21
234.353766
  0
LINE
  8
CSLAYER1
  6
CONTINUOUS
 62
     7
 10
576.197187
 20
232.971931
 11
582.234147
 21
232.971931
  0
LINE
  8
CSLAYER1
  6
CONTINUOUS
 62
     7
 10
585.318096
 20
243.803694
 11
585.318096
 21
232.971931
  0
LINE
  8
CSLAYER1
  6
CONTINUOUS
 62
     7
 10
585.318096
 20
232.971931
 11
586.335138
 21
232.971931
  0
LINE
  8
CSLAYER1
  6
CONTINUOUS
 62
     7
 10
586.335138
 20
232.971931
 11
586.335138
 21
241.586605
  0
LINE
  8
CSLAYER1
  6
CONTINUOUS
 62
     7
 10
585.318096
 20
243.803694
 11
586.400442
 21
243.803694
  0
LINE
  8
CSLAYER1
  6
CONTINUOUS
 62
     7
 10
590.672379
 20
243.803694
 11
591.690026
 21
243.803694
  0
LINE
  8
CSLAYER1
  6
CONTINUOUS
 62
     7
 10
590.672379
 20
235.165093
 11
590.672379
 21
243.803694
  0
LINE
  8
CSLAYER1
  6
CONTINUOUS
 62
     7
 10
591.690026
 20
243.803694
 11
591.690026
 21
232.971931
  0
LINE
  8
CSLAYER1
  6
CONTINUOUS
 62
     7
 10
591.690026
 20
232.971931
 11
590.597892
 21
232.971931
  0
LINE
  8
CSLAYER1
  6
CONTINUOUS
 62
     7
 10
590.672379
 20
235.165093
 11
590.592153
 21
235.165093
  0
LINE
  8
CSLAYER1
  6
CONTINUOUS
 62
     7
 10
586.335138
 20
241.586605
 11
586.432116
 21
241.586605
  0
LINE
  8
CSLAYER1
  6
CONTINUOUS
 62
     7
 10
586.432116
 20
241.586605
 11
590.597892
 21
232.971931
  0
LINE
  8
CSLAYER1
  6
CONTINUOUS
 62
     7
 10
590.592153
 20
235.165093
 11
586.400442
 21
243.803694
  0
LINE
  8
CSLAYER1
  6
CONTINUOUS
 62
     7
 10
602.674751
 20
243.803694
 11
602.674751
 21
232.971931
  0
LINE
  8
CSLAYER1
  6
CONTINUOUS
 62
     7
 10
602.674751
 20
243.803694
 11
603.721967
 21
243.803694
  0
LINE
  8
CSLAYER1
  6
CONTINUOUS
 62
     7
 10
602.674751
 20
232.971931
 11
603.749894
 21
232.971931
  0
LINE
  8
CSLAYER1
  6
CONTINUOUS
 62
     7
 10
603.749894
 20
232.971931
 11
603.749894
 21
236.631637
  0
LINE
  8
CSLAYER1
  6
CONTINUOUS
 62
     7
 10
603.721967
 20
243.803694
 11
603.721967
 21
238.446813
  0
LINE
  8
CSLAYER1
  6
CONTINUOUS
 62
     7
 10
607.854983
 20
243.803694
 11
609.255453
 21
243.803694
  0
LINE
  8
CSLAYER1
  6
CONTINUOUS
 62
     7
 10
608.245946
 20
232.971931
 11
609.781863
 21
232.971931
  0
LINE
  8
CSLAYER1
  6
CONTINUOUS
 62
     7
 10
607.854983
 20
243.803694
 11
603.721967
 21
238.446813
  0
LINE
  8
CSLAYER1
  6
CONTINUOUS
 62
     7
 10
609.255453
 20
243.803694
 11
606.052476
 21
239.652253
  0
LINE
  8
CSLAYER1
  6
CONTINUOUS
 62
     7
 10
609.781863
 20
232.971931
 11
606.052476
 21
239.652253
  0
LINE
  8
CSLAYER1
  6
CONTINUOUS
 62
     7
 10
608.245946
 20
232.971931
 11
605.258951
 21
238.623751
  0
LINE
  8
CSLAYER1
  6
CONTINUOUS
 62
     7
 10
605.258951
 20
238.623751
 11
603.721967
 21
236.631637
  0
LINE
  8
CSLAYER1
  6
CONTINUOUS
 62
     7
 10
611.074601
 20
243.803694
 11
612.315536
 21
243.803694
  0
LINE
  8
CSLAYER1
  6
CONTINUOUS
 62
     7
 10
616.607108
 20
243.803694
 11
617.873897
 21
243.803694
  0
LINE
  8
CSLAYER1
  6
CONTINUOUS
 62
     7
 10
613.944266
 20
232.971931
 11
614.978379
 21
232.971931
  0
LINE
  8
CSLAYER1
  6
CONTINUOUS
 62
     7
 10
613.944266
 20
232.971931
 11
613.944266
 21
237.517117
  0
LINE
  8
CSLAYER1
  6
CONTINUOUS
 62
     7
 10
614.978379
 20
232.971931
 11
614.978379
 21
237.517117
  0
LINE
  8
CSLAYER1
  6
CONTINUOUS
 62
     7
 10
613.944266
 20
237.517117
 11
611.074601
 21
243.803694
  0
LINE
  8
CSLAYER1
  6
CONTINUOUS
 62
     7
 10
614.978379
 20
237.517117
 11
617.873897
 21
243.803694
  0
LINE
  8
CSLAYER1
  6
CONTINUOUS
 62
     7
 10
614.428559
 20
238.751389
 11
614.532087
 21
238.751389
  0
LINE
  8
CSLAYER1
  6
CONTINUOUS
 62
     7
 10
614.231532
 20
238.748800
 11
612.315536
 21
243.803694
  0
LINE
  8
CSLAYER1
  6
CONTINUOUS
 62
     7
 10
614.532087
 20
238.751389
 11
616.607108
 21
243.803694
  0
LINE
  8
CSLAYER1
  6
CONTINUOUS
 62
     7
 10
582.234147
 20
234.353766
 11
582.234147
 21
232.971931
  0
INSERT
  8
CSLAYER1
  2
BLKF0006
 10
0.0
 20
0.0
 30
0.0
  0
INSERT
  8
CSLAYER1
  2
BLKF0007
 10
0.0
 20
0.0
 30
0.0
  0
INSERT
  8
CSLAYER1
  2
BLKF0008
 10
0.0
 20
0.0
 30
0.0
  0
LINE
  8
CSLAYER1
  6
CONTINUOUS
 62
     7
 10
549.088934
 20
219.517002
 11
549.088934
 21
230.348764
  0
LINE
  8
CSLAYER1
  6
CONTINUOUS
 62
     7
 10
549.088934
 20
230.348764
 11
550.646261
 21
230.348764
  0
LINE
  8
CSLAYER1
  6
CONTINUOUS
 62
     7
 10
549.088934
 20
219.517002
 11
550.090073
 21
219.517002
  0
LINE
  8
CSLAYER1
  6
CONTINUOUS
 62
     7
 10
552.648537
 20
219.517002
 11
553.691390
 21
219.517002
  0
LINE
  8
CSLAYER1
  6
CONTINUOUS
 62
     7
 10
556.235951
 20
219.517002
 11
557.195375
 21
219.517002
  0
LINE
  8
CSLAYER1
  6
CONTINUOUS
 62
     7
 10
550.090073
 20
219.517002
 11
550.090073
 21
228.429916
  0
LINE
  8
CSLAYER1
  6
CONTINUOUS
 62
     7
 10
557.195375
 20
219.517002
 11
557.195375
 21
230.348764
  0
LINE
  8
CSLAYER1
  6
CONTINUOUS
 62
     7
 10
556.235951
 20
219.517002
 11
556.235951
 21
228.429916
  0
LINE
  8
CSLAYER1
  6
CONTINUOUS
 62
     7
 10
550.090073
 20
228.429916
 11
550.174478
 21
228.429916
  0
LINE
  8
CSLAYER1
  6
CONTINUOUS
 62
     7
 10
550.174478
 20
228.429916
 11
552.648537
 21
219.517002
  0
LINE
  8
CSLAYER1
  6
CONTINUOUS
 62
     7
 10
556.235951
 20
228.429916
 11
556.162638
 21
228.429916
  0
LINE
  8
CSLAYER1
  6
CONTINUOUS
 62
     7
 10
553.691390
 20
219.517002
 11
556.162638
 21
228.429916
  0
LINE
  8
CSLAYER1
  6
CONTINUOUS
 62
     7
 10
557.195375
 20
230.348764
 11
555.731055
 21
230.348764
  0
LINE
  8
CSLAYER1
  6
CONTINUOUS
 62
     7
 10
550.646261
 20
230.348764
 11
553.124559
 21
221.537106
  0
LINE
  8
CSLAYER1
  6
CONTINUOUS
 62
     7
 10
553.219697
 20
221.537106
 11
555.731055
 21
230.348764
  0
INSERT
  8
CSLAYER1
  2
BLKF0009
 10
0.0
 20
0.0
 30
0.0
  0
INSERT
  8
CSLAYER1
  2
BLKF0010
 10
0.0
 20
0.0
 30
0.0
  0
LINE
  8
CSLAYER1
  6
CONTINUOUS
 62
     7
 10
566.056923
 20
227.652325
 11
568.433228
 21
227.652325
  0
LINE
  8
CSLAYER1
  6
CONTINUOUS
 62
     7
 10
566.056923
 20
227.652325
 11
566.056923
 21
221.850715
  0
LINE
  8
CSLAYER1
  6
CONTINUOUS
 62
     7
 10
566.056923
 20
221.850715
 11
566.581422
 21
221.850715
  0
LINE
  8
CSLAYER1
  6
CONTINUOUS
 62
     7
 10
566.581422
 20
221.850715
 11
566.581422
 21
224.152092
  0
LINE
  8
CSLAYER1
  6
CONTINUOUS
 62
     7
 10
566.581422
 20
224.152092
 11
567.876617
 21
224.152092
  0
LINE
  8
CSLAYER1
  6
CONTINUOUS
 62
     7
 10
569.032658
 20
221.850715
 11
569.803350
 21
221.850715
  0
LINE
  8
CSLAYER1
  6
CONTINUOUS
 62
     7
 10
566.581422
 20
224.901376
 11
566.581422
 21
226.913743
  0
LINE
  8
CSLAYER1
  6
CONTINUOUS
 62
     7
 10
566.581422
 20
226.913743
 11
568.261962
 21
226.913743
  0
LINE
  8
CSLAYER1
  6
CONTINUOUS
 62
     7
 10
566.581422
 20
224.901376
 11
568.347596
 21
224.901376
  0
LINE
  8
CSLAYER1
  6
CONTINUOUS
 62
     7
 10
569.032658
 20
221.850715
 11
567.876617
 21
224.152092
  0
ARC
  8
CSLAYER1
  6
CONTINUOUS
 62
     7
 10
568.224734
 20
226.390339
 40
1.279092
 50
16.813305
 51
80.618849
  0
ARC
  8
CSLAYER1
  6
CONTINUOUS
 62
     7
 10
566.945658
 20
225.940626
 40
2.634267
 50
-24.514508
 51
18.129563
  0
ARC
  8
CSLAYER1
  6
CONTINUOUS
 62
     7
 10
568.291548
 20
225.330490
 40
1.156560
 50
280.212276
 51
336.078889
  0
ARC
  8
CSLAYER1
  6
CONTINUOUS
 62
     7
 10
568.258641
 20
226.208766
 40
0.686454
 50
7.898580
 51
53.559298
  0
ARC
  8
CSLAYER1
  6
CONTINUOUS
 62
     7
 10
567.423401
 20
225.935397
 40
1.559162
 50
-25.395544
 51
13.640759
  0
ARC
  8
CSLAYER1
  6
CONTINUOUS
 62
     7
 10
568.237190
 20
225.551395
 40
0.659328
 50
279.639685
 51
334.420970
  0
LINE
  8
CSLAYER1
  6
CONTINUOUS
 62
     7
 10
568.496601
 20
224.192253
 11
569.803350
 21
221.850715
  0
ARC
  8
CSLAYER1
  6
CONTINUOUS
 62
     7
 10
568.238858
 20
226.240788
 40
0.673351
 50
50.585215
 51
88.033532
  0
LINE
  8
CSLAYER1
  6
CONTINUOUS
 62
     7
 10
581.955662
 20
216.451473
 11
581.955662
 21
210.347125
  0
LINE
  8
CSLAYER1
  6
CONTINUOUS
 62
     7
 10
581.955662
 20
216.451473
 11
588.255665
 21
216.451473
  0
LINE
  8
CSLAYER1
  6
CONTINUOUS
 62
     7
 10
584.773053
 20
205.651473
 11
585.438273
 21
205.651473
  0
LINE
  8
CSLAYER1
  6
CONTINUOUS
 62
     7
 10
584.773053
 20
213.164517
 11
585.438273
 21
213.164517
  0
LINE
  8
CSLAYER1
  6
CONTINUOUS
 62
     7
 10
581.955662
 20
210.347125
 11
583.305662
 21
210.347125
  0
LINE
  8
CSLAYER1
  6
CONTINUOUS
 62
     7
 10
581.955662
 20
208.468864
 11
583.305662
 21
208.468864
  0
LINE
  8
CSLAYER1
  6
CONTINUOUS
 62
     7
 10
588.255665
 20
210.347125
 11
588.255665
 21
208.468864
  0
ARC
  8
CSLAYER1
  6
CONTINUOUS
 62
     7
 10
584.773053
 20
208.468864
 40
2.817391
 50
180.000000
 51
270.000000
  0
ARC
  8
CSLAYER1
  6
CONTINUOUS
 62
     7
 10
585.438273
 20
208.468864
 40
2.817391
 50
270.000000
 51
360.000000
  0
ARC
  8
CSLAYER1
  6
CONTINUOUS
 62
     7
 10
585.438273
 20
210.347125
 40
2.817391
 50
0.000000
 51
90.000000
  0
ARC
  8
CSLAYER1
  6
CONTINUOUS
 62
     7
 10
584.773053
 20
210.347125
 40
2.817391
 50
90.000000
 51
121.388166
  0
LINE
  8
CSLAYER1
  6
CONTINUOUS
 62
     7
 10
583.305662
 20
215.101473
 11
588.255665
 21
215.101473
  0
LINE
  8
CSLAYER1
  6
CONTINUOUS
 62
     7
 10
588.255665
 20
216.451473
 11
588.255665
 21
215.101473
  0
LINE
  8
CSLAYER1
  6
CONTINUOUS
 62
     7
 10
583.305662
 20
215.101473
 11
583.305662
 21
212.752215
  0
ARC
  8
CSLAYER1
  6
CONTINUOUS
 62
     7
 10
584.773053
 20
208.468864
 40
1.467392
 50
180.000000
 51
270.000000
  0
LINE
  8
CSLAYER1
  6
CONTINUOUS
 62
     7
 10
584.773053
 20
207.001473
 11
585.438273
 21
207.001473
  0
ARC
  8
CSLAYER1
  6
CONTINUOUS
 62
     7
 10
585.438273
 20
208.468864
 40
1.469355
 50
270.000000
 51
360.000000
  0
LINE
  8
CSLAYER1
  6
CONTINUOUS
 62
     7
 10
586.905665
 20
210.347125
 11
586.905665
 21
208.468864
  0
ARC
  8
CSLAYER1
  6
CONTINUOUS
 62
     7
 10
585.438273
 20
210.347125
 40
1.467392
 50
0.000000
 51
90.000000
  0
LINE
  8
CSLAYER1
  6
CONTINUOUS
 62
     7
 10
584.773053
 20
211.814517
 11
585.438273
 21
211.814517
  0
ARC
  8
CSLAYER1
  6
CONTINUOUS
 62
     7
 10
584.773053
 20
210.347125
 40
1.467392
 50
90.000000
 51
180.000000
  0
LINE
  8
CSLAYER1
  6
CONTINUOUS
 62
     7
 10
592.207484
 20
216.451473
 11
593.843850
 21
216.451473
  0
LINE
  8
CSLAYER1
  6
CONTINUOUS
 62
     7
 10
589.875665
 20
214.103647
 11
589.875665
 21
207.999298
  0
LINE
  8
CSLAYER1
  6
CONTINUOUS
 62
     7
 10
591.225665
 20
214.119655
 11
591.225665
 21
207.999298
  0
LINE
  8
CSLAYER1
  6
CONTINUOUS
 62
     7
 10
592.207484
 20
215.101473
 11
593.843850
 21
215.101473
  0
ARC
  8
CSLAYER1
  6
CONTINUOUS
 62
     7
 10
592.207484
 20
214.119655
 40
0.981818
 50
90.000000
 51
180.000000
  0
ARC
  8
CSLAYER1
  6
CONTINUOUS
 62
     7
 10
592.207484
 20
214.119655
 40
2.331818
 50
90.000000
 51
180.000000
  0
ARC
  8
CSLAYER1
  6
CONTINUOUS
 62
     7
 10
592.207484
 20
207.983292
 40
0.981818
 50
180.000000
 51
270.000000
  0
ARC
  8
CSLAYER1
  6
CONTINUOUS
 62
     7
 10
592.207484
 20
207.983292
 40
2.331818
 50
180.000000
 51
270.000000
  0
LINE
  8
CSLAYER1
  6
CONTINUOUS
 62
     7
 10
596.175668
 20
214.103647
 11
596.175668
 21
207.999298
  0
LINE
  8
CSLAYER1
  6
CONTINUOUS
 62
     7
 10
594.825668
 20
214.119655
 11
594.825668
 21
207.999298
  0
ARC
  8
CSLAYER1
  6
CONTINUOUS
 62
     7
 10
593.843850
 20
214.119655
 40
0.981818
 50
0.000000
 51
90.000000
  0
ARC
  8
CSLAYER1
  6
CONTINUOUS
 62
     7
 10
593.843850
 20
214.119655
 40
2.331818
 50
0.000000
 51
90.000000
  0
ARC
  8
CSLAYER1
  6
CONTINUOUS
 62
     7
 10
593.843850
 20
207.983292
 40
0.981818
 50
270.000000
 51
360.000000
  0
ARC
  8
CSLAYER1
  6
CONTINUOUS
 62
     7
 10
593.843850
 20
207.983292
 40
2.331818
 50
270.000000
 51
360.000000
  0
LINE
  8
CSLAYER1
  6
CONTINUOUS
 62
     7
 10
592.207484
 20
207.001473
 11
593.843850
 21
207.001473
  0
LINE
  8
CSLAYER1
  6
CONTINUOUS
 62
     7
 10
592.207484
 20
205.651473
 11
593.843850
 21
205.651473
  0
LINE
  8
CSLAYER1
  6
CONTINUOUS
 62
     7
 10
553.227752
 20
205.651473
 11
554.577752
 21
205.651473
  0
LINE
  8
CSLAYER1
  6
CONTINUOUS
 62
     7
 10
553.227752
 20
216.451473
 11
554.577752
 21
216.451473
  0
LINE
  8
CSLAYER1
  6
CONTINUOUS
 62
     7
 10
553.227752
 20
214.573213
 11
553.227752
 21
205.651473
  0
LINE
  8
CSLAYER1
  6
CONTINUOUS
 62
     7
 10
558.529569
 20
216.451473
 11
560.165936
 21
216.451473
  0
LINE
  8
CSLAYER1
  6
CONTINUOUS
 62
     7
 10
552.758186
 20
214.573213
 11
553.227752
 21
214.573213
  0
LINE
  8
CSLAYER1
  6
CONTINUOUS
 62
     7
 10
553.227752
 20
216.451473
 11
552.758186
 21
214.573213
  0
LINE
  8
CSLAYER1
  6
CONTINUOUS
 62
     7
 10
556.197752
 20
214.103647
 11
556.197752
 21
207.999298
  0
LINE
  8
CSLAYER1
  6
CONTINUOUS
 62
     7
 10
557.547752
 20
214.119655
 11
557.547752
 21
207.999298
  0
LINE
  8
CSLAYER1
  6
CONTINUOUS
 62
     7
 10
558.529569
 20
215.101473
 11
560.165936
 21
215.101473
  0
ARC
  8
CSLAYER1
  6
CONTINUOUS
 62
     7
 10
558.529569
 20
214.119655
 40
0.981818
 50
90.000000
 51
180.000000
  0
ARC
  8
CSLAYER1
  6
CONTINUOUS
 62
     7
 10
558.529569
 20
214.119655
 40
2.331818
 50
90.000000
 51
180.000000
  0
ARC
  8
CSLAYER1
  6
CONTINUOUS
 62
     7
 10
558.529569
 20
207.983292
 40
0.981818
 50
180.000000
 51
270.000000
  0
ARC
  8
CSLAYER1
  6
CONTINUOUS
 62
     7
 10
558.529569
 20
207.983292
 40
2.331818
 50
180.000000
 51
270.000000
  0
LINE
  8
CSLAYER1
  6
CONTINUOUS
 62
     7
 10
562.497755
 20
214.103647
 11
562.497755
 21
207.999298
  0
LINE
  8
CSLAYER1
  6
CONTINUOUS
 62
     7
 10
561.147755
 20
214.119655
 11
561.147755
 21
207.999298
  0
ARC
  8
CSLAYER1
  6
CONTINUOUS
 62
     7
 10
560.165936
 20
214.119655
 40
0.981818
 50
0.000000
 51
90.000000
  0
ARC
  8
CSLAYER1
  6
CONTINUOUS
 62
     7
 10
560.165936
 20
214.119655
 40
2.331818
 50
0.000000
 51
90.000000
  0
ARC
  8
CSLAYER1
  6
CONTINUOUS
 62
     7
 10
560.165936
 20
207.983292
 40
0.981818
 50
270.000000
 51
360.000000
  0
ARC
  8
CSLAYER1
  6
CONTINUOUS
 62
     7
 10
560.165936
 20
207.983292
 40
2.331818
 50
270.000000
 51
360.000000
  0
LINE
  8
CSLAYER1
  6
CONTINUOUS
 62
     7
 10
558.529569
 20
207.001473
 11
560.165936
 21
207.001473
  0
LINE
  8
CSLAYER1
  6
CONTINUOUS
 62
     7
 10
558.529569
 20
205.651473
 11
560.165936
 21
205.651473
  0
LINE
  8
CSLAYER1
  6
CONTINUOUS
 62
     7
 10
554.577752
 20
216.451473
 11
554.577752
 21
205.651473
  0
LINE
  8
CSLAYER1
  6
CONTINUOUS
 62
     7
 10
578.367406
 20
205.651473
 11
579.717406
 21
205.651473
  0
LINE
  8
CSLAYER1
  6
CONTINUOUS
 62
     7
 10
578.367406
 20
216.451473
 11
579.717406
 21
216.451473
  0
LINE
  8
CSLAYER1
  6
CONTINUOUS
 62
     7
 10
578.367406
 20
214.573213
 11
578.367406
 21
205.651473
  0
LINE
  8
CSLAYER1
  6
CONTINUOUS
 62
     7
 10
577.897840
 20
214.573213
 11
578.367406
 21
214.573213
  0
LINE
  8
CSLAYER1
  6
CONTINUOUS
 62
     7
 10
578.367406
 20
216.451473
 11
577.897840
 21
214.573213
  0
LINE
  8
CSLAYER1
  6
CONTINUOUS
 62
     7
 10
579.717406
 20
216.451473
 11
579.717406
 21
205.651473
  0
LINE
  8
CSLAYER4
  6
CONTINUOUS
 62
     7
 10
351.922336
 20
253.005928
 11
351.920638
 21
252.985339
  0
LINE
  8
CSLAYER4
  6
CONTINUOUS
 62
     7
 10
352.939170
 20
273.631728
 11
345.747233
 21
274.939353
  0
LINE
  8
CSLAYER4
  6
CONTINUOUS
 62
     7
 10
353.555007
 20
272.893826
 11
353.555007
 21
254.645690
  0
ARC
  8
CSLAYER4
  6
CONTINUOUS
 62
     7
 10
352.846116
 20
272.990724
 40
0.750000
 50
0.000000
 51
79.695154
  0
ARC
  8
CSLAYER4
  6
CONTINUOUS
 62
     7
 10
352.805007
 20
254.645690
 40
0.750000
 50
280.304846
 51
360.000000
  0
LINE
  8
CSLAYER4
  6
CONTINUOUS
 62
     7
 10
352.939170
 20
253.907787
 11
345.755400
 21
252.601647
  0
LINE
  8
CSLAYER1
  6
CONTINUOUS
 62
     5
 10
837.738904
 20
371.262685
 11
788.906974
 21
371.262685
  0
LINE
  8
CSLAYER1
  6
CONTINUOUS
 62
     5
 10
837.738904
 20
231.174051
 11
779.966938
 21
231.174051
  0
LINE
  8
CSLAYER1
  6
CENTER
 62
     7
 10
779.966938
 20
231.174051
 11
83.755400
 21
231.174051
  0
TEXT
  8
CSLAYER1
 62
     7
 10
61.220001
 20
700.031982
 40
6.000000
 41
0.846774
  1
SMOLENSKY CHECK VALVE
 50
0.000000
 51
0.000000
  7
EASYDRAW_FONT
 72
     5
 11
166.220001
 21
700.031982
  0
TEXT
  8
CSLAYER1
 62
     7
 10
61.303162
 20
680.032043
 40
6.000000
 41
0.865385
  1
株式会社　イシザキ
 50
0.000000
 51
0.000000
  7
EASYDRAW_FONT
 72
     5
 11
106.303162
 21
680.032043
  0
TEXT
  8
CSLAYER1
 62
     7
 10
61.238434
 20
690.031982
 40
6.000000
 41
0.850000
  1
SM ・ SMC 10K 150A
 50
0.000000
 51
0.000000
  7
EASYDRAW_FONT
 72
     5
 11
146.238434
 21
690.031982
  0
ENDSEC
  0
EOF
