  0
SECTION
  2
HEADER
  9
$ACADVER
  1
AC1006
  9
$INSBASE
 10
-56.244976
 20
-22.032178
 30
0.0
  9
$EXTMIN
 10
-56.244976
 20
-22.032178
  9
$EXTMAX
 10
678.685348
 20
642.422058
  9
$LIMMIN
 10
-56.244976
 20
-22.032178
  9
$LIMMAX
 10
678.685348
 20
642.422058
  9
$VIEWCTR
 10
311.220186
 20
310.194940
  9
$VIEWSIZE
 40
664.454236
  9
$SNAPMODE
 70
     0
  9
$SNAPUNIT
 10
1.0
 20
1.0
  9
$SNAPBASE
 10
0.0
 20
0.0
  9
$SNAPANG
 50
0.0
  9
$SNAPSTYLE
 70
     0
  9
$SNAPISOPAIR
 70
     0
  9
$GRIDMODE
 70
     0
  9
$GRIDUNIT
 10
0.0
 20
0.0
  9
$ORTHOMODE
 70
     0
  9
$REGENMODE
 70
     1
  9
$FILLMODE
 70
     1
  9
$QTEXTMODE
 70
     0
  9
$DRAGMODE
 70
     2
  9
$LTSCALE
 40
15.000000
  9
$OSMODE
 70
     0
  9
$ATTMODE
 70
     1
  9
$TEXTSIZE
 40
0.2
  9
$TRACEWID
 40
0.05
  9
$TEXTSTYLE
  7
STANDARD
  9
$CLAYER
  8
CSLAYER1
  9
$CELTYPE
  6
BYLAYER
  9
$CECOLOR
 62
   256
  9
$DIMSCALE
 40
1.0
  9
$DIMASZ
 40
0.18
  9
$DIMEXO
 40
0.0625
  9
$DIMDLI
 40
0.38
  9
$DIMRND
 40
0.0
  9
$DIMDLE
 40
0.0
  9
$DIMEXE
 40
0.18
  9
$DIMTP
 40
0.0
  9
$DIMTM
 40
0.0
  9
$DIMTXT
 40
0.18
  9
$DIMCEN
 40
0.09
  9
$DIMTSZ
 40
0.0
  9
$DIMTOL
 70
     0
  9
$DIMLIM
 70
     0
  9
$DIMTIH
 70
     1
  9
$DIMTOH
 70
     1
  9
$DIMSE1
 70
     0
  9
$DIMSE2
 70
     0
  9
$DIMTAD
 70
     0
  9
$DIMZIN
 70
     0
  9
$DIMBLK
  1

  9
$LUNITS
 70
     2
  9
$LUPREC
 70
     4
  9
$AXISMODE
 70
     0
  9
$AXISUNIT
 10
0.0
 20
0.0
  9
$SKETCHINC
 40
0.1
  9
$FILLETRAD
 40
0.0
  9
$AUNITS
 70
     0
  9
$AUPREC
 70
     0
  9
$MENU
  1
ACAD
  9
$ELEVATION
 40
0.0
  9
$THICKNESS
 40
0.0
  9
$VIEWDIR
 10
0.0
 20
0.0
 30
1.0
  9
$LIMCHECK
 70
     0
  9
$BLIPMODE
 70
     1
  9
$CHAMFERA
 40
0.0
  9
$CHAMFERB
 40
0.0
  9
$FASTZOOM
 70
     1
  9
$SKPOLY
 70
     0
  9
$TDCREATE
 40
2456637.000000
  9
$TDUPDATE
 40
2456637.000000
  9
$TDINDWG
 40
0.0
  9
$TDUSRTIMER
 40
0.0
  9
$USRTIMER
 70
     1
  9
$ANGBASE
 50
0.0
  9
$ANGDIR
 70
     0
  9
$PDMODE
 70
     0
  9
$PDSIZE
 40
0.0
  9
$PLINEWID
 40
0.0
  9
$COORDS
 70
     0
  9
$USERI1
 70
     0
  9
$USERI2
 70
     0
  9
$USERI3
 70
     0
  9
$USERI4
 70
     0
  9
$USERI5
 70
     0
  9
$USERR1
 40
0.0
  9
$USERR2
 40
0.0
  9
$USERR3
 40
0.0
  9
$USERR4
 40
0.0
  9
$USERR5
 40
0.0
  0
ENDSEC
  0
SECTION
  2
TABLES
  0
TABLE
  2
LTYPE
 70
     9
  0
LTYPE
  2
CONTINUOUS
 70
    64
  3
Solid line
 72
    65
 73
     0
 40
0.0
  0
LTYPE
  2
DASHED
 70
    64
  3
__ __ __ __ __ __ __ __ __ __ __ __ __ __ __
 72
    65
 73
     2
 40
0.75
 49
0.5
 49
-0.25
  0
LTYPE
  2
HIDDEN
 70
    64
  3
_ _ _ _ _ _ _ _ _ _ _ _ _ _ _ _ _ _ _ _ _ _ _
 72
    65
 73
     2
 40
0.375
 49
0.25
 49
-0.125
  0
LTYPE
  2
DOT
 70
    64
  3
...............................................
 72
    65
 73
     2
 40
0.25
 49
0.0
 49
-0.25
  0
LTYPE
  2
DASHDOT
 70
    64
  3
__ . __ . __ . __ . __ . __ . __ . __ . __ . __
 72
    65
 73
     4
 40
1.0
 49
0.5
 49
-0.25
 49
0.0
 49
-0.25
  0
LTYPE
  2
DIVIDE
 70
    64
  3
__ . . __ . . __ . . __ . . __ . . __ . . __
 72
    65
 73
     6
 40
1.25
 49
0.5
 49
-0.25
 49
0.0
 49
-0.25
 49
0.0
 49
-0.25
  0
LTYPE
  2
CENTER
 70
    64
  3
____ _ ____ _ ____ _ ____ _ ____ _ ____ _ ____ 
 72
    65
 73
     4
 40
2.0
 49
1.25
 49
-0.25
 49
0.25
 49
-0.25
  0
LTYPE
  2
PHANTOM
 70
    64
  3
______  __  __  ______  __  __  ______  __  __ 
 72
    65
 73
     6
 40
2.5
 49
1.25
 49
-0.25
 49
0.25
 49
-0.25
 49
0.25
 49
-0.25
  0
LTYPE
  2
BORDER
 70
    64
  3
__ __ . __ __ . __ __ . __ __ . __ __ . __ __ .
 72
    65
 73
     6
 40
1.75
 49
0.5
 49
-0.25
 49
0.5
 49
-0.25
 49
0.0
 49
-0.25
  0
ENDTAB
  0
TABLE
  2
LAYER
 70
    16
  0
LAYER
  2
CSLAYER1
 70
    64
 62
     7
  6
CONTINUOUS
  0
LAYER
  2
CSLAYER2
 70
    64
 62
     7
  6
CONTINUOUS
  0
LAYER
  2
CSLAYER3
 70
    64
 62
     7
  6
CONTINUOUS
  0
LAYER
  2
CSLAYER4
 70
    64
 62
     7
  6
CONTINUOUS
  0
LAYER
  2
CSLAYER5
 70
    64
 62
     7
  6
CONTINUOUS
  0
LAYER
  2
CSLAYER6
 70
    64
 62
     7
  6
CONTINUOUS
  0
LAYER
  2
CSLAYER7
 70
    64
 62
     7
  6
CONTINUOUS
  0
LAYER
  2
CSLAYER8
 70
    64
 62
     7
  6
CONTINUOUS
  0
LAYER
  2
CSLAYER9
 70
    64
 62
     7
  6
CONTINUOUS
  0
LAYER
  2
CSLAYER10
 70
    64
 62
     7
  6
CONTINUOUS
  0
LAYER
  2
CSLAYER11
 70
    64
 62
     7
  6
CONTINUOUS
  0
LAYER
  2
CSLAYER12
 70
    64
 62
     7
  6
CONTINUOUS
  0
LAYER
  2
CSLAYER13
 70
    64
 62
     7
  6
CONTINUOUS
  0
LAYER
  2
CSLAYER14
 70
    64
 62
     7
  6
CONTINUOUS
  0
LAYER
  2
CSLAYER15
 70
    64
 62
     7
  6
CONTINUOUS
  0
LAYER
  2
CSLAYER16
 70
    64
 62
     7
  6
CONTINUOUS
  0
ENDTAB
  0
TABLE
  2
STYLE
 70
     1
  0
STYLE
  2
EASYDRAW_FONT
 70
     0
 40
1.0
 41
1.0
 50
0.0
 71
     0
 42
1.0
  3
monotxt
  4
bigfont
  0
ENDTAB
  0
TABLE
  2
VIEW
 70
     0
  0
ENDTAB
  0
ENDSEC
  0
SECTION
  2
BLOCKS
  0
BLOCK
  8
CSLAYER1
  2
BLKF0000
 70
   64
 10
0.0
 20
0.0
 30
0.0
  0
TEXT
  8
CSLAYER1
 62
     7
 10
24.000000
 20
186.108932
 40
4.000000
 41
0.843750
  1
２５５
 50
90.000000
 51
0.000000
  7
EASYDRAW_FONT
 72
     5
 11
24.000000
 21
195.108932
  0
LINE
  8
CSLAYER1
  6
CONTINUOUS
 62
     7
 10
73.031741
 20
63.108919
 11
23.999967
 21
63.108919
  0
LINE
  8
CSLAYER1
  6
CONTINUOUS
 62
     7
 10
73.031741
 20
318.108919
 11
23.999967
 21
318.108919
  0
LINE
  8
CSLAYER1
  6
CONTINUOUS
 62
     7
 10
24.999967
 20
63.108919
 11
24.999967
 21
318.108919
  0
LINE
  8
CSLAYER1
  6
CONTINUOUS
 62
     7
 10
24.999967
 20
63.108919
 11
24.223509
 21
66.006697
  0
LINE
  8
CSLAYER1
  6
CONTINUOUS
 62
     7
 10
24.999967
 20
63.108919
 11
25.776424
 21
66.006697
  0
LINE
  8
CSLAYER1
  6
CONTINUOUS
 62
     7
 10
24.999967
 20
318.108919
 11
24.223509
 21
315.211142
  0
LINE
  8
CSLAYER1
  6
CONTINUOUS
 62
     7
 10
24.999967
 20
318.108919
 11
25.776424
 21
315.211142
  0
ENDBLK
  8
0
  0
BLOCK
  8
CSLAYER1
  2
BLKF0001
 70
   64
 10
0.0
 20
0.0
 30
0.0
  0
TEXT
  8
CSLAYER1
 62
     7
 10
712.930298
 20
119.358932
 40
4.000000
 41
0.803571
  1
(127)
 50
90.000000
 51
0.000000
  7
EASYDRAW_FONT
 72
     5
 11
712.930298
 21
134.358932
  0
LINE
  8
CSLAYER1
  6
CONTINUOUS
 62
     7
 10
632.930324
 20
63.108919
 11
714.930324
 21
63.108919
  0
LINE
  8
CSLAYER1
  6
CONTINUOUS
 62
     7
 10
713.930324
 20
63.108919
 11
713.930324
 21
190.108919
  0
LINE
  8
CSLAYER1
  6
CONTINUOUS
 62
     7
 10
713.930324
 20
63.108919
 11
713.153867
 21
66.006697
  0
LINE
  8
CSLAYER1
  6
CONTINUOUS
 62
     7
 10
713.930324
 20
63.108919
 11
714.706781
 21
66.006697
  0
LINE
  8
CSLAYER1
  6
CONTINUOUS
 62
     7
 10
713.930324
 20
190.108919
 11
713.153867
 21
187.211142
  0
LINE
  8
CSLAYER1
  6
CONTINUOUS
 62
     7
 10
713.930324
 20
190.108919
 11
714.706781
 21
187.211142
  0
ENDBLK
  8
0
  0
BLOCK
  8
CSLAYER1
  2
BLKF0002
 70
   64
 10
0.0
 20
0.0
 30
0.0
  0
TEXT
  8
CSLAYER1
 62
     7
 10
602.078125
 20
24.945995
 40
4.000000
 41
0.803571
  1
（197）
 50
0.000000
 51
0.000000
  7
EASYDRAW_FONT
 72
     5
 11
617.078125
 21
24.945995
  0
ENDBLK
  8
0
  0
BLOCK
  8
CSLAYER1
  2
BLKF0003
 70
   64
 10
0.0
 20
0.0
 30
0.0
  0
TEXT
  8
CSLAYER1
 62
     7
 10
712.930298
 20
245.858917
 40
4.000000
 41
0.803571
  1
(127)
 50
90.000000
 51
0.000000
  7
EASYDRAW_FONT
 72
     5
 11
712.930298
 21
260.858917
  0
LINE
  8
CSLAYER1
  6
CONTINUOUS
 62
     7
 10
632.930324
 20
317.108919
 11
714.930324
 21
317.108919
  0
LINE
  8
CSLAYER1
  6
CONTINUOUS
 62
     7
 10
713.930324
 20
317.108919
 11
713.930324
 21
190.108919
  0
LINE
  8
CSLAYER1
  6
CONTINUOUS
 62
     7
 10
713.930324
 20
317.108919
 11
713.153867
 21
314.211142
  0
LINE
  8
CSLAYER1
  6
CONTINUOUS
 62
     7
 10
713.930324
 20
317.108919
 11
714.706781
 21
314.211142
  0
LINE
  8
CSLAYER1
  6
CONTINUOUS
 62
     7
 10
713.930324
 20
190.108919
 11
713.153867
 21
193.006697
  0
LINE
  8
CSLAYER1
  6
CONTINUOUS
 62
     7
 10
713.930324
 20
190.108919
 11
714.706781
 21
193.006697
  0
ENDBLK
  8
0
  0
BLOCK
  8
CSLAYER4
  2
BLKF0004
 70
   64
 10
0.0
 20
0.0
 30
0.0
  0
LINE
  8
CSLAYER4
  6
CONTINUOUS
 62
     7
 10
519.793352
 20
223.130774
 11
519.591192
 21
221.768456
  0
LINE
  8
CSLAYER4
  6
CONTINUOUS
 62
     7
 10
519.591192
 20
221.768456
 11
519.216942
 21
220.419525
  0
LINE
  8
CSLAYER4
  6
CONTINUOUS
 62
     7
 10
519.216942
 20
220.419525
 11
518.669972
 21
219.123912
  0
LINE
  8
CSLAYER4
  6
CONTINUOUS
 62
     7
 10
518.669972
 20
219.123912
 11
517.965216
 21
217.914944
  0
LINE
  8
CSLAYER4
  6
CONTINUOUS
 62
     7
 10
517.965216
 20
217.914944
 11
517.132430
 21
216.819644
  0
LINE
  8
CSLAYER4
  6
CONTINUOUS
 62
     7
 10
517.132430
 20
216.819644
 11
516.197504
 21
215.860371
  0
LINE
  8
CSLAYER4
  6
CONTINUOUS
 62
     7
 10
516.197504
 20
215.860371
 11
515.132174
 21
215.007902
  0
LINE
  8
CSLAYER4
  6
CONTINUOUS
 62
     7
 10
515.132174
 20
215.007902
 11
513.946251
 21
214.273691
  0
LINE
  8
CSLAYER4
  6
CONTINUOUS
 62
     7
 10
513.946251
 20
214.273691
 11
512.667030
 21
213.686694
  0
LINE
  8
CSLAYER4
  6
CONTINUOUS
 62
     7
 10
512.667030
 20
213.686694
 11
511.325154
 21
213.267726
  0
LINE
  8
CSLAYER4
  6
CONTINUOUS
 62
     7
 10
511.325154
 20
213.267726
 11
509.959473
 21
213.017802
  0
LINE
  8
CSLAYER4
  6
CONTINUOUS
 62
     7
 10
509.959473
 20
213.017802
 11
508.610100
 21
212.934933
  0
LINE
  8
CSLAYER4
  6
CONTINUOUS
 62
     7
 10
508.610100
 20
212.934933
 11
507.260699
 21
213.017802
  0
LINE
  8
CSLAYER4
  6
CONTINUOUS
 62
     7
 10
507.260699
 20
213.017802
 11
505.895018
 21
213.267726
  0
LINE
  8
CSLAYER4
  6
CONTINUOUS
 62
     7
 10
505.895018
 20
213.267726
 11
504.553170
 21
213.686694
  0
LINE
  8
CSLAYER4
  6
CONTINUOUS
 62
     7
 10
504.553170
 20
213.686694
 11
503.273949
 21
214.273691
  0
LINE
  8
CSLAYER4
  6
CONTINUOUS
 62
     7
 10
503.273949
 20
214.273691
 11
502.088027
 21
215.007902
  0
LINE
  8
CSLAYER4
  6
CONTINUOUS
 62
     7
 10
502.088027
 20
215.007902
 11
501.022695
 21
215.860371
  0
LINE
  8
CSLAYER4
  6
CONTINUOUS
 62
     7
 10
501.022695
 20
215.860371
 11
500.087771
 21
216.819644
  0
LINE
  8
CSLAYER4
  6
CONTINUOUS
 62
     7
 10
500.087771
 20
216.819644
 11
499.254984
 21
217.914944
  0
LINE
  8
CSLAYER4
  6
CONTINUOUS
 62
     7
 10
499.254984
 20
217.914944
 11
498.550229
 21
219.123912
  0
LINE
  8
CSLAYER4
  6
CONTINUOUS
 62
     7
 10
498.550229
 20
219.123912
 11
498.003258
 21
220.419525
  0
LINE
  8
CSLAYER4
  6
CONTINUOUS
 62
     7
 10
498.003258
 20
220.419525
 11
497.628980
 21
221.768456
  0
LINE
  8
CSLAYER4
  6
CONTINUOUS
 62
     7
 10
497.628980
 20
221.768456
 11
497.426847
 21
223.130774
  0
ENDBLK
  8
0
  0
BLOCK
  8
CSLAYER4
  2
BLKF0005
 70
   64
 10
0.0
 20
0.0
 30
0.0
  0
LINE
  8
CSLAYER4
  6
CONTINUOUS
 62
     7
 10
497.422899
 20
223.161530
 11
497.398466
 21
224.664726
  0
LINE
  8
CSLAYER4
  6
CONTINUOUS
 62
     7
 10
497.398466
 20
224.664726
 11
497.567553
 21
226.156134
  0
LINE
  8
CSLAYER4
  6
CONTINUOUS
 62
     7
 10
497.567553
 20
226.156134
 11
497.927642
 21
227.614326
  0
LINE
  8
CSLAYER4
  6
CONTINUOUS
 62
     7
 10
497.927642
 20
227.614326
 11
498.470435
 21
229.008002
  0
LINE
  8
CSLAYER4
  6
CONTINUOUS
 62
     7
 10
498.470435
 20
229.008002
 11
499.187664
 21
230.317994
  0
LINE
  8
CSLAYER4
  6
CONTINUOUS
 62
     7
 10
499.187664
 20
230.317994
 11
500.070062
 21
231.525317
  0
LINE
  8
CSLAYER4
  6
CONTINUOUS
 62
     7
 10
500.070062
 20
231.525317
 11
501.100259
 21
232.604508
  0
LINE
  8
CSLAYER4
  6
CONTINUOUS
 62
     7
 10
501.100259
 20
232.604508
 11
502.264065
 21
233.539334
  0
LINE
  8
CSLAYER4
  6
CONTINUOUS
 62
     7
 10
502.264065
 20
233.539334
 11
503.545718
 21
234.313740
  0
LINE
  8
CSLAYER4
  6
CONTINUOUS
 62
     7
 10
503.545718
 20
234.313740
 11
504.920096
 21
234.909578
  0
LINE
  8
CSLAYER4
  6
CONTINUOUS
 62
     7
 10
504.920096
 20
234.909578
 11
506.367488
 21
235.315614
  0
LINE
  8
CSLAYER4
  6
CONTINUOUS
 62
     7
 10
506.367488
 20
235.315614
 11
507.859025
 21
235.521078
  0
LINE
  8
CSLAYER4
  6
CONTINUOUS
 62
     7
 10
507.859025
 20
235.521078
 11
509.365725
 21
235.520763
  0
LINE
  8
CSLAYER4
  6
CONTINUOUS
 62
     7
 10
509.365725
 20
235.520763
 11
510.857177
 21
235.314669
  0
LINE
  8
CSLAYER4
  6
CONTINUOUS
 62
     7
 10
510.857177
 20
235.314669
 11
512.303280
 21
234.908447
  0
LINE
  8
CSLAYER4
  6
CONTINUOUS
 62
     7
 10
512.303280
 20
234.908447
 11
513.679260
 21
234.311265
  0
LINE
  8
CSLAYER4
  6
CONTINUOUS
 62
     7
 10
513.679260
 20
234.311265
 11
514.957451
 21
233.538417
  0
LINE
  8
CSLAYER4
  6
CONTINUOUS
 62
     7
 10
514.957451
 20
233.538417
 11
516.120086
 21
232.604379
  0
LINE
  8
CSLAYER4
  6
CONTINUOUS
 62
     7
 10
516.120086
 20
232.604379
 11
517.151799
 21
231.523343
  0
LINE
  8
CSLAYER4
  6
CONTINUOUS
 62
     7
 10
517.151799
 20
231.523343
 11
518.032536
 21
230.317994
  0
LINE
  8
CSLAYER4
  6
CONTINUOUS
 62
     7
 10
518.032536
 20
230.317994
 11
518.750252
 21
229.006901
  0
LINE
  8
CSLAYER4
  6
CONTINUOUS
 62
     7
 10
518.750252
 20
229.006901
 11
519.293904
 21
227.610192
  0
LINE
  8
CSLAYER4
  6
CONTINUOUS
 62
     7
 10
519.293904
 20
227.610192
 11
519.652590
 21
226.156649
  0
LINE
  8
CSLAYER4
  6
CONTINUOUS
 62
     7
 10
519.652590
 20
226.156649
 11
519.821676
 21
224.665413
  0
LINE
  8
CSLAYER4
  6
CONTINUOUS
 62
     7
 10
519.821676
 20
224.665413
 11
519.797301
 21
223.161530
  0
ENDBLK
  8
0
  0
BLOCK
  8
CSLAYER1
  2
BLKF0006
 70
   64
 10
0.0
 20
0.0
 30
0.0
  0
LINE
  8
CSLAYER4
  6
CONTINUOUS
 62
     7
 10
476.885490
 20
193.504815
 11
477.019468
 21
193.466315
  0
LINE
  8
CSLAYER4
  6
CONTINUOUS
 62
     7
 10
477.019468
 20
193.466315
 11
477.154270
 21
193.431852
  0
LINE
  8
CSLAYER4
  6
CONTINUOUS
 62
     7
 10
477.154270
 20
193.431852
 11
477.289855
 21
193.401591
  0
LINE
  8
CSLAYER4
  6
CONTINUOUS
 62
     7
 10
477.289855
 20
193.401591
 11
477.426192
 21
193.375698
  0
LINE
  8
CSLAYER4
  6
CONTINUOUS
 62
     7
 10
477.426192
 20
193.375698
 11
477.563230
 21
193.354358
  0
LINE
  8
CSLAYER4
  6
CONTINUOUS
 62
     7
 10
477.563230
 20
193.354358
 11
477.700915
 21
193.337714
  0
LINE
  8
CSLAYER4
  6
CONTINUOUS
 62
     7
 10
477.700915
 20
193.337714
 11
477.839220
 21
193.325951
  0
LINE
  8
CSLAYER4
  6
CONTINUOUS
 62
     7
 10
477.839220
 20
193.325951
 11
477.978090
 21
193.319226
  0
LINE
  8
CSLAYER4
  6
CONTINUOUS
 62
     7
 10
477.978090
 20
193.319226
 11
478.117497
 21
193.317701
  0
LINE
  8
CSLAYER4
  6
CONTINUOUS
 62
     7
 10
478.117497
 20
193.317701
 11
478.256718
 21
193.321523
  0
LINE
  8
CSLAYER4
  6
CONTINUOUS
 62
     7
 10
478.256718
 20
193.321523
 11
478.395012
 21
193.330710
  0
LINE
  8
CSLAYER4
  6
CONTINUOUS
 62
     7
 10
478.395012
 20
193.330710
 11
478.532389
 21
193.345263
  0
LINE
  8
CSLAYER4
  6
CONTINUOUS
 62
     7
 10
478.532389
 20
193.345263
 11
478.668838
 21
193.365203
  0
LINE
  8
CSLAYER4
  6
CONTINUOUS
 62
     7
 10
478.668838
 20
193.365203
 11
478.804383
 21
193.390520
  0
LINE
  8
CSLAYER4
  6
CONTINUOUS
 62
     7
 10
478.804383
 20
193.390520
 11
478.939000
 21
193.421223
  0
LINE
  8
CSLAYER4
  6
CONTINUOUS
 62
     7
 10
478.939000
 20
193.421223
 11
479.072668
 21
193.457313
  0
LINE
  8
CSLAYER4
  6
CONTINUOUS
 62
     7
 10
479.072668
 20
193.457313
 11
479.205432
 21
193.498800
  0
LINE
  8
CSLAYER4
  6
CONTINUOUS
 62
     7
 10
479.205432
 20
193.498800
 11
479.337165
 21
193.545644
  0
LINE
  8
CSLAYER4
  6
CONTINUOUS
 62
     7
 10
479.337165
 20
193.545644
 11
479.466940
 21
193.597440
  0
LINE
  8
CSLAYER4
  6
CONTINUOUS
 62
     7
 10
479.466940
 20
193.597440
 11
479.594533
 21
193.653975
  0
LINE
  8
CSLAYER4
  6
CONTINUOUS
 62
     7
 10
479.594533
 20
193.653975
 11
479.719983
 21
193.715073
  0
LINE
  8
CSLAYER4
  6
CONTINUOUS
 62
     7
 10
479.719983
 20
193.715073
 11
479.843271
 21
193.780580
  0
LINE
  8
CSLAYER4
  6
CONTINUOUS
 62
     7
 10
479.843271
 20
193.780580
 11
479.964456
 21
193.850360
  0
LINE
  8
CSLAYER4
  6
CONTINUOUS
 62
     7
 10
479.964456
 20
193.850360
 11
480.083541
 21
193.924239
  0
LINE
  8
CSLAYER4
  6
CONTINUOUS
 62
     7
 10
480.083541
 20
193.924239
 11
480.134607
 21
193.957724
  0
LINE
  8
CSLAYER4
  6
CONTINUOUS
 62
     7
 10
480.134607
 20
193.957724
 11
480.184642
 21
193.992536
  0
LINE
  8
CSLAYER4
  6
CONTINUOUS
 62
     7
 10
480.184642
 20
193.992536
 11
480.233649
 21
194.028657
  0
LINE
  8
CSLAYER4
  6
CONTINUOUS
 62
     7
 10
480.233649
 20
194.028657
 11
480.281646
 21
194.066066
  0
LINE
  8
CSLAYER4
  6
CONTINUOUS
 62
     7
 10
480.281646
 20
194.066066
 11
480.328633
 21
194.104742
  0
LINE
  8
CSLAYER4
  6
CONTINUOUS
 62
     7
 10
480.328633
 20
194.104742
 11
480.374652
 21
194.144673
  0
LINE
  8
CSLAYER4
  6
CONTINUOUS
 62
     7
 10
480.374652
 20
194.144673
 11
480.419662
 21
194.185830
  0
LINE
  8
CSLAYER4
  6
CONTINUOUS
 62
     7
 10
480.419662
 20
194.185830
 11
480.463702
 21
194.228214
  0
LINE
  8
CSLAYER4
  6
CONTINUOUS
 62
     7
 10
480.463702
 20
194.228214
 11
480.506734
 21
194.271761
  0
LINE
  8
CSLAYER4
  6
CONTINUOUS
 62
     7
 10
480.506734
 20
194.271761
 11
480.548674
 21
194.316317
  0
LINE
  8
CSLAYER4
  6
CONTINUOUS
 62
     7
 10
480.548674
 20
194.316317
 11
480.589503
 21
194.361852
  0
LINE
  8
CSLAYER4
  6
CONTINUOUS
 62
     7
 10
480.589503
 20
194.361852
 11
480.629260
 21
194.408313
  0
LINE
  8
CSLAYER4
  6
CONTINUOUS
 62
     7
 10
480.629260
 20
194.408313
 11
480.667945
 21
194.455682
  0
LINE
  8
CSLAYER4
  6
CONTINUOUS
 62
     7
 10
480.667945
 20
194.455682
 11
480.705580
 21
194.503916
  0
LINE
  8
CSLAYER4
  6
CONTINUOUS
 62
     7
 10
480.705580
 20
194.503916
 11
480.742186
 21
194.552984
  0
LINE
  8
CSLAYER4
  6
CONTINUOUS
 62
     7
 10
480.742186
 20
194.552984
 11
480.777760
 21
194.602844
  0
LINE
  8
CSLAYER4
  6
CONTINUOUS
 62
     7
 10
480.777760
 20
194.602844
 11
480.812326
 21
194.653467
  0
LINE
  8
CSLAYER4
  6
CONTINUOUS
 62
     7
 10
480.812326
 20
194.653467
 11
480.845925
 21
194.704800
  0
LINE
  8
CSLAYER4
  6
CONTINUOUS
 62
     7
 10
480.845925
 20
194.704800
 11
480.878512
 21
194.756783
  0
LINE
  8
CSLAYER4
  6
CONTINUOUS
 62
     7
 10
480.878512
 20
194.756783
 11
480.910132
 21
194.809394
  0
LINE
  8
CSLAYER4
  6
CONTINUOUS
 62
     7
 10
480.910132
 20
194.809394
 11
480.940804
 21
194.862570
  0
LINE
  8
CSLAYER4
  6
CONTINUOUS
 62
     7
 10
480.940804
 20
194.862570
 11
480.970530
 21
194.916294
  0
LINE
  8
CSLAYER4
  6
CONTINUOUS
 62
     7
 10
480.970530
 20
194.916294
 11
480.999327
 21
194.970522
  0
LINE
  8
CSLAYER4
  6
CONTINUOUS
 62
     7
 10
480.999327
 20
194.970522
 11
481.027239
 21
195.025203
  0
LINE
  8
CSLAYER4
  6
CONTINUOUS
 62
     7
 10
481.027239
 20
195.025203
 11
481.056450
 21
195.085787
  0
LINE
  8
CSLAYER4
  6
CONTINUOUS
 62
     7
 10
481.056450
 20
195.085787
 11
481.083970
 21
195.147141
  0
LINE
  8
CSLAYER4
  6
CONTINUOUS
 62
     7
 10
481.083970
 20
195.147141
 11
481.109823
 21
195.209228
  0
LINE
  8
CSLAYER4
  6
CONTINUOUS
 62
     7
 10
481.109823
 20
195.209228
 11
481.134048
 21
195.271994
  0
LINE
  8
CSLAYER4
  6
CONTINUOUS
 62
     7
 10
481.134048
 20
195.271994
 11
481.156707
 21
195.335399
  0
LINE
  8
CSLAYER4
  6
CONTINUOUS
 62
     7
 10
481.156707
 20
195.335399
 11
481.177821
 21
195.399369
  0
LINE
  8
CSLAYER4
  6
CONTINUOUS
 62
     7
 10
481.177821
 20
195.399369
 11
481.197453
 21
195.463877
  0
LINE
  8
CSLAYER4
  6
CONTINUOUS
 62
     7
 10
481.197453
 20
195.463877
 11
481.215621
 21
195.528857
  0
LINE
  8
CSLAYER4
  6
CONTINUOUS
 62
     7
 10
481.215621
 20
195.528857
 11
481.232368
 21
195.594260
  0
LINE
  8
CSLAYER4
  6
CONTINUOUS
 62
     7
 10
481.232368
 20
195.594260
 11
481.247736
 21
195.660045
  0
LINE
  8
CSLAYER4
  6
CONTINUOUS
 62
     7
 10
481.247736
 20
195.660045
 11
481.261783
 21
195.726159
  0
LINE
  8
CSLAYER4
  6
CONTINUOUS
 62
     7
 10
481.261783
 20
195.726159
 11
481.274535
 21
195.792540
  0
LINE
  8
CSLAYER4
  6
CONTINUOUS
 62
     7
 10
481.274535
 20
195.792540
 11
481.286029
 21
195.859137
  0
LINE
  8
CSLAYER4
  6
CONTINUOUS
 62
     7
 10
481.286029
 20
195.859137
 11
481.296330
 21
195.925920
  0
LINE
  8
CSLAYER4
  6
CONTINUOUS
 62
     7
 10
481.296330
 20
195.925920
 11
481.305454
 21
195.992817
  0
LINE
  8
CSLAYER4
  6
CONTINUOUS
 62
     7
 10
481.305454
 20
195.992817
 11
481.313448
 21
196.059786
  0
LINE
  8
CSLAYER4
  6
CONTINUOUS
 62
     7
 10
481.313448
 20
196.059786
 11
481.320369
 21
196.126775
  0
LINE
  8
CSLAYER4
  6
CONTINUOUS
 62
     7
 10
481.320369
 20
196.126775
 11
481.326238
 21
196.193867
  0
LINE
  8
CSLAYER4
  6
CONTINUOUS
 62
     7
 10
481.326238
 20
196.193867
 11
481.331121
 21
196.261103
  0
LINE
  8
CSLAYER4
  6
CONTINUOUS
 62
     7
 10
481.331121
 20
196.261103
 11
481.335057
 21
196.328442
  0
LINE
  8
CSLAYER4
  6
CONTINUOUS
 62
     7
 10
481.335057
 20
196.328442
 11
481.338042
 21
196.395854
  0
LINE
  8
CSLAYER4
  6
CONTINUOUS
 62
     7
 10
481.338042
 20
196.395854
 11
481.340143
 21
196.463276
  0
LINE
  8
CSLAYER4
  6
CONTINUOUS
 62
     7
 10
481.340143
 20
196.463276
 11
481.341400
 21
196.530677
  0
LINE
  8
CSLAYER4
  6
CONTINUOUS
 62
     7
 10
481.341400
 20
196.530677
 11
481.341792
 21
196.598027
  0
LINE
  8
CSLAYER4
  6
CONTINUOUS
 62
     7
 10
481.341792
 20
196.598027
 11
481.340886
 21
196.682205
  0
LINE
  8
CSLAYER4
  6
CONTINUOUS
 62
     7
 10
481.340886
 20
196.682205
 11
481.338063
 21
196.766385
  0
LINE
  8
CSLAYER4
  6
CONTINUOUS
 62
     7
 10
481.338063
 20
196.766385
 11
481.333243
 21
196.850481
  0
LINE
  8
CSLAYER4
  6
CONTINUOUS
 62
     7
 10
481.333243
 20
196.850481
 11
481.326363
 21
196.934414
  0
LINE
  8
CSLAYER4
  6
CONTINUOUS
 62
     7
 10
481.326363
 20
196.934414
 11
481.317340
 21
197.018120
  0
LINE
  8
CSLAYER4
  6
CONTINUOUS
 62
     7
 10
481.317340
 20
197.018120
 11
481.306051
 21
197.101526
  0
LINE
  8
CSLAYER4
  6
CONTINUOUS
 62
     7
 10
481.306051
 20
197.101526
 11
481.292457
 21
197.184552
  0
LINE
  8
CSLAYER4
  6
CONTINUOUS
 62
     7
 10
481.292457
 20
197.184552
 11
481.276431
 21
197.267135
  0
LINE
  8
CSLAYER4
  6
CONTINUOUS
 62
     7
 10
481.276431
 20
197.267135
 11
481.257910
 21
197.349192
  0
LINE
  8
CSLAYER4
  6
CONTINUOUS
 62
     7
 10
481.257910
 20
197.349192
 11
481.236838
 21
197.430591
  0
LINE
  8
CSLAYER4
  6
CONTINUOUS
 62
     7
 10
481.236838
 20
197.430591
 11
481.213210
 21
197.510990
  0
LINE
  8
CSLAYER4
  6
CONTINUOUS
 62
     7
 10
481.213210
 20
197.510990
 11
481.186966
 21
197.590308
  0
LINE
  8
CSLAYER4
  6
CONTINUOUS
 62
     7
 10
481.186966
 20
197.590308
 11
481.158066
 21
197.668514
  0
LINE
  8
CSLAYER4
  6
CONTINUOUS
 62
     7
 10
481.158066
 20
197.668514
 11
481.126467
 21
197.745566
  0
LINE
  8
CSLAYER4
  6
CONTINUOUS
 62
     7
 10
481.126467
 20
197.745566
 11
481.092106
 21
197.821413
  0
LINE
  8
CSLAYER4
  6
CONTINUOUS
 62
     7
 10
481.092106
 20
197.821413
 11
481.054924
 21
197.896023
  0
LINE
  8
CSLAYER4
  6
CONTINUOUS
 62
     7
 10
481.054924
 20
197.896023
 11
481.014859
 21
197.969357
  0
LINE
  8
CSLAYER4
  6
CONTINUOUS
 62
     7
 10
481.014859
 20
197.969357
 11
480.971889
 21
198.041373
  0
LINE
  8
CSLAYER4
  6
CONTINUOUS
 62
     7
 10
480.971889
 20
198.041373
 11
480.926200
 21
198.111657
  0
LINE
  8
CSLAYER4
  6
CONTINUOUS
 62
     7
 10
480.926200
 20
198.111657
 11
480.877956
 21
198.179913
  0
LINE
  8
CSLAYER4
  6
CONTINUOUS
 62
     7
 10
480.877956
 20
198.179913
 11
480.827241
 21
198.246161
  0
LINE
  8
CSLAYER4
  6
CONTINUOUS
 62
     7
 10
480.827241
 20
198.246161
 11
480.774033
 21
198.310410
  0
LINE
  8
CSLAYER4
  6
CONTINUOUS
 62
     7
 10
480.774033
 20
198.310410
 11
480.718351
 21
198.372672
  0
LINE
  8
CSLAYER4
  6
CONTINUOUS
 62
     7
 10
480.718351
 20
198.372672
 11
480.660241
 21
198.432977
  0
LINE
  8
CSLAYER4
  6
CONTINUOUS
 62
     7
 10
480.660241
 20
198.432977
 11
480.619764
 21
198.472887
  0
LINE
  8
CSLAYER4
  6
CONTINUOUS
 62
     7
 10
480.619764
 20
198.472887
 11
480.578770
 21
198.512160
  0
LINE
  8
CSLAYER4
  6
CONTINUOUS
 62
     7
 10
480.578770
 20
198.512160
 11
480.537283
 21
198.550805
  0
LINE
  8
CSLAYER4
  6
CONTINUOUS
 62
     7
 10
480.537283
 20
198.550805
 11
480.495322
 21
198.588812
  0
LINE
  8
CSLAYER4
  6
CONTINUOUS
 62
     7
 10
480.495322
 20
198.588812
 11
480.452868
 21
198.626189
  0
LINE
  8
CSLAYER4
  6
CONTINUOUS
 62
     7
 10
480.452868
 20
198.626189
 11
480.409917
 21
198.662937
  0
LINE
  8
CSLAYER4
  6
CONTINUOUS
 62
     7
 10
480.409917
 20
198.662937
 11
480.366474
 21
198.699059
  0
LINE
  8
CSLAYER4
  6
CONTINUOUS
 62
     7
 10
480.366474
 20
198.699059
 11
480.322576
 21
198.734562
  0
LINE
  8
CSLAYER4
  6
CONTINUOUS
 62
     7
 10
480.322576
 20
198.734562
 11
480.278184
 21
198.769446
  0
LINE
  8
CSLAYER4
  6
CONTINUOUS
 62
     7
 10
480.278184
 20
198.769446
 11
480.233319
 21
198.803714
  0
LINE
  8
CSLAYER4
  6
CONTINUOUS
 62
     7
 10
480.233319
 20
198.803714
 11
480.187980
 21
198.837362
  0
LINE
  8
CSLAYER4
  6
CONTINUOUS
 62
     7
 10
480.187980
 20
198.837362
 11
480.142188
 21
198.870404
  0
LINE
  8
CSLAYER4
  6
CONTINUOUS
 62
     7
 10
480.142188
 20
198.870404
 11
480.095922
 21
198.902849
  0
LINE
  8
CSLAYER4
  6
CONTINUOUS
 62
     7
 10
480.095922
 20
198.902849
 11
480.049201
 21
198.934674
  0
LINE
  8
CSLAYER4
  6
CONTINUOUS
 62
     7
 10
480.049201
 20
198.934674
 11
480.002010
 21
198.965913
  0
LINE
  8
CSLAYER4
  6
CONTINUOUS
 62
     7
 10
480.002010
 20
198.965913
 11
479.954383
 21
198.996545
  0
LINE
  8
CSLAYER4
  6
CONTINUOUS
 62
     7
 10
479.954383
 20
198.996545
 11
479.906284
 21
199.026578
  0
LINE
  8
CSLAYER4
  6
CONTINUOUS
 62
     7
 10
479.906284
 20
199.026578
 11
479.857752
 21
199.056015
  0
LINE
  8
CSLAYER4
  6
CONTINUOUS
 62
     7
 10
479.857752
 20
199.056015
 11
479.808849
 21
199.084812
  0
LINE
  8
CSLAYER4
  6
CONTINUOUS
 62
     7
 10
479.808849
 20
199.084812
 11
479.759616
 21
199.112982
  0
LINE
  8
CSLAYER4
  6
CONTINUOUS
 62
     7
 10
479.759616
 20
199.112982
 11
479.710033
 21
199.140513
  0
LINE
  8
CSLAYER4
  6
CONTINUOUS
 62
     7
 10
479.710033
 20
199.140513
 11
479.660101
 21
199.167426
  0
LINE
  8
CSLAYER4
  6
CONTINUOUS
 62
     7
 10
479.660101
 20
199.167426
 11
479.609859
 21
199.193711
  0
LINE
  8
CSLAYER4
  6
CONTINUOUS
 62
     7
 10
479.609859
 20
199.193711
 11
479.559267
 21
199.219379
  0
LINE
  8
CSLAYER4
  6
CONTINUOUS
 62
     7
 10
477.776749
 20
200.005790
 11
479.559273
 21
199.219383
  0
LINE
  8
CSLAYER4
  6
CONTINUOUS
 62
     7
 10
477.776752
 20
200.005790
 11
477.738468
 21
200.021363
  0
LINE
  8
CSLAYER4
  6
CONTINUOUS
 62
     7
 10
477.738468
 20
200.021363
 11
477.700299
 21
200.037410
  0
LINE
  8
CSLAYER4
  6
CONTINUOUS
 62
     7
 10
477.700299
 20
200.037410
 11
477.662262
 21
200.053941
  0
LINE
  8
CSLAYER4
  6
CONTINUOUS
 62
     7
 10
477.662262
 20
200.053941
 11
477.624379
 21
200.070977
  0
LINE
  8
CSLAYER4
  6
CONTINUOUS
 62
     7
 10
477.624379
 20
200.070977
 11
477.586692
 21
200.088506
  0
LINE
  8
CSLAYER4
  6
CONTINUOUS
 62
     7
 10
477.586692
 20
200.088506
 11
477.549211
 21
200.106563
  0
LINE
  8
CSLAYER4
  6
CONTINUOUS
 62
     7
 10
477.549211
 20
200.106563
 11
477.511957
 21
200.125143
  0
LINE
  8
CSLAYER4
  6
CONTINUOUS
 62
     7
 10
477.511957
 20
200.125143
 11
477.474972
 21
200.144247
  0
LINE
  8
CSLAYER4
  6
CONTINUOUS
 62
     7
 10
477.474972
 20
200.144247
 11
477.438264
 21
200.163900
  0
LINE
  8
CSLAYER4
  6
CONTINUOUS
 62
     7
 10
477.438264
 20
200.163900
 11
477.401865
 21
200.184098
  0
LINE
  8
CSLAYER4
  6
CONTINUOUS
 62
     7
 10
477.401865
 20
200.184098
 11
477.365796
 21
200.204862
  0
LINE
  8
CSLAYER4
  6
CONTINUOUS
 62
     7
 10
477.365796
 20
200.204862
 11
477.330085
 21
200.226192
  0
LINE
  8
CSLAYER4
  6
CONTINUOUS
 62
     7
 10
477.330085
 20
200.226192
 11
477.294759
 21
200.248089
  0
LINE
  8
CSLAYER4
  6
CONTINUOUS
 62
     7
 10
477.294759
 20
200.248089
 11
477.259831
 21
200.270585
  0
LINE
  8
CSLAYER4
  6
CONTINUOUS
 62
     7
 10
477.259831
 20
200.270585
 11
477.225328
 21
200.293676
  0
LINE
  8
CSLAYER4
  6
CONTINUOUS
 62
     7
 10
477.225328
 20
200.293676
 11
477.191287
 21
200.317376
  0
LINE
  8
CSLAYER4
  6
CONTINUOUS
 62
     7
 10
477.191287
 20
200.317376
 11
477.157720
 21
200.341683
  0
LINE
  8
CSLAYER4
  6
CONTINUOUS
 62
     7
 10
477.157720
 20
200.341683
 11
477.124669
 21
200.366609
  0
LINE
  8
CSLAYER4
  6
CONTINUOUS
 62
     7
 10
477.124669
 20
200.366609
 11
477.092122
 21
200.392172
  0
LINE
  8
CSLAYER4
  6
CONTINUOUS
 62
     7
 10
477.092122
 20
200.392172
 11
477.060121
 21
200.418405
  0
LINE
  8
CSLAYER4
  6
CONTINUOUS
 62
     7
 10
477.060121
 20
200.418405
 11
477.028666
 21
200.445287
  0
LINE
  8
CSLAYER4
  6
CONTINUOUS
 62
     7
 10
477.028666
 20
200.445287
 11
476.997798
 21
200.472860
  0
LINE
  8
CSLAYER4
  6
CONTINUOUS
 62
     7
 10
476.997798
 20
200.472860
 11
476.967537
 21
200.501111
  0
LINE
  8
CSLAYER4
  6
CONTINUOUS
 62
     7
 10
476.967537
 20
200.501111
 11
476.937915
 21
200.530064
  0
LINE
  8
CSLAYER4
  6
CONTINUOUS
 62
     7
 10
476.937915
 20
200.530064
 11
476.914030
 21
200.554566
  0
LINE
  8
CSLAYER4
  6
CONTINUOUS
 62
     7
 10
476.914030
 20
200.554566
 11
476.890845
 21
200.579678
  0
LINE
  8
CSLAYER4
  6
CONTINUOUS
 62
     7
 10
476.890845
 20
200.579678
 11
476.868372
 21
200.605385
  0
LINE
  8
CSLAYER4
  6
CONTINUOUS
 62
     7
 10
476.868372
 20
200.605385
 11
476.846659
 21
200.631711
  0
LINE
  8
CSLAYER4
  6
CONTINUOUS
 62
     7
 10
476.846659
 20
200.631711
 11
476.825731
 21
200.658666
  0
LINE
  8
CSLAYER4
  6
CONTINUOUS
 62
     7
 10
476.825731
 20
200.658666
 11
476.805636
 21
200.686248
  0
LINE
  8
CSLAYER4
  6
CONTINUOUS
 62
     7
 10
476.805636
 20
200.686248
 11
476.786397
 21
200.714480
  0
LINE
  8
CSLAYER4
  6
CONTINUOUS
 62
     7
 10
476.786397
 20
200.714480
 11
476.768053
 21
200.743350
  0
LINE
  8
CSLAYER4
  6
CONTINUOUS
 62
     7
 10
476.768053
 20
200.743350
 11
476.750626
 21
200.772890
  0
LINE
  8
CSLAYER4
  6
CONTINUOUS
 62
     7
 10
476.750626
 20
200.772890
 11
476.734230
 21
200.802984
  0
LINE
  8
CSLAYER4
  6
CONTINUOUS
 62
     7
 10
476.734230
 20
200.802984
 11
476.718934
 21
200.833514
  0
LINE
  8
CSLAYER4
  6
CONTINUOUS
 62
     7
 10
476.718934
 20
200.833514
 11
476.704741
 21
200.864474
  0
LINE
  8
CSLAYER4
  6
CONTINUOUS
 62
     7
 10
476.704741
 20
200.864474
 11
476.691681
 21
200.895867
  0
LINE
  8
CSLAYER4
  6
CONTINUOUS
 62
     7
 10
476.691681
 20
200.895867
 11
476.679733
 21
200.927693
  0
LINE
  8
CSLAYER4
  6
CONTINUOUS
 62
     7
 10
476.679733
 20
200.927693
 11
476.668918
 21
200.959962
  0
LINE
  8
CSLAYER4
  6
CONTINUOUS
 62
     7
 10
476.668918
 20
200.959962
 11
476.659237
 21
200.992664
  0
LINE
  8
CSLAYER4
  6
CONTINUOUS
 62
     7
 10
476.659237
 20
200.992664
 11
476.650698
 21
201.025797
  0
LINE
  8
CSLAYER4
  6
CONTINUOUS
 62
     7
 10
476.650698
 20
201.025797
 11
476.643313
 21
201.059375
  0
LINE
  8
CSLAYER4
  6
CONTINUOUS
 62
     7
 10
476.643313
 20
201.059375
 11
476.637112
 21
201.093168
  0
LINE
  8
CSLAYER4
  6
CONTINUOUS
 62
     7
 10
476.637112
 20
201.093168
 11
476.632098
 21
201.127106
  0
LINE
  8
CSLAYER4
  6
CONTINUOUS
 62
     7
 10
476.632098
 20
201.127106
 11
476.628234
 21
201.161166
  0
LINE
  8
CSLAYER4
  6
CONTINUOUS
 62
     7
 10
476.628234
 20
201.161166
 11
476.625505
 21
201.195351
  0
LINE
  8
CSLAYER4
  6
CONTINUOUS
 62
     7
 10
476.625505
 20
201.195351
 11
476.623888
 21
201.229650
  0
LINE
  8
CSLAYER4
  6
CONTINUOUS
 62
     7
 10
476.623888
 20
201.229650
 11
476.623353
 21
201.264041
  0
LINE
  8
CSLAYER4
  6
CONTINUOUS
 62
     7
 10
476.623353
 20
201.264041
 11
476.623981
 21
201.321492
  0
LINE
  8
CSLAYER4
  6
CONTINUOUS
 62
     7
 10
476.623981
 20
201.321492
 11
476.625918
 21
201.379088
  0
LINE
  8
CSLAYER4
  6
CONTINUOUS
 62
     7
 10
476.625918
 20
201.379088
 11
476.629254
 21
201.436724
  0
LINE
  8
CSLAYER4
  6
CONTINUOUS
 62
     7
 10
476.629254
 20
201.436724
 11
476.634075
 21
201.494310
  0
LINE
  8
CSLAYER4
  6
CONTINUOUS
 62
     7
 10
476.634075
 20
201.494310
 11
476.640471
 21
201.551751
  0
LINE
  8
CSLAYER4
  6
CONTINUOUS
 62
     7
 10
476.640471
 20
201.551751
 11
476.648515
 21
201.608934
  0
LINE
  8
CSLAYER4
  6
CONTINUOUS
 62
     7
 10
476.648515
 20
201.608934
 11
476.658310
 21
201.665790
  0
LINE
  8
CSLAYER4
  6
CONTINUOUS
 62
     7
 10
476.658310
 20
201.665790
 11
476.669938
 21
201.722211
  0
LINE
  8
CSLAYER4
  6
CONTINUOUS
 62
     7
 10
476.669938
 20
201.722211
 11
476.683483
 21
201.778088
  0
LINE
  8
CSLAYER4
  6
CONTINUOUS
 62
     7
 10
476.683483
 20
201.778088
 11
476.699025
 21
201.833334
  0
LINE
  8
CSLAYER4
  6
CONTINUOUS
 62
     7
 10
476.699025
 20
201.833334
 11
476.716648
 21
201.887789
  0
LINE
  8
CSLAYER4
  6
CONTINUOUS
 62
     7
 10
476.716648
 20
201.887789
 11
476.736351
 21
201.941223
  0
LINE
  8
CSLAYER4
  6
CONTINUOUS
 62
     7
 10
476.736351
 20
201.941223
 11
476.758216
 21
201.993567
  0
LINE
  8
CSLAYER4
  6
CONTINUOUS
 62
     7
 10
476.758216
 20
201.993567
 11
476.782308
 21
202.044756
  0
LINE
  8
CSLAYER4
  6
CONTINUOUS
 62
     7
 10
476.782308
 20
202.044756
 11
476.808685
 21
202.094730
  0
LINE
  8
CSLAYER4
  6
CONTINUOUS
 62
     7
 10
476.808685
 20
202.094730
 11
476.837421
 21
202.143396
  0
LINE
  8
CSLAYER4
  6
CONTINUOUS
 62
     7
 10
476.837421
 20
202.143396
 11
476.868568
 21
202.190723
  0
LINE
  8
CSLAYER4
  6
CONTINUOUS
 62
     7
 10
476.868568
 20
202.190723
 11
476.902206
 21
202.236618
  0
LINE
  8
CSLAYER4
  6
CONTINUOUS
 62
     7
 10
476.902206
 20
202.236618
 11
476.938194
 21
202.280774
  0
LINE
  8
CSLAYER4
  6
CONTINUOUS
 62
     7
 10
476.938194
 20
202.280774
 11
476.976178
 21
202.322796
  0
LINE
  8
CSLAYER4
  6
CONTINUOUS
 62
     7
 10
476.976178
 20
202.322796
 11
477.016152
 21
202.362687
  0
LINE
  8
CSLAYER4
  6
CONTINUOUS
 62
     7
 10
477.016152
 20
202.362687
 11
477.058072
 21
202.400475
  0
LINE
  8
CSLAYER4
  6
CONTINUOUS
 62
     7
 10
477.058072
 20
202.400475
 11
477.101907
 21
202.436195
  0
LINE
  8
CSLAYER4
  6
CONTINUOUS
 62
     7
 10
477.101907
 20
202.436195
 11
477.147627
 21
202.469865
  0
LINE
  8
CSLAYER4
  6
CONTINUOUS
 62
     7
 10
477.147627
 20
202.469865
 11
477.189733
 21
202.498302
  0
LINE
  8
CSLAYER4
  6
CONTINUOUS
 62
     7
 10
477.189733
 20
202.498302
 11
477.232641
 21
202.525175
  0
LINE
  8
CSLAYER4
  6
CONTINUOUS
 62
     7
 10
477.232641
 20
202.525175
 11
477.276352
 21
202.550409
  0
LINE
  8
CSLAYER4
  6
CONTINUOUS
 62
     7
 10
477.276352
 20
202.550409
 11
477.320868
 21
202.573953
  0
LINE
  8
CSLAYER4
  6
CONTINUOUS
 62
     7
 10
477.320868
 20
202.573953
 11
477.366217
 21
202.595748
  0
LINE
  8
CSLAYER4
  6
CONTINUOUS
 62
     7
 10
477.366217
 20
202.595748
 11
477.412390
 21
202.615719
  0
LINE
  8
CSLAYER4
  6
CONTINUOUS
 62
     7
 10
477.412390
 20
202.615719
 11
477.459399
 21
202.633815
  0
LINE
  8
CSLAYER4
  6
CONTINUOUS
 62
     7
 10
477.459399
 20
202.633815
 11
477.507241
 21
202.649966
  0
LINE
  8
CSLAYER4
  6
CONTINUOUS
 62
     7
 10
477.507241
 20
202.649966
 11
477.555927
 21
202.664106
  0
LINE
  8
CSLAYER4
  6
CONTINUOUS
 62
     7
 10
477.555927
 20
202.664106
 11
477.605047
 21
202.676085
  0
LINE
  8
CSLAYER4
  6
CONTINUOUS
 62
     7
 10
477.605047
 20
202.676085
 11
477.654361
 21
202.685859
  0
LINE
  8
CSLAYER4
  6
CONTINUOUS
 62
     7
 10
477.654361
 20
202.685859
 11
477.703872
 21
202.693451
  0
LINE
  8
CSLAYER4
  6
CONTINUOUS
 62
     7
 10
477.703872
 20
202.693451
 11
477.753567
 21
202.698888
  0
LINE
  8
CSLAYER4
  6
CONTINUOUS
 62
     7
 10
477.753567
 20
202.698888
 11
477.803460
 21
202.702196
  0
LINE
  8
CSLAYER4
  6
CONTINUOUS
 62
     7
 10
477.803460
 20
202.702196
 11
477.853525
 21
202.703400
  0
LINE
  8
CSLAYER4
  6
CONTINUOUS
 62
     7
 10
477.853525
 20
202.703400
 11
477.903778
 21
202.702524
  0
LINE
  8
CSLAYER4
  6
CONTINUOUS
 62
     7
 10
477.903778
 20
202.702524
 11
477.954195
 21
202.699589
  0
LINE
  8
CSLAYER4
  6
CONTINUOUS
 62
     7
 10
477.954195
 20
202.699589
 11
478.004694
 21
202.694636
  0
LINE
  8
CSLAYER4
  6
CONTINUOUS
 62
     7
 10
478.004694
 20
202.694636
 11
478.054947
 21
202.687755
  0
LINE
  8
CSLAYER4
  6
CONTINUOUS
 62
     7
 10
478.054947
 20
202.687755
 11
478.104880
 21
202.679010
  0
LINE
  8
CSLAYER4
  6
CONTINUOUS
 62
     7
 10
478.104880
 20
202.679010
 11
478.154472
 21
202.668504
  0
LINE
  8
CSLAYER4
  6
CONTINUOUS
 62
     7
 10
478.154472
 20
202.668504
 11
478.203705
 21
202.656300
  0
LINE
  8
CSLAYER4
  6
CONTINUOUS
 62
     7
 10
478.203705
 20
202.656300
 11
478.252567
 21
202.642488
  0
LINE
  8
CSLAYER4
  6
CONTINUOUS
 62
     7
 10
478.252567
 20
202.642488
 11
478.301017
 21
202.627152
  0
LINE
  8
CSLAYER4
  6
CONTINUOUS
 62
     7
 10
478.301017
 20
202.627152
 11
478.388389
 21
202.596870
  0
LINE
  8
CSLAYER4
  6
CONTINUOUS
 62
     7
 10
478.388389
 20
202.596870
 11
478.473628
 21
202.561758
  0
LINE
  8
CSLAYER4
  6
CONTINUOUS
 62
     7
 10
478.473628
 20
202.561758
 11
478.556613
 21
202.521642
  0
LINE
  8
CSLAYER4
  6
CONTINUOUS
 62
     7
 10
478.556613
 20
202.521642
 11
478.637239
 21
202.476375
  0
LINE
  8
CSLAYER4
  6
CONTINUOUS
 62
     7
 10
478.637239
 20
202.476375
 11
478.715043
 21
202.426008
  0
LINE
  8
CSLAYER4
  6
CONTINUOUS
 62
     7
 10
478.715043
 20
202.426008
 11
478.789222
 21
202.371039
  0
LINE
  8
CSLAYER4
  6
CONTINUOUS
 62
     7
 10
478.789222
 20
202.371039
 11
478.859712
 21
202.311558
  0
LINE
  8
CSLAYER4
  6
CONTINUOUS
 62
     7
 10
478.859712
 20
202.311558
 11
478.926598
 21
202.247628
  0
LINE
  8
CSLAYER4
  6
CONTINUOUS
 62
     7
 10
478.926598
 20
202.247628
 11
478.989777
 21
202.179414
  0
LINE
  8
CSLAYER4
  6
CONTINUOUS
 62
     7
 10
478.989777
 20
202.179414
 11
479.048733
 21
202.107780
  0
LINE
  8
CSLAYER4
  6
CONTINUOUS
 62
     7
 10
479.048733
 20
202.107780
 11
479.103486
 21
202.033097
  0
LINE
  8
CSLAYER4
  6
CONTINUOUS
 62
     7
 10
479.103486
 20
202.033097
 11
479.154222
 21
201.955623
  0
LINE
  8
CSLAYER4
  6
CONTINUOUS
 62
     7
 10
479.154222
 20
201.955623
 11
479.201064
 21
201.875645
  0
LINE
  8
CSLAYER4
  6
CONTINUOUS
 62
     7
 10
479.201064
 20
201.875645
 11
479.244199
 21
201.793413
  0
LINE
  8
CSLAYER4
  6
CONTINUOUS
 62
     7
 10
479.244199
 20
201.793413
 11
479.283771
 21
201.709203
  0
LINE
  8
CSLAYER4
  6
CONTINUOUS
 62
     7
 10
479.283771
 20
201.709203
 11
479.319943
 21
201.623273
  0
LINE
  8
CSLAYER4
  6
CONTINUOUS
 62
     7
 10
479.319943
 20
201.623273
 11
479.352882
 21
201.535880
  0
LINE
  8
CSLAYER4
  6
CONTINUOUS
 62
     7
 10
479.352882
 20
201.535880
 11
479.382813
 21
201.447065
  0
LINE
  8
CSLAYER4
  6
CONTINUOUS
 62
     7
 10
479.382813
 20
201.447065
 11
479.409859
 21
201.357036
  0
LINE
  8
CSLAYER4
  6
CONTINUOUS
 62
     7
 10
479.409859
 20
201.357036
 11
479.434167
 21
201.266018
  0
LINE
  8
CSLAYER4
  6
CONTINUOUS
 62
     7
 10
479.434167
 20
201.266018
 11
479.455899
 21
201.174278
  0
LINE
  8
CSLAYER4
  6
CONTINUOUS
 62
     7
 10
479.455899
 20
201.174278
 11
479.475159
 21
201.082034
  0
LINE
  8
CSLAYER4
  6
CONTINUOUS
 62
     7
 10
479.475159
 20
201.082034
 11
479.492092
 21
200.989544
  0
LINE
  8
CSLAYER4
  6
CONTINUOUS
 62
     7
 10
479.492092
 20
200.989544
 11
479.506842
 21
200.897052
  0
LINE
  8
CSLAYER4
  6
CONTINUOUS
 62
     7
 10
481.079661
 20
200.897052
 11
479.506846
 21
200.897052
  0
LINE
  8
CSLAYER4
  6
CONTINUOUS
 62
     7
 10
481.079665
 20
200.897052
 11
481.074804
 21
201.006909
  0
LINE
  8
CSLAYER4
  6
CONTINUOUS
 62
     7
 10
481.074804
 20
201.006909
 11
481.067739
 21
201.116733
  0
LINE
  8
CSLAYER4
  6
CONTINUOUS
 62
     7
 10
481.067739
 20
201.116733
 11
481.058365
 21
201.226436
  0
LINE
  8
CSLAYER4
  6
CONTINUOUS
 62
     7
 10
481.058365
 20
201.226436
 11
481.046602
 21
201.335922
  0
LINE
  8
CSLAYER4
  6
CONTINUOUS
 62
     7
 10
481.046602
 20
201.335922
 11
481.032348
 21
201.445098
  0
LINE
  8
CSLAYER4
  6
CONTINUOUS
 62
     7
 10
481.032348
 20
201.445098
 11
481.015498
 21
201.553863
  0
LINE
  8
CSLAYER4
  6
CONTINUOUS
 62
     7
 10
481.015498
 20
201.553863
 11
480.995970
 21
201.662133
  0
LINE
  8
CSLAYER4
  6
CONTINUOUS
 62
     7
 10
480.995970
 20
201.662133
 11
480.973681
 21
201.769817
  0
LINE
  8
CSLAYER4
  6
CONTINUOUS
 62
     7
 10
480.973681
 20
201.769817
 11
480.948489
 21
201.876800
  0
LINE
  8
CSLAYER4
  6
CONTINUOUS
 62
     7
 10
480.948489
 20
201.876800
 11
480.920370
 21
201.982968
  0
LINE
  8
CSLAYER4
  6
CONTINUOUS
 62
     7
 10
480.920370
 20
201.982968
 11
480.889224
 21
202.088045
  0
LINE
  8
CSLAYER4
  6
CONTINUOUS
 62
     7
 10
480.889224
 20
202.088045
 11
480.855049
 21
202.191918
  0
LINE
  8
CSLAYER4
  6
CONTINUOUS
 62
     7
 10
480.855049
 20
202.191918
 11
480.817723
 21
202.294533
  0
LINE
  8
CSLAYER4
  6
CONTINUOUS
 62
     7
 10
480.817723
 20
202.294533
 11
480.777184
 21
202.395800
  0
LINE
  8
CSLAYER4
  6
CONTINUOUS
 62
     7
 10
480.777184
 20
202.395800
 11
480.733348
 21
202.495655
  0
LINE
  8
CSLAYER4
  6
CONTINUOUS
 62
     7
 10
480.733348
 20
202.495655
 11
480.686155
 21
202.594028
  0
LINE
  8
CSLAYER4
  6
CONTINUOUS
 62
     7
 10
480.686155
 20
202.594028
 11
480.635523
 21
202.690856
  0
LINE
  8
CSLAYER4
  6
CONTINUOUS
 62
     7
 10
480.635523
 20
202.690856
 11
480.581367
 21
202.786065
  0
LINE
  8
CSLAYER4
  6
CONTINUOUS
 62
     7
 10
480.581367
 20
202.786065
 11
480.523833
 21
202.879257
  0
LINE
  8
CSLAYER4
  6
CONTINUOUS
 62
     7
 10
480.523833
 20
202.879257
 11
480.463126
 21
202.970028
  0
LINE
  8
CSLAYER4
  6
CONTINUOUS
 62
     7
 10
480.463126
 20
202.970028
 11
480.399226
 21
203.058369
  0
LINE
  8
CSLAYER4
  6
CONTINUOUS
 62
     7
 10
480.399226
 20
203.058369
 11
480.332134
 21
203.144258
  0
LINE
  8
CSLAYER4
  6
CONTINUOUS
 62
     7
 10
480.332134
 20
203.144258
 11
480.261870
 21
203.227706
  0
LINE
  8
CSLAYER4
  6
CONTINUOUS
 62
     7
 10
480.261870
 20
203.227706
 11
480.188392
 21
203.308701
  0
LINE
  8
CSLAYER4
  6
CONTINUOUS
 62
     7
 10
480.188392
 20
203.308701
 11
480.114090
 21
203.388885
  0
LINE
  8
CSLAYER4
  6
CONTINUOUS
 62
     7
 10
480.114090
 20
203.388885
 11
480.037584
 21
203.466606
  0
LINE
  8
CSLAYER4
  6
CONTINUOUS
 62
     7
 10
480.037584
 20
203.466606
 11
479.958853
 21
203.541753
  0
LINE
  8
CSLAYER4
  6
CONTINUOUS
 62
     7
 10
479.958853
 20
203.541753
 11
479.877837
 21
203.614181
  0
LINE
  8
CSLAYER4
  6
CONTINUOUS
 62
     7
 10
479.877837
 20
203.614181
 11
479.794533
 21
203.683766
  0
LINE
  8
CSLAYER4
  6
CONTINUOUS
 62
     7
 10
479.794533
 20
203.683766
 11
479.708880
 21
203.750384
  0
LINE
  8
CSLAYER4
  6
CONTINUOUS
 62
     7
 10
479.708880
 20
203.750384
 11
479.620818
 21
203.813901
  0
LINE
  8
CSLAYER4
  6
CONTINUOUS
 62
     7
 10
479.620818
 20
203.813901
 11
479.530366
 21
203.874185
  0
LINE
  8
CSLAYER4
  6
CONTINUOUS
 62
     7
 10
479.530366
 20
203.874185
 11
479.437422
 21
203.931113
  0
LINE
  8
CSLAYER4
  6
CONTINUOUS
 62
     7
 10
479.437422
 20
203.931113
 11
479.342499
 21
203.984268
  0
LINE
  8
CSLAYER4
  6
CONTINUOUS
 62
     7
 10
479.342499
 20
203.984268
 11
479.246095
 21
204.033357
  0
LINE
  8
CSLAYER4
  6
CONTINUOUS
 62
     7
 10
479.246095
 20
204.033357
 11
479.148207
 21
204.078387
  0
LINE
  8
CSLAYER4
  6
CONTINUOUS
 62
     7
 10
479.148207
 20
204.078387
 11
479.048815
 21
204.119349
  0
LINE
  8
CSLAYER4
  6
CONTINUOUS
 62
     7
 10
479.048815
 20
204.119349
 11
478.947939
 21
204.156263
  0
LINE
  8
CSLAYER4
  6
CONTINUOUS
 62
     7
 10
478.947939
 20
204.156263
 11
478.845582
 21
204.189129
  0
LINE
  8
CSLAYER4
  6
CONTINUOUS
 62
     7
 10
478.845582
 20
204.189129
 11
478.741761
 21
204.217947
  0
LINE
  8
CSLAYER4
  6
CONTINUOUS
 62
     7
 10
478.741761
 20
204.217947
 11
478.636435
 21
204.242739
  0
LINE
  8
CSLAYER4
  6
CONTINUOUS
 62
     7
 10
478.636435
 20
204.242739
 11
478.529742
 21
204.263483
  0
LINE
  8
CSLAYER4
  6
CONTINUOUS
 62
     7
 10
478.529742
 20
204.263483
 11
478.422450
 21
204.280097
  0
LINE
  8
CSLAYER4
  6
CONTINUOUS
 62
     7
 10
478.422450
 20
204.280097
 11
478.314798
 21
204.292662
  0
LINE
  8
CSLAYER4
  6
CONTINUOUS
 62
     7
 10
478.314798
 20
204.292662
 11
478.206826
 21
204.301293
  0
LINE
  8
CSLAYER4
  6
CONTINUOUS
 62
     7
 10
478.206826
 20
204.301293
 11
478.098597
 21
204.306123
  0
LINE
  8
CSLAYER4
  6
CONTINUOUS
 62
     7
 10
478.098597
 20
204.306123
 11
477.990172
 21
204.307256
  0
LINE
  8
CSLAYER4
  6
CONTINUOUS
 62
     7
 10
477.990172
 20
204.307256
 11
477.881604
 21
204.304815
  0
LINE
  8
CSLAYER4
  6
CONTINUOUS
 62
     7
 10
477.881604
 20
204.304815
 11
477.767431
 21
204.298749
  0
LINE
  8
CSLAYER4
  6
CONTINUOUS
 62
     7
 10
477.767431
 20
204.298749
 11
477.653919
 21
204.288954
  0
LINE
  8
CSLAYER4
  6
CONTINUOUS
 62
     7
 10
477.653919
 20
204.288954
 11
477.541086
 21
204.275348
  0
LINE
  8
CSLAYER4
  6
CONTINUOUS
 62
     7
 10
477.541086
 20
204.275348
 11
477.428994
 21
204.257838
  0
LINE
  8
CSLAYER4
  6
CONTINUOUS
 62
     7
 10
477.428994
 20
204.257838
 11
477.317674
 21
204.236343
  0
LINE
  8
CSLAYER4
  6
CONTINUOUS
 62
     7
 10
477.317674
 20
204.236343
 11
477.207180
 21
204.210770
  0
LINE
  8
CSLAYER4
  6
CONTINUOUS
 62
     7
 10
477.207180
 20
204.210770
 11
477.097551
 21
204.181023
  0
LINE
  8
CSLAYER4
  6
CONTINUOUS
 62
     7
 10
477.097551
 20
204.181023
 11
476.988826
 21
204.147035
  0
LINE
  8
CSLAYER4
  6
CONTINUOUS
 62
     7
 10
476.988826
 20
204.147035
 11
476.881081
 21
204.108710
  0
LINE
  8
CSLAYER4
  6
CONTINUOUS
 62
     7
 10
476.881081
 20
204.108710
 11
476.775129
 21
204.066296
  0
LINE
  8
CSLAYER4
  6
CONTINUOUS
 62
     7
 10
476.775129
 20
204.066296
 11
476.671348
 21
204.019967
  0
LINE
  8
CSLAYER4
  6
CONTINUOUS
 62
     7
 10
476.671348
 20
204.019967
 11
476.569702
 21
203.969777
  0
LINE
  8
CSLAYER4
  6
CONTINUOUS
 62
     7
 10
476.569702
 20
203.969777
 11
476.470165
 21
203.915765
  0
LINE
  8
CSLAYER4
  6
CONTINUOUS
 62
     7
 10
476.470165
 20
203.915765
 11
476.372740
 21
203.857985
  0
LINE
  8
CSLAYER4
  6
CONTINUOUS
 62
     7
 10
476.372740
 20
203.857985
 11
476.277396
 21
203.796495
  0
LINE
  8
CSLAYER4
  6
CONTINUOUS
 62
     7
 10
476.277396
 20
203.796495
 11
476.184112
 21
203.731319
  0
LINE
  8
CSLAYER4
  6
CONTINUOUS
 62
     7
 10
476.184112
 20
203.731319
 11
476.092867
 21
203.662527
  0
LINE
  8
CSLAYER4
  6
CONTINUOUS
 62
     7
 10
476.092867
 20
203.662527
 11
476.003755
 21
203.590244
  0
LINE
  8
CSLAYER4
  6
CONTINUOUS
 62
     7
 10
476.003755
 20
203.590244
 11
475.917216
 21
203.514953
  0
LINE
  8
CSLAYER4
  6
CONTINUOUS
 62
     7
 10
475.917216
 20
203.514953
 11
475.833253
 21
203.436840
  0
LINE
  8
CSLAYER4
  6
CONTINUOUS
 62
     7
 10
475.833253
 20
203.436840
 11
475.751845
 21
203.356050
  0
LINE
  8
CSLAYER4
  6
CONTINUOUS
 62
     7
 10
475.751845
 20
203.356050
 11
475.672918
 21
203.272725
  0
LINE
  8
CSLAYER4
  6
CONTINUOUS
 62
     7
 10
475.672918
 20
203.272725
 11
475.596454
 21
203.186991
  0
LINE
  8
CSLAYER4
  6
CONTINUOUS
 62
     7
 10
475.596454
 20
203.186991
 11
475.522378
 21
203.098991
  0
LINE
  8
CSLAYER4
  6
CONTINUOUS
 62
     7
 10
475.522378
 20
203.098991
 11
475.470262
 21
203.027438
  0
LINE
  8
CSLAYER4
  6
CONTINUOUS
 62
     7
 10
475.470262
 20
203.027438
 11
475.420299
 21
202.954599
  0
LINE
  8
CSLAYER4
  6
CONTINUOUS
 62
     7
 10
475.420299
 20
202.954599
 11
475.372498
 21
202.880493
  0
LINE
  8
CSLAYER4
  6
CONTINUOUS
 62
     7
 10
475.372498
 20
202.880493
 11
475.326891
 21
202.805099
  0
LINE
  8
CSLAYER4
  6
CONTINUOUS
 62
     7
 10
475.326891
 20
202.805099
 11
475.283488
 21
202.728417
  0
LINE
  8
CSLAYER4
  6
CONTINUOUS
 62
     7
 10
475.283488
 20
202.728417
 11
475.242289
 21
202.650440
  0
LINE
  8
CSLAYER4
  6
CONTINUOUS
 62
     7
 10
475.242289
 20
202.650440
 11
475.203315
 21
202.571163
  0
LINE
  8
CSLAYER4
  6
CONTINUOUS
 62
     7
 10
475.203315
 20
202.571163
 11
475.166575
 21
202.490568
  0
LINE
  8
CSLAYER4
  6
CONTINUOUS
 62
     7
 10
475.166575
 20
202.490568
 11
475.132104
 21
202.408706
  0
LINE
  8
CSLAYER4
  6
CONTINUOUS
 62
     7
 10
475.132104
 20
202.408706
 11
475.100071
 21
202.325969
  0
LINE
  8
CSLAYER4
  6
CONTINUOUS
 62
     7
 10
475.100071
 20
202.325969
 11
475.070481
 21
202.242500
  0
LINE
  8
CSLAYER4
  6
CONTINUOUS
 62
     7
 10
475.070481
 20
202.242500
 11
475.043310
 21
202.158320
  0
LINE
  8
CSLAYER4
  6
CONTINUOUS
 62
     7
 10
475.043310
 20
202.158320
 11
475.018507
 21
202.073441
  0
LINE
  8
CSLAYER4
  6
CONTINUOUS
 62
     7
 10
475.018507
 20
202.073441
 11
474.996064
 21
201.987870
  0
LINE
  8
CSLAYER4
  6
CONTINUOUS
 62
     7
 10
474.996064
 20
201.987870
 11
474.975928
 21
201.901653
  0
LINE
  8
CSLAYER4
  6
CONTINUOUS
 62
     7
 10
474.975928
 20
201.901653
 11
474.958069
 21
201.814785
  0
LINE
  8
CSLAYER4
  6
CONTINUOUS
 62
     7
 10
474.958069
 20
201.814785
 11
474.942465
 21
201.727299
  0
LINE
  8
CSLAYER4
  6
CONTINUOUS
 62
     7
 10
474.942465
 20
201.727299
 11
474.929076
 21
201.639267
  0
LINE
  8
CSLAYER4
  6
CONTINUOUS
 62
     7
 10
474.929076
 20
201.639267
 11
474.917890
 21
201.550959
  0
LINE
  8
CSLAYER4
  6
CONTINUOUS
 62
     7
 10
474.917890
 20
201.550959
 11
474.908868
 21
201.462422
  0
LINE
  8
CSLAYER4
  6
CONTINUOUS
 62
     7
 10
474.908868
 20
201.462422
 11
474.901956
 21
201.373701
  0
LINE
  8
CSLAYER4
  6
CONTINUOUS
 62
     7
 10
474.901956
 20
201.373701
 11
474.897084
 21
201.284825
  0
LINE
  8
CSLAYER4
  6
CONTINUOUS
 62
     7
 10
474.897084
 20
201.284825
 11
474.894201
 21
201.195836
  0
LINE
  8
CSLAYER4
  6
CONTINUOUS
 62
     7
 10
474.894201
 20
201.195836
 11
474.893253
 21
201.106764
  0
LINE
  8
CSLAYER4
  6
CONTINUOUS
 62
     7
 10
474.893253
 20
201.106764
 11
474.894139
 21
201.020402
  0
LINE
  8
CSLAYER4
  6
CONTINUOUS
 62
     7
 10
474.894139
 20
201.020402
 11
474.896868
 21
200.933997
  0
LINE
  8
CSLAYER4
  6
CONTINUOUS
 62
     7
 10
474.896868
 20
200.933997
 11
474.901513
 21
200.847614
  0
LINE
  8
CSLAYER4
  6
CONTINUOUS
 62
     7
 10
474.901513
 20
200.847614
 11
474.908178
 21
200.761364
  0
LINE
  8
CSLAYER4
  6
CONTINUOUS
 62
     7
 10
474.908178
 20
200.761364
 11
474.916953
 21
200.675310
  0
LINE
  8
CSLAYER4
  6
CONTINUOUS
 62
     7
 10
474.916953
 20
200.675310
 11
474.927922
 21
200.589555
  0
LINE
  8
CSLAYER4
  6
CONTINUOUS
 62
     7
 10
474.927922
 20
200.589555
 11
474.941167
 21
200.504171
  0
LINE
  8
CSLAYER4
  6
CONTINUOUS
 62
     7
 10
474.941167
 20
200.504171
 11
474.956802
 21
200.419250
  0
LINE
  8
CSLAYER4
  6
CONTINUOUS
 62
     7
 10
474.956802
 20
200.419250
 11
474.974898
 21
200.334875
  0
LINE
  8
CSLAYER4
  6
CONTINUOUS
 62
     7
 10
474.974898
 20
200.334875
 11
474.995539
 21
200.251158
  0
LINE
  8
CSLAYER4
  6
CONTINUOUS
 62
     7
 10
474.995539
 20
200.251158
 11
475.018765
 21
200.168402
  0
LINE
  8
CSLAYER4
  6
CONTINUOUS
 62
     7
 10
475.018765
 20
200.168402
 11
475.044618
 21
200.086683
  0
LINE
  8
CSLAYER4
  6
CONTINUOUS
 62
     7
 10
475.044618
 20
200.086683
 11
475.073169
 21
200.006078
  0
LINE
  8
CSLAYER4
  6
CONTINUOUS
 62
     7
 10
475.073169
 20
200.006078
 11
475.104489
 21
199.926636
  0
LINE
  8
CSLAYER4
  6
CONTINUOUS
 62
     7
 10
475.104489
 20
199.926636
 11
475.138653
 21
199.848420
  0
LINE
  8
CSLAYER4
  6
CONTINUOUS
 62
     7
 10
475.138653
 20
199.848420
 11
475.175712
 21
199.771493
  0
LINE
  8
CSLAYER4
  6
CONTINUOUS
 62
     7
 10
475.175712
 20
199.771493
 11
475.215757
 21
199.695903
  0
LINE
  8
CSLAYER4
  6
CONTINUOUS
 62
     7
 10
475.215757
 20
199.695903
 11
475.258830
 21
199.621704
  0
LINE
  8
CSLAYER4
  6
CONTINUOUS
 62
     7
 10
475.258830
 20
199.621704
 11
475.304829
 21
199.549266
  0
LINE
  8
CSLAYER4
  6
CONTINUOUS
 62
     7
 10
475.304829
 20
199.549266
 11
475.353505
 21
199.478993
  0
LINE
  8
CSLAYER4
  6
CONTINUOUS
 62
     7
 10
475.353505
 20
199.478993
 11
475.404849
 21
199.410869
  0
LINE
  8
CSLAYER4
  6
CONTINUOUS
 62
     7
 10
475.404849
 20
199.410869
 11
475.458850
 21
199.344900
  0
LINE
  8
CSLAYER4
  6
CONTINUOUS
 62
     7
 10
475.458850
 20
199.344900
 11
475.515508
 21
199.281074
  0
LINE
  8
CSLAYER4
  6
CONTINUOUS
 62
     7
 10
475.515508
 20
199.281074
 11
475.574805
 21
199.219379
  0
LINE
  8
CSLAYER4
  6
CONTINUOUS
 62
     7
 10
475.574805
 20
199.219379
 11
475.609380
 21
199.185162
  0
LINE
  8
CSLAYER4
  6
CONTINUOUS
 62
     7
 10
475.609380
 20
199.185162
 11
475.644388
 21
199.151225
  0
LINE
  8
CSLAYER4
  6
CONTINUOUS
 62
     7
 10
475.644388
 20
199.151225
 11
475.679820
 21
199.117617
  0
LINE
  8
CSLAYER4
  6
CONTINUOUS
 62
     7
 10
475.679820
 20
199.117617
 11
475.715683
 21
199.084349
  0
LINE
  8
CSLAYER4
  6
CONTINUOUS
 62
     7
 10
475.715683
 20
199.084349
 11
475.751968
 21
199.051463
  0
LINE
  8
CSLAYER4
  6
CONTINUOUS
 62
     7
 10
475.751968
 20
199.051463
 11
475.788676
 21
199.018977
  0
LINE
  8
CSLAYER4
  6
CONTINUOUS
 62
     7
 10
475.788676
 20
199.018977
 11
475.825797
 21
198.986936
  0
LINE
  8
CSLAYER4
  6
CONTINUOUS
 62
     7
 10
475.825797
 20
198.986936
 11
475.863328
 21
198.955365
  0
LINE
  8
CSLAYER4
  6
CONTINUOUS
 62
     7
 10
475.863328
 20
198.955365
 11
475.901272
 21
198.924293
  0
LINE
  8
CSLAYER4
  6
CONTINUOUS
 62
     7
 10
475.901272
 20
198.924293
 11
475.939629
 21
198.893742
  0
LINE
  8
CSLAYER4
  6
CONTINUOUS
 62
     7
 10
475.939629
 20
198.893742
 11
475.978375
 21
198.863750
  0
LINE
  8
CSLAYER4
  6
CONTINUOUS
 62
     7
 10
475.978375
 20
198.863750
 11
476.017536
 21
198.834356
  0
LINE
  8
CSLAYER4
  6
CONTINUOUS
 62
     7
 10
476.017536
 20
198.834356
 11
476.057086
 21
198.805578
  0
LINE
  8
CSLAYER4
  6
CONTINUOUS
 62
     7
 10
476.057086
 20
198.805578
 11
476.097028
 21
198.777440
  0
LINE
  8
CSLAYER4
  6
CONTINUOUS
 62
     7
 10
476.097028
 20
198.777440
 11
476.137351
 21
198.749990
  0
LINE
  8
CSLAYER4
  6
CONTINUOUS
 62
     7
 10
476.137351
 20
198.749990
 11
476.178067
 21
198.723242
  0
LINE
  8
CSLAYER4
  6
CONTINUOUS
 62
     7
 10
476.178067
 20
198.723242
 11
476.219173
 21
198.697236
  0
LINE
  8
CSLAYER4
  6
CONTINUOUS
 62
     7
 10
476.219173
 20
198.697236
 11
476.260650
 21
198.672002
  0
LINE
  8
CSLAYER4
  6
CONTINUOUS
 62
     7
 10
476.260650
 20
198.672002
 11
476.302528
 21
198.647550
  0
LINE
  8
CSLAYER4
  6
CONTINUOUS
 62
     7
 10
476.302528
 20
198.647550
 11
476.344849
 21
198.623882
  0
LINE
  8
CSLAYER4
  6
CONTINUOUS
 62
     7
 10
476.344849
 20
198.623882
 11
476.387604
 21
198.601047
  0
LINE
  8
CSLAYER4
  6
CONTINUOUS
 62
     7
 10
476.387604
 20
198.601047
 11
476.430801
 21
198.579068
  0
LINE
  8
CSLAYER4
  6
CONTINUOUS
 62
     7
 10
476.430801
 20
198.579068
 11
476.474430
 21
198.557984
  0
LINE
  8
CSLAYER4
  6
CONTINUOUS
 62
     7
 10
476.474430
 20
198.557984
 11
476.518492
 21
198.537827
  0
LINE
  8
CSLAYER4
  6
CONTINUOUS
 62
     7
 10
478.720437
 20
197.594139
 11
476.518495
 21
198.537828
  0
LINE
  8
CSLAYER4
  6
CONTINUOUS
 62
     7
 10
478.720440
 20
197.594139
 11
478.783330
 21
197.565249
  0
LINE
  8
CSLAYER4
  6
CONTINUOUS
 62
     7
 10
478.783330
 20
197.565249
 11
478.845067
 21
197.533979
  0
LINE
  8
CSLAYER4
  6
CONTINUOUS
 62
     7
 10
478.845067
 20
197.533979
 11
478.905505
 21
197.500217
  0
LINE
  8
CSLAYER4
  6
CONTINUOUS
 62
     7
 10
478.905505
 20
197.500217
 11
478.964419
 21
197.463869
  0
LINE
  8
CSLAYER4
  6
CONTINUOUS
 62
     7
 10
478.964419
 20
197.463869
 11
479.021644
 21
197.424833
  0
LINE
  8
CSLAYER4
  6
CONTINUOUS
 62
     7
 10
479.021644
 20
197.424833
 11
479.076891
 21
197.383079
  0
LINE
  8
CSLAYER4
  6
CONTINUOUS
 62
     7
 10
479.076891
 20
197.383079
 11
479.129770
 21
197.338707
  0
LINE
  8
CSLAYER4
  6
CONTINUOUS
 62
     7
 10
479.129770
 20
197.338707
 11
479.180157
 21
197.291669
  0
LINE
  8
CSLAYER4
  6
CONTINUOUS
 62
     7
 10
479.180157
 20
197.291669
 11
479.227906
 21
197.241890
  0
LINE
  8
CSLAYER4
  6
CONTINUOUS
 62
     7
 10
479.227906
 20
197.241890
 11
479.272936
 21
197.189310
  0
LINE
  8
CSLAYER4
  6
CONTINUOUS
 62
     7
 10
479.272936
 20
197.189310
 11
479.314876
 21
197.134176
  0
LINE
  8
CSLAYER4
  6
CONTINUOUS
 62
     7
 10
479.314876
 20
197.134176
 11
479.353273
 21
197.077127
  0
LINE
  8
CSLAYER4
  6
CONTINUOUS
 62
     7
 10
479.353273
 20
197.077127
 11
479.388169
 21
197.018243
  0
LINE
  8
CSLAYER4
  6
CONTINUOUS
 62
     7
 10
479.388169
 20
197.018243
 11
479.419624
 21
196.957557
  0
LINE
  8
CSLAYER4
  6
CONTINUOUS
 62
     7
 10
479.419624
 20
196.957557
 11
479.447680
 21
196.895130
  0
LINE
  8
CSLAYER4
  6
CONTINUOUS
 62
     7
 10
479.447680
 20
196.895130
 11
479.472441
 21
196.831005
  0
LINE
  8
CSLAYER4
  6
CONTINUOUS
 62
     7
 10
479.472441
 20
196.831005
 11
479.493946
 21
196.765221
  0
LINE
  8
CSLAYER4
  6
CONTINUOUS
 62
     7
 10
479.493946
 20
196.765221
 11
479.512239
 21
196.698015
  0
LINE
  8
CSLAYER4
  6
CONTINUOUS
 62
     7
 10
479.512239
 20
196.698015
 11
479.527276
 21
196.630028
  0
LINE
  8
CSLAYER4
  6
CONTINUOUS
 62
     7
 10
479.527276
 20
196.630028
 11
479.539224
 21
196.561410
  0
LINE
  8
CSLAYER4
  6
CONTINUOUS
 62
     7
 10
479.539224
 20
196.561410
 11
479.548246
 21
196.492311
  0
LINE
  8
CSLAYER4
  6
CONTINUOUS
 62
     7
 10
479.548246
 20
196.492311
 11
479.554467
 21
196.422860
  0
LINE
  8
CSLAYER4
  6
CONTINUOUS
 62
     7
 10
479.554467
 20
196.422860
 11
479.558092
 21
196.353203
  0
LINE
  8
CSLAYER4
  6
CONTINUOUS
 62
     7
 10
479.558092
 20
196.353203
 11
479.559267
 21
196.283463
  0
LINE
  8
CSLAYER4
  6
CONTINUOUS
 62
     7
 10
479.559267
 20
196.283463
 11
479.557804
 21
196.218276
  0
LINE
  8
CSLAYER4
  6
CONTINUOUS
 62
     7
 10
479.557804
 20
196.218276
 11
479.553292
 21
196.153379
  0
LINE
  8
CSLAYER4
  6
CONTINUOUS
 62
     7
 10
479.553292
 20
196.153379
 11
479.545630
 21
196.088831
  0
LINE
  8
CSLAYER4
  6
CONTINUOUS
 62
     7
 10
479.545630
 20
196.088831
 11
479.534631
 21
196.024704
  0
LINE
  8
CSLAYER4
  6
CONTINUOUS
 62
     7
 10
479.534631
 20
196.024704
 11
479.520211
 21
195.961145
  0
LINE
  8
CSLAYER4
  6
CONTINUOUS
 62
     7
 10
479.520211
 20
195.961145
 11
479.502372
 21
195.898698
  0
LINE
  8
CSLAYER4
  6
CONTINUOUS
 62
     7
 10
479.502372
 20
195.898698
 11
479.481112
 21
195.837549
  0
LINE
  8
CSLAYER4
  6
CONTINUOUS
 62
     7
 10
479.481112
 20
195.837549
 11
479.456415
 21
195.777698
  0
LINE
  8
CSLAYER4
  6
CONTINUOUS
 62
     7
 10
479.456415
 20
195.777698
 11
479.428234
 21
195.719165
  0
LINE
  8
CSLAYER4
  6
CONTINUOUS
 62
     7
 10
479.428234
 20
195.719165
 11
479.396800
 21
195.662331
  0
LINE
  8
CSLAYER4
  6
CONTINUOUS
 62
     7
 10
479.396800
 20
195.662331
 11
479.362440
 21
195.607680
  0
LINE
  8
CSLAYER4
  6
CONTINUOUS
 62
     7
 10
479.362440
 20
195.607680
 11
479.325300
 21
195.555173
  0
LINE
  8
CSLAYER4
  6
CONTINUOUS
 62
     7
 10
479.325300
 20
195.555173
 11
479.285542
 21
195.504767
  0
LINE
  8
CSLAYER4
  6
CONTINUOUS
 62
     7
 10
479.285542
 20
195.504767
 11
479.243293
 21
195.456399
  0
LINE
  8
CSLAYER4
  6
CONTINUOUS
 62
     7
 10
479.243293
 20
195.456399
 11
479.198695
 21
195.410021
  0
LINE
  8
CSLAYER4
  6
CONTINUOUS
 62
     7
 10
479.198695
 20
195.410021
 11
479.151852
 21
195.365588
  0
LINE
  8
CSLAYER4
  6
CONTINUOUS
 62
     7
 10
479.151852
 20
195.365588
 11
479.102950
 21
195.323049
  0
LINE
  8
CSLAYER4
  6
CONTINUOUS
 62
     7
 10
479.102950
 20
195.323049
 11
479.052193
 21
195.282447
  0
LINE
  8
CSLAYER4
  6
CONTINUOUS
 62
     7
 10
479.052193
 20
195.282447
 11
478.999849
 21
195.243783
  0
LINE
  8
CSLAYER4
  6
CONTINUOUS
 62
     7
 10
478.999849
 20
195.243783
 11
478.946085
 21
195.207003
  0
LINE
  8
CSLAYER4
  6
CONTINUOUS
 62
     7
 10
478.946085
 20
195.207003
 11
478.891086
 21
195.172046
  0
LINE
  8
CSLAYER4
  6
CONTINUOUS
 62
     7
 10
478.891086
 20
195.172046
 11
478.835034
 21
195.138881
  0
LINE
  8
CSLAYER4
  6
CONTINUOUS
 62
     7
 10
478.835034
 20
195.138881
 11
478.778098
 21
195.107426
  0
LINE
  8
CSLAYER4
  6
CONTINUOUS
 62
     7
 10
478.778098
 20
195.107426
 11
478.720440
 21
195.077639
  0
LINE
  8
CSLAYER4
  6
CONTINUOUS
 62
     7
 10
478.720440
 20
195.077639
 11
478.664616
 21
195.061253
  0
LINE
  8
CSLAYER4
  6
CONTINUOUS
 62
     7
 10
478.664616
 20
195.061253
 11
478.608534
 21
195.046379
  0
LINE
  8
CSLAYER4
  6
CONTINUOUS
 62
     7
 10
478.608534
 20
195.046379
 11
478.552164
 21
195.033051
  0
LINE
  8
CSLAYER4
  6
CONTINUOUS
 62
     7
 10
478.552164
 20
195.033051
 11
478.495525
 21
195.021279
  0
LINE
  8
CSLAYER4
  6
CONTINUOUS
 62
     7
 10
478.495525
 20
195.021279
 11
478.438609
 21
195.011093
  0
LINE
  8
CSLAYER4
  6
CONTINUOUS
 62
     7
 10
478.438609
 20
195.011093
 11
478.381416
 21
195.002502
  0
LINE
  8
CSLAYER4
  6
CONTINUOUS
 62
     7
 10
478.381416
 20
195.002502
 11
478.323954
 21
194.995560
  0
LINE
  8
CSLAYER4
  6
CONTINUOUS
 62
     7
 10
478.323954
 20
194.995560
 11
478.266225
 21
194.990267
  0
LINE
  8
CSLAYER4
  6
CONTINUOUS
 62
     7
 10
478.266225
 20
194.990267
 11
478.208227
 21
194.986652
  0
LINE
  8
CSLAYER4
  6
CONTINUOUS
 62
     7
 10
478.208227
 20
194.986652
 11
478.150219
 21
194.984756
  0
LINE
  8
CSLAYER4
  6
CONTINUOUS
 62
     7
 10
478.150219
 20
194.984756
 11
478.092345
 21
194.984561
  0
LINE
  8
CSLAYER4
  6
CONTINUOUS
 62
     7
 10
478.092345
 20
194.984561
 11
478.034595
 21
194.986053
  0
LINE
  8
CSLAYER4
  6
CONTINUOUS
 62
     7
 10
478.034595
 20
194.986053
 11
477.976957
 21
194.989247
  0
LINE
  8
CSLAYER4
  6
CONTINUOUS
 62
     7
 10
477.976957
 20
194.989247
 11
477.919455
 21
194.994098
  0
LINE
  8
CSLAYER4
  6
CONTINUOUS
 62
     7
 10
477.919455
 20
194.994098
 11
477.862075
 21
195.000629
  0
LINE
  8
CSLAYER4
  6
CONTINUOUS
 62
     7
 10
477.862075
 20
195.000629
 11
477.804808
 21
195.008805
  0
LINE
  8
CSLAYER4
  6
CONTINUOUS
 62
     7
 10
477.804808
 20
195.008805
 11
477.747676
 21
195.018621
  0
LINE
  8
CSLAYER4
  6
CONTINUOUS
 62
     7
 10
477.747676
 20
195.018621
 11
477.690699
 21
195.030065
  0
LINE
  8
CSLAYER4
  6
CONTINUOUS
 62
     7
 10
477.690699
 20
195.030065
 11
477.634101
 21
195.043062
  0
LINE
  8
CSLAYER4
  6
CONTINUOUS
 62
     7
 10
477.634101
 20
195.043062
 11
477.577906
 21
195.057575
  0
LINE
  8
CSLAYER4
  6
CONTINUOUS
 62
     7
 10
477.577906
 20
195.057575
 11
477.522135
 21
195.073571
  0
LINE
  8
CSLAYER4
  6
CONTINUOUS
 62
     7
 10
477.522135
 20
195.073571
 11
477.466783
 21
195.091008
  0
LINE
  8
CSLAYER4
  6
CONTINUOUS
 62
     7
 10
477.466783
 20
195.091008
 11
477.411844
 21
195.109845
  0
LINE
  8
CSLAYER4
  6
CONTINUOUS
 62
     7
 10
477.411844
 20
195.109845
 11
477.357328
 21
195.130064
  0
LINE
  8
CSLAYER4
  6
CONTINUOUS
 62
     7
 10
477.357328
 20
195.130064
 11
477.319230
 21
195.145760
  0
LINE
  8
CSLAYER4
  6
CONTINUOUS
 62
     7
 10
477.319230
 20
195.145760
 11
477.281430
 21
195.162261
  0
LINE
  8
CSLAYER4
  6
CONTINUOUS
 62
     7
 10
477.281430
 20
195.162261
 11
477.244000
 21
195.179595
  0
LINE
  8
CSLAYER4
  6
CONTINUOUS
 62
     7
 10
477.244000
 20
195.179595
 11
477.206964
 21
195.197774
  0
LINE
  8
CSLAYER4
  6
CONTINUOUS
 62
     7
 10
477.206964
 20
195.197774
 11
477.170370
 21
195.216839
  0
LINE
  8
CSLAYER4
  6
CONTINUOUS
 62
     7
 10
477.170370
 20
195.216839
 11
477.134259
 21
195.236789
  0
LINE
  8
CSLAYER4
  6
CONTINUOUS
 62
     7
 10
477.134259
 20
195.236789
 11
477.098683
 21
195.257667
  0
LINE
  8
CSLAYER4
  6
CONTINUOUS
 62
     7
 10
477.098683
 20
195.257667
 11
477.063675
 21
195.279492
  0
LINE
  8
CSLAYER4
  6
CONTINUOUS
 62
     7
 10
477.063675
 20
195.279492
 11
477.029274
 21
195.302274
  0
LINE
  8
CSLAYER4
  6
CONTINUOUS
 62
     7
 10
477.029274
 20
195.302274
 11
476.995552
 21
195.326036
  0
LINE
  8
CSLAYER4
  6
CONTINUOUS
 62
     7
 10
476.995552
 20
195.326036
 11
476.962614
 21
195.350735
  0
LINE
  8
CSLAYER4
  6
CONTINUOUS
 62
     7
 10
476.962614
 20
195.350735
 11
476.930511
 21
195.376380
  0
LINE
  8
CSLAYER4
  6
CONTINUOUS
 62
     7
 10
476.930511
 20
195.376380
 11
476.899272
 21
195.402996
  0
LINE
  8
CSLAYER4
  6
CONTINUOUS
 62
     7
 10
476.899272
 20
195.402996
 11
476.868918
 21
195.430587
  0
LINE
  8
CSLAYER4
  6
CONTINUOUS
 62
     7
 10
476.868918
 20
195.430587
 11
476.839482
 21
195.459180
  0
LINE
  8
CSLAYER4
  6
CONTINUOUS
 62
     7
 10
476.839482
 20
195.459180
 11
476.810992
 21
195.488792
  0
LINE
  8
CSLAYER4
  6
CONTINUOUS
 62
     7
 10
476.810992
 20
195.488792
 11
476.783482
 21
195.519434
  0
LINE
  8
CSLAYER4
  6
CONTINUOUS
 62
     7
 10
476.783482
 20
195.519434
 11
476.756982
 21
195.551126
  0
LINE
  8
CSLAYER4
  6
CONTINUOUS
 62
     7
 10
476.756982
 20
195.551126
 11
476.731612
 21
195.583766
  0
LINE
  8
CSLAYER4
  6
CONTINUOUS
 62
     7
 10
476.731612
 20
195.583766
 11
476.707480
 21
195.617229
  0
LINE
  8
CSLAYER4
  6
CONTINUOUS
 62
     7
 10
476.707480
 20
195.617229
 11
476.684595
 21
195.651495
  0
LINE
  8
CSLAYER4
  6
CONTINUOUS
 62
     7
 10
476.684595
 20
195.651495
 11
476.662945
 21
195.686577
  0
LINE
  8
CSLAYER4
  6
CONTINUOUS
 62
     7
 10
476.662945
 20
195.686577
 11
476.642530
 21
195.722481
  0
LINE
  8
CSLAYER4
  6
CONTINUOUS
 62
     7
 10
476.642530
 20
195.722481
 11
476.623353
 21
195.759189
  0
LINE
  8
CSLAYER4
  6
CONTINUOUS
 62
     7
 10
476.623353
 20
195.759189
 11
476.602764
 21
195.801788
  0
LINE
  8
CSLAYER4
  6
CONTINUOUS
 62
     7
 10
476.602764
 20
195.801788
 11
476.582958
 21
195.845583
  0
LINE
  8
CSLAYER4
  6
CONTINUOUS
 62
     7
 10
476.582958
 20
195.845583
 11
476.563924
 21
195.890499
  0
LINE
  8
CSLAYER4
  6
CONTINUOUS
 62
     7
 10
476.563924
 20
195.890499
 11
476.545632
 21
195.936467
  0
LINE
  8
CSLAYER4
  6
CONTINUOUS
 62
     7
 10
476.545632
 20
195.936467
 11
476.528071
 21
195.983403
  0
LINE
  8
CSLAYER4
  6
CONTINUOUS
 62
     7
 10
476.528071
 20
195.983403
 11
476.511231
 21
196.031225
  0
LINE
  8
CSLAYER4
  6
CONTINUOUS
 62
     7
 10
476.511231
 20
196.031225
 11
476.495080
 21
196.079850
  0
LINE
  8
CSLAYER4
  6
CONTINUOUS
 62
     7
 10
476.495080
 20
196.079850
 11
476.479600
 21
196.129226
  0
LINE
  8
CSLAYER4
  6
CONTINUOUS
 62
     7
 10
476.479600
 20
196.129226
 11
476.464789
 21
196.179242
  0
LINE
  8
CSLAYER4
  6
CONTINUOUS
 62
     7
 10
476.464789
 20
196.179242
 11
476.450628
 21
196.229853
  0
LINE
  8
CSLAYER4
  6
CONTINUOUS
 62
     7
 10
476.450628
 20
196.229853
 11
476.437083
 21
196.280961
  0
LINE
  8
CSLAYER4
  6
CONTINUOUS
 62
     7
 10
476.437083
 20
196.280961
 11
476.424147
 21
196.332491
  0
LINE
  8
CSLAYER4
  6
CONTINUOUS
 62
     7
 10
476.424147
 20
196.332491
 11
476.411797
 21
196.384370
  0
LINE
  8
CSLAYER4
  6
CONTINUOUS
 62
     7
 10
476.411797
 20
196.384370
 11
476.400025
 21
196.436517
  0
LINE
  8
CSLAYER4
  6
CONTINUOUS
 62
     7
 10
476.400025
 20
196.436517
 11
476.388798
 21
196.488851
  0
LINE
  8
CSLAYER4
  6
CONTINUOUS
 62
     7
 10
476.388798
 20
196.488851
 11
476.378118
 21
196.541306
  0
LINE
  8
CSLAYER4
  6
CONTINUOUS
 62
     7
 10
476.378118
 20
196.541306
 11
476.367940
 21
196.593813
  0
LINE
  8
CSLAYER4
  6
CONTINUOUS
 62
     7
 10
476.367940
 20
196.593813
 11
476.358238
 21
196.646528
  0
LINE
  8
CSLAYER4
  6
CONTINUOUS
 62
     7
 10
476.358238
 20
196.646528
 11
476.348968
 21
196.699437
  0
LINE
  8
CSLAYER4
  6
CONTINUOUS
 62
     7
 10
476.348968
 20
196.699437
 11
476.340121
 21
196.752501
  0
LINE
  8
CSLAYER4
  6
CONTINUOUS
 62
     7
 10
476.340121
 20
196.752501
 11
476.331697
 21
196.805648
  0
LINE
  8
CSLAYER4
  6
CONTINUOUS
 62
     7
 10
476.331697
 20
196.805648
 11
476.323674
 21
196.858814
  0
LINE
  8
CSLAYER4
  6
CONTINUOUS
 62
     7
 10
476.323674
 20
196.858814
 11
476.316042
 21
196.911960
  0
LINE
  8
CSLAYER4
  6
CONTINUOUS
 62
     7
 10
476.316042
 20
196.911960
 11
476.308791
 21
196.965014
  0
LINE
  8
CSLAYER4
  6
CONTINUOUS
 62
     7
 10
474.631117
 20
196.965014
 11
476.308788
 21
196.965014
  0
LINE
  8
CSLAYER4
  6
CONTINUOUS
 62
     7
 10
474.631116
 20
196.965014
 11
474.646771
 21
196.779095
  0
LINE
  8
CSLAYER4
  6
CONTINUOUS
 62
     7
 10
474.646771
 20
196.779095
 11
474.666979
 21
196.592865
  0
LINE
  8
CSLAYER4
  6
CONTINUOUS
 62
     7
 10
474.666979
 20
196.592865
 11
474.692080
 21
196.406853
  0
LINE
  8
CSLAYER4
  6
CONTINUOUS
 62
     7
 10
474.692080
 20
196.406853
 11
474.722412
 21
196.221614
  0
LINE
  8
CSLAYER4
  6
CONTINUOUS
 62
     7
 10
474.722412
 20
196.221614
 11
474.758317
 21
196.037693
  0
LINE
  8
CSLAYER4
  6
CONTINUOUS
 62
     7
 10
474.758317
 20
196.037693
 11
474.800134
 21
195.855626
  0
LINE
  8
CSLAYER4
  6
CONTINUOUS
 62
     7
 10
474.800134
 20
195.855626
 11
474.848233
 21
195.675834
  0
LINE
  8
CSLAYER4
  6
CONTINUOUS
 62
     7
 10
474.848233
 20
195.675834
 11
474.903253
 21
195.498030
  0
LINE
  8
CSLAYER4
  6
CONTINUOUS
 62
     7
 10
474.903253
 20
195.498030
 11
474.965680
 21
195.322719
  0
LINE
  8
CSLAYER4
  6
CONTINUOUS
 62
     7
 10
474.965680
 20
195.322719
 11
475.035955
 21
195.150581
  0
LINE
  8
CSLAYER4
  6
CONTINUOUS
 62
     7
 10
475.035955
 20
195.150581
 11
475.114522
 21
194.982326
  0
LINE
  8
CSLAYER4
  6
CONTINUOUS
 62
     7
 10
475.114522
 20
194.982326
 11
475.201822
 21
194.818613
  0
LINE
  8
CSLAYER4
  6
CONTINUOUS
 62
     7
 10
475.201822
 20
194.818613
 11
475.297938
 21
194.660718
  0
LINE
  8
CSLAYER4
  6
CONTINUOUS
 62
     7
 10
475.297938
 20
194.660718
 11
475.402563
 21
194.510085
  0
LINE
  8
CSLAYER4
  6
CONTINUOUS
 62
     7
 10
475.402563
 20
194.510085
 11
475.515963
 21
194.367084
  0
LINE
  8
CSLAYER4
  6
CONTINUOUS
 62
     7
 10
475.515963
 20
194.367084
 11
475.638373
 21
194.232075
  0
LINE
  8
CSLAYER4
  6
CONTINUOUS
 62
     7
 10
475.638373
 20
194.232075
 11
475.770066
 21
194.105390
  0
LINE
  8
CSLAYER4
  6
CONTINUOUS
 62
     7
 10
475.770066
 20
194.105390
 11
475.911243
 21
193.987428
  0
LINE
  8
CSLAYER4
  6
CONTINUOUS
 62
     7
 10
475.911243
 20
193.987428
 11
476.059846
 21
193.880063
  0
LINE
  8
CSLAYER4
  6
CONTINUOUS
 62
     7
 10
476.059846
 20
193.880063
 11
476.214403
 21
193.783977
  0
LINE
  8
CSLAYER4
  6
CONTINUOUS
 62
     7
 10
476.214403
 20
193.783977
 11
476.374573
 21
193.698779
  0
LINE
  8
CSLAYER4
  6
CONTINUOUS
 62
     7
 10
476.374573
 20
193.698779
 11
476.540028
 21
193.624106
  0
LINE
  8
CSLAYER4
  6
CONTINUOUS
 62
     7
 10
476.540028
 20
193.624106
 11
476.710447
 21
193.559579
  0
LINE
  8
CSLAYER4
  6
CONTINUOUS
 62
     7
 10
476.710447
 20
193.559579
 11
476.885490
 21
193.504815
  0
ENDBLK
  8
0
  0
BLOCK
  8
CSLAYER1
  2
BLKF0007
 70
   64
 10
0.0
 20
0.0
 30
0.0
  0
LINE
  8
CSLAYER4
  6
CONTINUOUS
 62
     7
 10
497.889301
 20
195.933213
 11
497.867383
 21
195.872393
  0
LINE
  8
CSLAYER4
  6
CONTINUOUS
 62
     7
 10
497.867383
 20
195.872393
 11
497.844003
 21
195.811214
  0
LINE
  8
CSLAYER4
  6
CONTINUOUS
 62
     7
 10
497.844003
 20
195.811214
 11
497.819098
 21
195.749982
  0
LINE
  8
CSLAYER4
  6
CONTINUOUS
 62
     7
 10
497.819098
 20
195.749982
 11
497.792649
 21
195.689018
  0
LINE
  8
CSLAYER4
  6
CONTINUOUS
 62
     7
 10
497.792649
 20
195.689018
 11
497.764572
 21
195.628610
  0
LINE
  8
CSLAYER4
  6
CONTINUOUS
 62
     7
 10
497.764572
 20
195.628610
 11
497.734848
 21
195.569067
  0
LINE
  8
CSLAYER4
  6
CONTINUOUS
 62
     7
 10
497.734848
 20
195.569067
 11
497.703393
 21
195.510710
  0
LINE
  8
CSLAYER4
  6
CONTINUOUS
 62
     7
 10
497.703393
 20
195.510710
 11
497.670207
 21
195.453834
  0
LINE
  8
CSLAYER4
  6
CONTINUOUS
 62
     7
 10
497.670207
 20
195.453834
 11
497.635228
 21
195.398753
  0
LINE
  8
CSLAYER4
  6
CONTINUOUS
 62
     7
 10
497.635228
 20
195.398753
 11
497.598397
 21
195.345761
  0
LINE
  8
CSLAYER4
  6
CONTINUOUS
 62
     7
 10
497.598397
 20
195.345761
 11
497.559237
 21
195.294642
  0
LINE
  8
CSLAYER4
  6
CONTINUOUS
 62
     7
 10
497.559237
 20
195.294642
 11
497.517462
 21
195.245534
  0
LINE
  8
CSLAYER4
  6
CONTINUOUS
 62
     7
 10
497.517462
 20
195.245534
 11
497.472948
 21
195.198948
  0
LINE
  8
CSLAYER4
  6
CONTINUOUS
 62
     7
 10
497.472948
 20
195.198948
 11
497.425650
 21
195.155391
  0
LINE
  8
CSLAYER4
  6
CONTINUOUS
 62
     7
 10
497.425650
 20
195.155391
 11
497.375470
 21
195.115356
  0
LINE
  8
CSLAYER4
  6
CONTINUOUS
 62
     7
 10
497.375470
 20
195.115356
 11
497.322550
 21
195.079514
  0
LINE
  8
CSLAYER4
  6
CONTINUOUS
 62
     7
 10
497.322550
 20
195.079514
 11
497.267325
 21
195.048522
  0
LINE
  8
CSLAYER4
  6
CONTINUOUS
 62
     7
 10
497.267325
 20
195.048522
 11
497.209770
 21
195.022659
  0
LINE
  8
CSLAYER4
  6
CONTINUOUS
 62
     7
 10
497.209770
 20
195.022659
 11
497.149804
 21
195.002153
  0
LINE
  8
CSLAYER4
  6
CONTINUOUS
 62
     7
 10
497.149804
 20
195.002153
 11
497.087739
 21
194.987331
  0
LINE
  8
CSLAYER4
  6
CONTINUOUS
 62
     7
 10
497.087739
 20
194.987331
 11
497.025076
 21
194.978493
  0
LINE
  8
CSLAYER4
  6
CONTINUOUS
 62
     7
 10
497.025076
 20
194.978493
 11
496.962103
 21
194.975363
  0
LINE
  8
CSLAYER4
  6
CONTINUOUS
 62
     7
 10
496.962103
 20
194.975363
 11
496.898925
 21
194.977608
  0
LINE
  8
CSLAYER4
  6
CONTINUOUS
 62
     7
 10
496.898925
 20
194.977608
 11
496.835623
 21
194.984921
  0
LINE
  8
CSLAYER4
  6
CONTINUOUS
 62
     7
 10
496.835623
 20
194.984921
 11
496.777429
 21
194.999814
  0
LINE
  8
CSLAYER4
  6
CONTINUOUS
 62
     7
 10
496.777429
 20
194.999814
 11
496.721152
 21
195.020702
  0
LINE
  8
CSLAYER4
  6
CONTINUOUS
 62
     7
 10
496.721152
 20
195.020702
 11
496.667017
 21
195.047213
  0
LINE
  8
CSLAYER4
  6
CONTINUOUS
 62
     7
 10
496.667017
 20
195.047213
 11
496.615642
 21
195.078638
  0
LINE
  8
CSLAYER4
  6
CONTINUOUS
 62
     7
 10
496.615642
 20
195.078638
 11
496.566987
 21
195.114419
  0
LINE
  8
CSLAYER4
  6
CONTINUOUS
 62
     7
 10
496.566987
 20
195.114419
 11
496.520988
 21
195.153980
  0
LINE
  8
CSLAYER4
  6
CONTINUOUS
 62
     7
 10
496.520988
 20
195.153980
 11
496.477606
 21
195.196775
  0
LINE
  8
CSLAYER4
  6
CONTINUOUS
 62
     7
 10
496.477606
 20
195.196775
 11
496.436820
 21
195.242228
  0
LINE
  8
CSLAYER4
  6
CONTINUOUS
 62
     7
 10
496.436820
 20
195.242228
 11
496.398525
 21
195.289760
  0
LINE
  8
CSLAYER4
  6
CONTINUOUS
 62
     7
 10
496.398525
 20
195.289760
 11
496.362682
 21
195.338828
  0
LINE
  8
CSLAYER4
  6
CONTINUOUS
 62
     7
 10
496.362682
 20
195.338828
 11
496.328734
 21
195.389627
  0
LINE
  8
CSLAYER4
  6
CONTINUOUS
 62
     7
 10
496.328734
 20
195.389627
 11
496.296043
 21
195.442763
  0
LINE
  8
CSLAYER4
  6
CONTINUOUS
 62
     7
 10
496.296043
 20
195.442763
 11
496.264609
 21
195.498051
  0
LINE
  8
CSLAYER4
  6
CONTINUOUS
 62
     7
 10
496.264609
 20
195.498051
 11
496.234369
 21
195.555308
  0
LINE
  8
CSLAYER4
  6
CONTINUOUS
 62
     7
 10
496.234369
 20
195.555308
 11
496.205344
 21
195.614355
  0
LINE
  8
CSLAYER4
  6
CONTINUOUS
 62
     7
 10
496.205344
 20
195.614355
 11
496.177453
 21
195.675021
  0
LINE
  8
CSLAYER4
  6
CONTINUOUS
 62
     7
 10
496.177453
 20
195.675021
 11
496.150695
 21
195.737108
  0
LINE
  8
CSLAYER4
  6
CONTINUOUS
 62
     7
 10
496.150695
 20
195.737108
 11
496.125027
 21
195.800450
  0
LINE
  8
CSLAYER4
  6
CONTINUOUS
 62
     7
 10
496.125027
 20
195.800450
 11
496.100452
 21
195.864864
  0
LINE
  8
CSLAYER4
  6
CONTINUOUS
 62
     7
 10
496.100452
 20
195.864864
 11
496.076928
 21
195.930164
  0
LINE
  8
CSLAYER4
  6
CONTINUOUS
 62
     7
 10
496.076928
 20
195.930164
 11
496.054413
 21
195.996164
  0
LINE
  8
CSLAYER4
  6
CONTINUOUS
 62
     7
 10
496.054413
 20
195.996164
 11
496.032886
 21
196.062701
  0
LINE
  8
CSLAYER4
  6
CONTINUOUS
 62
     7
 10
496.032886
 20
196.062701
 11
496.012329
 21
196.129586
  0
LINE
  8
CSLAYER4
  6
CONTINUOUS
 62
     7
 10
496.012329
 20
196.129586
 11
495.992697
 21
196.196627
  0
LINE
  8
CSLAYER4
  6
CONTINUOUS
 62
     7
 10
495.992697
 20
196.196627
 11
495.963136
 21
196.298552
  0
LINE
  8
CSLAYER4
  6
CONTINUOUS
 62
     7
 10
495.963136
 20
196.298552
 11
495.935349
 21
196.401179
  0
LINE
  8
CSLAYER4
  6
CONTINUOUS
 62
     7
 10
495.935349
 20
196.401179
 11
495.909289
 21
196.504422
  0
LINE
  8
CSLAYER4
  6
CONTINUOUS
 62
     7
 10
495.909289
 20
196.504422
 11
495.884922
 21
196.608192
  0
LINE
  8
CSLAYER4
  6
CONTINUOUS
 62
     7
 10
495.884922
 20
196.608192
 11
495.862159
 21
196.712435
  0
LINE
  8
CSLAYER4
  6
CONTINUOUS
 62
     7
 10
495.862159
 20
196.712435
 11
495.841003
 21
196.817049
  0
LINE
  8
CSLAYER4
  6
CONTINUOUS
 62
     7
 10
495.841003
 20
196.817049
 11
495.821371
 21
196.921952
  0
LINE
  8
CSLAYER4
  6
CONTINUOUS
 62
     7
 10
495.821371
 20
196.921952
 11
495.803224
 21
197.027070
  0
LINE
  8
CSLAYER4
  6
CONTINUOUS
 62
     7
 10
495.803224
 20
197.027070
 11
495.786519
 21
197.132322
  0
LINE
  8
CSLAYER4
  6
CONTINUOUS
 62
     7
 10
495.786519
 20
197.132322
 11
495.771213
 21
197.237616
  0
LINE
  8
CSLAYER4
  6
CONTINUOUS
 62
     7
 10
495.771213
 20
197.237616
 11
495.757246
 21
197.342889
  0
LINE
  8
CSLAYER4
  6
CONTINUOUS
 62
     7
 10
495.757246
 20
197.342889
 11
495.744537
 21
197.448255
  0
LINE
  8
CSLAYER4
  6
CONTINUOUS
 62
     7
 10
495.744537
 20
197.448255
 11
495.733063
 21
197.553981
  0
LINE
  8
CSLAYER4
  6
CONTINUOUS
 62
     7
 10
495.733063
 20
197.553981
 11
495.722722
 21
197.660016
  0
LINE
  8
CSLAYER4
  6
CONTINUOUS
 62
     7
 10
495.722722
 20
197.660016
 11
495.713535
 21
197.766299
  0
LINE
  8
CSLAYER4
  6
CONTINUOUS
 62
     7
 10
495.713535
 20
197.766299
 11
495.705439
 21
197.872787
  0
LINE
  8
CSLAYER4
  6
CONTINUOUS
 62
     7
 10
495.705439
 20
197.872787
 11
495.698436
 21
197.979419
  0
LINE
  8
CSLAYER4
  6
CONTINUOUS
 62
     7
 10
495.698436
 20
197.979419
 11
495.692440
 21
198.086145
  0
LINE
  8
CSLAYER4
  6
CONTINUOUS
 62
     7
 10
495.692440
 20
198.086145
 11
495.687475
 21
198.192902
  0
LINE
  8
CSLAYER4
  6
CONTINUOUS
 62
     7
 10
495.687475
 20
198.192902
 11
495.683479
 21
198.299648
  0
LINE
  8
CSLAYER4
  6
CONTINUOUS
 62
     7
 10
495.683479
 20
198.299648
 11
495.680431
 21
198.406332
  0
LINE
  8
CSLAYER4
  6
CONTINUOUS
 62
     7
 10
495.680431
 20
198.406332
 11
495.678289
 21
198.512882
  0
LINE
  8
CSLAYER4
  6
CONTINUOUS
 62
     7
 10
495.678289
 20
198.512882
 11
495.677011
 21
198.619268
  0
LINE
  8
CSLAYER4
  6
CONTINUOUS
 62
     7
 10
495.677011
 20
198.619268
 11
495.676599
 21
198.725415
  0
LINE
  8
CSLAYER4
  6
CONTINUOUS
 62
     7
 10
495.676599
 20
198.725415
 11
495.676971
 21
198.839495
  0
LINE
  8
CSLAYER4
  6
CONTINUOUS
 62
     7
 10
495.676971
 20
198.839495
 11
495.678103
 21
198.954110
  0
LINE
  8
CSLAYER4
  6
CONTINUOUS
 62
     7
 10
495.678103
 20
198.954110
 11
495.680019
 21
199.069137
  0
LINE
  8
CSLAYER4
  6
CONTINUOUS
 62
     7
 10
495.680019
 20
199.069137
 11
495.682780
 21
199.184483
  0
LINE
  8
CSLAYER4
  6
CONTINUOUS
 62
     7
 10
495.682780
 20
199.184483
 11
495.686425
 21
199.300055
  0
LINE
  8
CSLAYER4
  6
CONTINUOUS
 62
     7
 10
495.686425
 20
199.300055
 11
495.690978
 21
199.415732
  0
LINE
  8
CSLAYER4
  6
CONTINUOUS
 62
     7
 10
495.690978
 20
199.415732
 11
495.696498
 21
199.531427
  0
LINE
  8
CSLAYER4
  6
CONTINUOUS
 62
     7
 10
495.696498
 20
199.531427
 11
495.703008
 21
199.647041
  0
LINE
  8
CSLAYER4
  6
CONTINUOUS
 62
     7
 10
495.703008
 20
199.647041
 11
495.710568
 21
199.762460
  0
LINE
  8
CSLAYER4
  6
CONTINUOUS
 62
     7
 10
495.710568
 20
199.762460
 11
495.719178
 21
199.877589
  0
LINE
  8
CSLAYER4
  6
CONTINUOUS
 62
     7
 10
495.719178
 20
199.877589
 11
495.728922
 21
199.992327
  0
LINE
  8
CSLAYER4
  6
CONTINUOUS
 62
     7
 10
495.728922
 20
199.992327
 11
495.739798
 21
200.106572
  0
LINE
  8
CSLAYER4
  6
CONTINUOUS
 62
     7
 10
495.739798
 20
200.106572
 11
495.751891
 21
200.220230
  0
LINE
  8
CSLAYER4
  6
CONTINUOUS
 62
     7
 10
495.751891
 20
200.220230
 11
495.765238
 21
200.333546
  0
LINE
  8
CSLAYER4
  6
CONTINUOUS
 62
     7
 10
495.765238
 20
200.333546
 11
495.780070
 21
200.447430
  0
LINE
  8
CSLAYER4
  6
CONTINUOUS
 62
     7
 10
495.780070
 20
200.447430
 11
495.796426
 21
200.561705
  0
LINE
  8
CSLAYER4
  6
CONTINUOUS
 62
     7
 10
495.796426
 20
200.561705
 11
495.814429
 21
200.676176
  0
LINE
  8
CSLAYER4
  6
CONTINUOUS
 62
     7
 10
495.814429
 20
200.676176
 11
495.834144
 21
200.790626
  0
LINE
  8
CSLAYER4
  6
CONTINUOUS
 62
     7
 10
495.834144
 20
200.790626
 11
495.855649
 21
200.904839
  0
LINE
  8
CSLAYER4
  6
CONTINUOUS
 62
     7
 10
495.855649
 20
200.904839
 11
495.879009
 21
201.018599
  0
LINE
  8
CSLAYER4
  6
CONTINUOUS
 62
     7
 10
495.879009
 20
201.018599
 11
495.904326
 21
201.131709
  0
LINE
  8
CSLAYER4
  6
CONTINUOUS
 62
     7
 10
495.904326
 20
201.131709
 11
495.931641
 21
201.243935
  0
LINE
  8
CSLAYER4
  6
CONTINUOUS
 62
     7
 10
495.931641
 20
201.243935
 11
495.961077
 21
201.355079
  0
LINE
  8
CSLAYER4
  6
CONTINUOUS
 62
     7
 10
495.961077
 20
201.355079
 11
495.992697
 21
201.464925
  0
LINE
  8
CSLAYER4
  6
CONTINUOUS
 62
     7
 10
495.992697
 20
201.464925
 11
496.003368
 21
201.503529
  0
LINE
  8
CSLAYER4
  6
CONTINUOUS
 62
     7
 10
496.003368
 20
201.503529
 11
496.014367
 21
201.542255
  0
LINE
  8
CSLAYER4
  6
CONTINUOUS
 62
     7
 10
496.014367
 20
201.542255
 11
496.025697
 21
201.581075
  0
LINE
  8
CSLAYER4
  6
CONTINUOUS
 62
     7
 10
496.025697
 20
201.581075
 11
496.037356
 21
201.619925
  0
LINE
  8
CSLAYER4
  6
CONTINUOUS
 62
     7
 10
496.037356
 20
201.619925
 11
496.049346
 21
201.658775
  0
LINE
  8
CSLAYER4
  6
CONTINUOUS
 62
     7
 10
496.049346
 20
201.658775
 11
496.061704
 21
201.697584
  0
LINE
  8
CSLAYER4
  6
CONTINUOUS
 62
     7
 10
496.061704
 20
201.697584
 11
496.074394
 21
201.736301
  0
LINE
  8
CSLAYER4
  6
CONTINUOUS
 62
     7
 10
496.074394
 20
201.736301
 11
496.087434
 21
201.774894
  0
LINE
  8
CSLAYER4
  6
CONTINUOUS
 62
     7
 10
496.087434
 20
201.774894
 11
496.100823
 21
201.813302
  0
LINE
  8
CSLAYER4
  6
CONTINUOUS
 62
     7
 10
496.100823
 20
201.813302
 11
496.114605
 21
201.851493
  0
LINE
  8
CSLAYER4
  6
CONTINUOUS
 62
     7
 10
496.114605
 20
201.851493
 11
496.128735
 21
201.889427
  0
LINE
  8
CSLAYER4
  6
CONTINUOUS
 62
     7
 10
496.128735
 20
201.889427
 11
496.143216
 21
201.927062
  0
LINE
  8
CSLAYER4
  6
CONTINUOUS
 62
     7
 10
496.143216
 20
201.927062
 11
496.158111
 21
201.964335
  0
LINE
  8
CSLAYER4
  6
CONTINUOUS
 62
     7
 10
496.158111
 20
201.964335
 11
496.173394
 21
202.001333
  0
LINE
  8
CSLAYER4
  6
CONTINUOUS
 62
     7
 10
496.173394
 20
202.001333
 11
496.189297
 21
202.038381
  0
LINE
  8
CSLAYER4
  6
CONTINUOUS
 62
     7
 10
496.189297
 20
202.038381
 11
496.205818
 21
202.075428
  0
LINE
  8
CSLAYER4
  6
CONTINUOUS
 62
     7
 10
496.205818
 20
202.075428
 11
496.222978
 21
202.112394
  0
LINE
  8
CSLAYER4
  6
CONTINUOUS
 62
     7
 10
496.222978
 20
202.112394
 11
496.240776
 21
202.149153
  0
LINE
  8
CSLAYER4
  6
CONTINUOUS
 62
     7
 10
496.240776
 20
202.149153
 11
496.259212
 21
202.185645
  0
LINE
  8
CSLAYER4
  6
CONTINUOUS
 62
     7
 10
496.259212
 20
202.185645
 11
496.278328
 21
202.221756
  0
LINE
  8
CSLAYER4
  6
CONTINUOUS
 62
     7
 10
496.278328
 20
202.221756
 11
496.298103
 21
202.257393
  0
LINE
  8
CSLAYER4
  6
CONTINUOUS
 62
     7
 10
496.298103
 20
202.257393
 11
496.318537
 21
202.292463
  0
LINE
  8
CSLAYER4
  6
CONTINUOUS
 62
     7
 10
496.318537
 20
202.292463
 11
496.339672
 21
202.326875
  0
LINE
  8
CSLAYER4
  6
CONTINUOUS
 62
     7
 10
496.339672
 20
202.326875
 11
496.361488
 21
202.360533
  0
LINE
  8
CSLAYER4
  6
CONTINUOUS
 62
     7
 10
496.361488
 20
202.360533
 11
496.380069
 21
202.382349
  0
LINE
  8
CSLAYER4
  6
CONTINUOUS
 62
     7
 10
496.380069
 20
202.382349
 11
496.399143
 21
202.403804
  0
LINE
  8
CSLAYER4
  6
CONTINUOUS
 62
     7
 10
496.399143
 20
202.403804
 11
496.418712
 21
202.424825
  0
LINE
  8
CSLAYER4
  6
CONTINUOUS
 62
     7
 10
496.418712
 20
202.424825
 11
496.438818
 21
202.445384
  0
LINE
  8
CSLAYER4
  6
CONTINUOUS
 62
     7
 10
496.438818
 20
202.445384
 11
496.459417
 21
202.465406
  0
LINE
  8
CSLAYER4
  6
CONTINUOUS
 62
     7
 10
496.459417
 20
202.465406
 11
496.480531
 21
202.484850
  0
LINE
  8
CSLAYER4
  6
CONTINUOUS
 62
     7
 10
496.480531
 20
202.484850
 11
496.502160
 21
202.503659
  0
LINE
  8
CSLAYER4
  6
CONTINUOUS
 62
     7
 10
496.502160
 20
202.503659
 11
496.524325
 21
202.521776
  0
LINE
  8
CSLAYER4
  6
CONTINUOUS
 62
     7
 10
496.524325
 20
202.521776
 11
496.547005
 21
202.539161
  0
LINE
  8
CSLAYER4
  6
CONTINUOUS
 62
     7
 10
496.547005
 20
202.539161
 11
496.570221
 21
202.555764
  0
LINE
  8
CSLAYER4
  6
CONTINUOUS
 62
     7
 10
496.570221
 20
202.555764
 11
496.593951
 21
202.571513
  0
LINE
  8
CSLAYER4
  6
CONTINUOUS
 62
     7
 10
496.593951
 20
202.571513
 11
496.618237
 21
202.586375
  0
LINE
  8
CSLAYER4
  6
CONTINUOUS
 62
     7
 10
496.618237
 20
202.586375
 11
496.643059
 21
202.600301
  0
LINE
  8
CSLAYER4
  6
CONTINUOUS
 62
     7
 10
496.643059
 20
202.600301
 11
496.668418
 21
202.613226
  0
LINE
  8
CSLAYER4
  6
CONTINUOUS
 62
     7
 10
496.668418
 20
202.613226
 11
496.694332
 21
202.625102
  0
LINE
  8
CSLAYER4
  6
CONTINUOUS
 62
     7
 10
496.694332
 20
202.625102
 11
496.720741
 21
202.635855
  0
LINE
  8
CSLAYER4
  6
CONTINUOUS
 62
     7
 10
496.720741
 20
202.635855
 11
496.747375
 21
202.645361
  0
LINE
  8
CSLAYER4
  6
CONTINUOUS
 62
     7
 10
496.747375
 20
202.645361
 11
496.774278
 21
202.653621
  0
LINE
  8
CSLAYER4
  6
CONTINUOUS
 62
     7
 10
496.774278
 20
202.653621
 11
496.801449
 21
202.660637
  0
LINE
  8
CSLAYER4
  6
CONTINUOUS
 62
     7
 10
496.801449
 20
202.660637
 11
496.828846
 21
202.666373
  0
LINE
  8
CSLAYER4
  6
CONTINUOUS
 62
     7
 10
496.828846
 20
202.666373
 11
496.856511
 21
202.670853
  0
LINE
  8
CSLAYER4
  6
CONTINUOUS
 62
     7
 10
496.856511
 20
202.670853
 11
496.884423
 21
202.674056
  0
LINE
  8
CSLAYER4
  6
CONTINUOUS
 62
     7
 10
496.884423
 20
202.674056
 11
496.912582
 21
202.675982
  0
LINE
  8
CSLAYER4
  6
CONTINUOUS
 62
     7
 10
496.912582
 20
202.675982
 11
496.940989
 21
202.676631
  0
LINE
  8
CSLAYER4
  6
CONTINUOUS
 62
     7
 10
496.940989
 20
202.676631
 11
496.973206
 21
202.675539
  0
LINE
  8
CSLAYER4
  6
CONTINUOUS
 62
     7
 10
496.973206
 20
202.675539
 11
497.005114
 21
202.672295
  0
LINE
  8
CSLAYER4
  6
CONTINUOUS
 62
     7
 10
497.005114
 20
202.672295
 11
497.036673
 21
202.666980
  0
LINE
  8
CSLAYER4
  6
CONTINUOUS
 62
     7
 10
497.036673
 20
202.666980
 11
497.067922
 21
202.659647
  0
LINE
  8
CSLAYER4
  6
CONTINUOUS
 62
     7
 10
497.067922
 20
202.659647
 11
497.098821
 21
202.650368
  0
LINE
  8
CSLAYER4
  6
CONTINUOUS
 62
     7
 10
497.098821
 20
202.650368
 11
497.129226
 21
202.639263
  0
LINE
  8
CSLAYER4
  6
CONTINUOUS
 62
     7
 10
497.129226
 20
202.639263
 11
497.158992
 21
202.626524
  0
LINE
  8
CSLAYER4
  6
CONTINUOUS
 62
     7
 10
497.158992
 20
202.626524
 11
497.188057
 21
202.612259
  0
LINE
  8
CSLAYER4
  6
CONTINUOUS
 62
     7
 10
497.188057
 20
202.612259
 11
497.216443
 21
202.596624
  0
LINE
  8
CSLAYER4
  6
CONTINUOUS
 62
     7
 10
497.216443
 20
202.596624
 11
497.244129
 21
202.579731
  0
LINE
  8
CSLAYER4
  6
CONTINUOUS
 62
     7
 10
497.244129
 20
202.579731
 11
497.271135
 21
202.561697
  0
LINE
  8
CSLAYER4
  6
CONTINUOUS
 62
     7
 10
497.271135
 20
202.561697
 11
497.297605
 21
202.542519
  0
LINE
  8
CSLAYER4
  6
CONTINUOUS
 62
     7
 10
497.297605
 20
202.542519
 11
497.323602
 21
202.522259
  0
LINE
  8
CSLAYER4
  6
CONTINUOUS
 62
     7
 10
497.323602
 20
202.522259
 11
497.349063
 21
202.501022
  0
LINE
  8
CSLAYER4
  6
CONTINUOUS
 62
     7
 10
497.349063
 20
202.501022
 11
497.374008
 21
202.478888
  0
LINE
  8
CSLAYER4
  6
CONTINUOUS
 62
     7
 10
497.374008
 20
202.478888
 11
497.398419
 21
202.455971
  0
LINE
  8
CSLAYER4
  6
CONTINUOUS
 62
     7
 10
497.398419
 20
202.455971
 11
497.422293
 21
202.432343
  0
LINE
  8
CSLAYER4
  6
CONTINUOUS
 62
     7
 10
497.422293
 20
202.432343
 11
497.445612
 21
202.408107
  0
LINE
  8
CSLAYER4
  6
CONTINUOUS
 62
     7
 10
497.445612
 20
202.408107
 11
497.468353
 21
202.383357
  0
LINE
  8
CSLAYER4
  6
CONTINUOUS
 62
     7
 10
497.468353
 20
202.383357
 11
497.490517
 21
202.358186
  0
LINE
  8
CSLAYER4
  6
CONTINUOUS
 62
     7
 10
497.490517
 20
202.358186
 11
497.512086
 21
202.332695
  0
LINE
  8
CSLAYER4
  6
CONTINUOUS
 62
     7
 10
497.512086
 20
202.332695
 11
497.533077
 21
202.306955
  0
LINE
  8
CSLAYER4
  6
CONTINUOUS
 62
     7
 10
497.533077
 20
202.306955
 11
497.553450
 21
202.281081
  0
LINE
  8
CSLAYER4
  6
CONTINUOUS
 62
     7
 10
497.553450
 20
202.281081
 11
497.573182
 21
202.255169
  0
LINE
  8
CSLAYER4
  6
CONTINUOUS
 62
     7
 10
497.573182
 20
202.255169
 11
497.600004
 21
202.216401
  0
LINE
  8
CSLAYER4
  6
CONTINUOUS
 62
     7
 10
497.600004
 20
202.216401
 11
497.625814
 21
202.176684
  0
LINE
  8
CSLAYER4
  6
CONTINUOUS
 62
     7
 10
497.625814
 20
202.176684
 11
497.650617
 21
202.136135
  0
LINE
  8
CSLAYER4
  6
CONTINUOUS
 62
     7
 10
497.650617
 20
202.136135
 11
497.674429
 21
202.094843
  0
LINE
  8
CSLAYER4
  6
CONTINUOUS
 62
     7
 10
497.674429
 20
202.094843
 11
497.697315
 21
202.052903
  0
LINE
  8
CSLAYER4
  6
CONTINUOUS
 62
     7
 10
497.697315
 20
202.052903
 11
497.719254
 21
202.010427
  0
LINE
  8
CSLAYER4
  6
CONTINUOUS
 62
     7
 10
497.719254
 20
202.010427
 11
497.740306
 21
201.967508
  0
LINE
  8
CSLAYER4
  6
CONTINUOUS
 62
     7
 10
497.740306
 20
201.967508
 11
497.760453
 21
201.924260
  0
LINE
  8
CSLAYER4
  6
CONTINUOUS
 62
     7
 10
497.760453
 20
201.924260
 11
497.779732
 21
201.880764
  0
LINE
  8
CSLAYER4
  6
CONTINUOUS
 62
     7
 10
497.779732
 20
201.880764
 11
497.798169
 21
201.837146
  0
LINE
  8
CSLAYER4
  6
CONTINUOUS
 62
     7
 10
497.798169
 20
201.837146
 11
497.815782
 21
201.793464
  0
LINE
  8
CSLAYER4
  6
CONTINUOUS
 62
     7
 10
497.815782
 20
201.793464
 11
497.832777
 21
201.749412
  0
LINE
  8
CSLAYER4
  6
CONTINUOUS
 62
     7
 10
497.832777
 20
201.749412
 11
497.849173
 21
201.704928
  0
LINE
  8
CSLAYER4
  6
CONTINUOUS
 62
     7
 10
497.849173
 20
201.704928
 11
497.864994
 21
201.660053
  0
LINE
  8
CSLAYER4
  6
CONTINUOUS
 62
     7
 10
497.864994
 20
201.660053
 11
497.880279
 21
201.614847
  0
LINE
  8
CSLAYER4
  6
CONTINUOUS
 62
     7
 10
497.880279
 20
201.614847
 11
497.895007
 21
201.569354
  0
LINE
  8
CSLAYER4
  6
CONTINUOUS
 62
     7
 10
497.895007
 20
201.569354
 11
497.909220
 21
201.523632
  0
LINE
  8
CSLAYER4
  6
CONTINUOUS
 62
     7
 10
497.909220
 20
201.523632
 11
497.922898
 21
201.477738
  0
LINE
  8
CSLAYER4
  6
CONTINUOUS
 62
     7
 10
497.922898
 20
201.477738
 11
497.936062
 21
201.431709
  0
LINE
  8
CSLAYER4
  6
CONTINUOUS
 62
     7
 10
497.936062
 20
201.431709
 11
497.948730
 21
201.385607
  0
LINE
  8
CSLAYER4
  6
CONTINUOUS
 62
     7
 10
497.948730
 20
201.385607
 11
497.960925
 21
201.339486
  0
LINE
  8
CSLAYER4
  6
CONTINUOUS
 62
     7
 10
497.960925
 20
201.339486
 11
497.972625
 21
201.293394
  0
LINE
  8
CSLAYER4
  6
CONTINUOUS
 62
     7
 10
497.972625
 20
201.293394
 11
497.983873
 21
201.247385
  0
LINE
  8
CSLAYER4
  6
CONTINUOUS
 62
     7
 10
497.983873
 20
201.247385
 11
497.994667
 21
201.201510
  0
LINE
  8
CSLAYER4
  6
CONTINUOUS
 62
     7
 10
497.994667
 20
201.201510
 11
498.024165
 21
201.084023
  0
LINE
  8
CSLAYER4
  6
CONTINUOUS
 62
     7
 10
498.024165
 20
201.084023
 11
498.051666
 21
200.965793
  0
LINE
  8
CSLAYER4
  6
CONTINUOUS
 62
     7
 10
498.051666
 20
200.965793
 11
498.077167
 21
200.846913
  0
LINE
  8
CSLAYER4
  6
CONTINUOUS
 62
     7
 10
498.077167
 20
200.846913
 11
498.100794
 21
200.727498
  0
LINE
  8
CSLAYER4
  6
CONTINUOUS
 62
     7
 10
498.100794
 20
200.727498
 11
498.122547
 21
200.607621
  0
LINE
  8
CSLAYER4
  6
CONTINUOUS
 62
     7
 10
498.122547
 20
200.607621
 11
498.142509
 21
200.487381
  0
LINE
  8
CSLAYER4
  6
CONTINUOUS
 62
     7
 10
498.142509
 20
200.487381
 11
498.160719
 21
200.366886
  0
LINE
  8
CSLAYER4
  6
CONTINUOUS
 62
     7
 10
498.160719
 20
200.366886
 11
498.177259
 21
200.246205
  0
LINE
  8
CSLAYER4
  6
CONTINUOUS
 62
     7
 10
498.177259
 20
200.246205
 11
498.192193
 21
200.125461
  0
LINE
  8
CSLAYER4
  6
CONTINUOUS
 62
     7
 10
498.192193
 20
200.125461
 11
498.205543
 21
200.004729
  0
LINE
  8
CSLAYER4
  6
CONTINUOUS
 62
     7
 10
498.205543
 20
200.004729
 11
498.217387
 21
199.884119
  0
LINE
  8
CSLAYER4
  6
CONTINUOUS
 62
     7
 10
498.217387
 20
199.884119
 11
498.227790
 21
199.763448
  0
LINE
  8
CSLAYER4
  6
CONTINUOUS
 62
     7
 10
498.227790
 20
199.763448
 11
498.236854
 21
199.642407
  0
LINE
  8
CSLAYER4
  6
CONTINUOUS
 62
     7
 10
498.236854
 20
199.642407
 11
498.244599
 21
199.521056
  0
LINE
  8
CSLAYER4
  6
CONTINUOUS
 62
     7
 10
498.244599
 20
199.521056
 11
498.251067
 21
199.399457
  0
LINE
  8
CSLAYER4
  6
CONTINUOUS
 62
     7
 10
498.251067
 20
199.399457
 11
498.256299
 21
199.277673
  0
LINE
  8
CSLAYER4
  6
CONTINUOUS
 62
     7
 10
498.256299
 20
199.277673
 11
498.260337
 21
199.155758
  0
LINE
  8
CSLAYER4
  6
CONTINUOUS
 62
     7
 10
498.260337
 20
199.155758
 11
498.263200
 21
199.033767
  0
LINE
  8
CSLAYER4
  6
CONTINUOUS
 62
     7
 10
498.263200
 20
199.033767
 11
498.264931
 21
198.911787
  0
LINE
  8
CSLAYER4
  6
CONTINUOUS
 62
     7
 10
498.264931
 20
198.911787
 11
498.265590
 21
198.789860
  0
LINE
  8
CSLAYER4
  6
CONTINUOUS
 62
     7
 10
498.265590
 20
198.789860
 11
498.265198
 21
198.668046
  0
LINE
  8
CSLAYER4
  6
CONTINUOUS
 62
     7
 10
498.265198
 20
198.668046
 11
498.263778
 21
198.546417
  0
LINE
  8
CSLAYER4
  6
CONTINUOUS
 62
     7
 10
498.263778
 20
198.546417
 11
498.261388
 21
198.425036
  0
LINE
  8
CSLAYER4
  6
CONTINUOUS
 62
     7
 10
498.261388
 20
198.425036
 11
498.258072
 21
198.303942
  0
LINE
  8
CSLAYER4
  6
CONTINUOUS
 62
     7
 10
498.258072
 20
198.303942
 11
498.254199
 21
198.204809
  0
LINE
  8
CSLAYER4
  6
CONTINUOUS
 62
     7
 10
498.254199
 20
198.204809
 11
498.249645
 21
198.105221
  0
LINE
  8
CSLAYER4
  6
CONTINUOUS
 62
     7
 10
498.249645
 20
198.105221
 11
498.244372
 21
198.005262
  0
LINE
  8
CSLAYER4
  6
CONTINUOUS
 62
     7
 10
498.244372
 20
198.005262
 11
498.238336
 21
197.905035
  0
LINE
  8
CSLAYER4
  6
CONTINUOUS
 62
     7
 10
498.238336
 20
197.905035
 11
498.231498
 21
197.804624
  0
LINE
  8
CSLAYER4
  6
CONTINUOUS
 62
     7
 10
498.231498
 20
197.804624
 11
498.223855
 21
197.704140
  0
LINE
  8
CSLAYER4
  6
CONTINUOUS
 62
     7
 10
498.223855
 20
197.704140
 11
498.215368
 21
197.603678
  0
LINE
  8
CSLAYER4
  6
CONTINUOUS
 62
     7
 10
498.215368
 20
197.603678
 11
498.205975
 21
197.503317
  0
LINE
  8
CSLAYER4
  6
CONTINUOUS
 62
     7
 10
498.205975
 20
197.503317
 11
498.195655
 21
197.403162
  0
LINE
  8
CSLAYER4
  6
CONTINUOUS
 62
     7
 10
498.195655
 20
197.403162
 11
498.184408
 21
197.303318
  0
LINE
  8
CSLAYER4
  6
CONTINUOUS
 62
     7
 10
498.184408
 20
197.303318
 11
498.172150
 21
197.203853
  0
LINE
  8
CSLAYER4
  6
CONTINUOUS
 62
     7
 10
498.172150
 20
197.203853
 11
498.158884
 21
197.104884
  0
LINE
  8
CSLAYER4
  6
CONTINUOUS
 62
     7
 10
498.158884
 20
197.104884
 11
498.144568
 21
197.006501
  0
LINE
  8
CSLAYER4
  6
CONTINUOUS
 62
     7
 10
498.144568
 20
197.006501
 11
498.129120
 21
196.908489
  0
LINE
  8
CSLAYER4
  6
CONTINUOUS
 62
     7
 10
498.129120
 20
196.908489
 11
498.112330
 21
196.810025
  0
LINE
  8
CSLAYER4
  6
CONTINUOUS
 62
     7
 10
498.112330
 20
196.810025
 11
498.094120
 21
196.711220
  0
LINE
  8
CSLAYER4
  6
CONTINUOUS
 62
     7
 10
498.094120
 20
196.711220
 11
498.074428
 21
196.612292
  0
LINE
  8
CSLAYER4
  6
CONTINUOUS
 62
     7
 10
498.074428
 20
196.612292
 11
498.053169
 21
196.513436
  0
LINE
  8
CSLAYER4
  6
CONTINUOUS
 62
     7
 10
498.053169
 20
196.513436
 11
498.030304
 21
196.414847
  0
LINE
  8
CSLAYER4
  6
CONTINUOUS
 62
     7
 10
498.030304
 20
196.414847
 11
498.005728
 21
196.316753
  0
LINE
  8
CSLAYER4
  6
CONTINUOUS
 62
     7
 10
498.005728
 20
196.316753
 11
497.979423
 21
196.219328
  0
LINE
  8
CSLAYER4
  6
CONTINUOUS
 62
     7
 10
497.979423
 20
196.219328
 11
497.951284
 21
196.122798
  0
LINE
  8
CSLAYER4
  6
CONTINUOUS
 62
     7
 10
497.951284
 20
196.122798
 11
497.921271
 21
196.027362
  0
LINE
  8
CSLAYER4
  6
CONTINUOUS
 62
     7
 10
497.921271
 20
196.027362
 11
497.889301
 21
195.933213
  0
LINE
  8
CSLAYER4
  6
CONTINUOUS
 62
     7
 10
494.991733
 20
194.774189
 11
495.043561
 21
194.679731
  0
LINE
  8
CSLAYER4
  6
CONTINUOUS
 62
     7
 10
495.043561
 20
194.679731
 11
495.097737
 21
194.585747
  0
LINE
  8
CSLAYER4
  6
CONTINUOUS
 62
     7
 10
495.097737
 20
194.585747
 11
495.154302
 21
194.492586
  0
LINE
  8
CSLAYER4
  6
CONTINUOUS
 62
     7
 10
495.154302
 20
194.492586
 11
495.213300
 21
194.400558
  0
LINE
  8
CSLAYER4
  6
CONTINUOUS
 62
     7
 10
495.213300
 20
194.400558
 11
495.274768
 21
194.310014
  0
LINE
  8
CSLAYER4
  6
CONTINUOUS
 62
     7
 10
495.274768
 20
194.310014
 11
495.338749
 21
194.221271
  0
LINE
  8
CSLAYER4
  6
CONTINUOUS
 62
     7
 10
495.338749
 20
194.221271
 11
495.405285
 21
194.134650
  0
LINE
  8
CSLAYER4
  6
CONTINUOUS
 62
     7
 10
495.405285
 20
194.134650
 11
495.474417
 21
194.050503
  0
LINE
  8
CSLAYER4
  6
CONTINUOUS
 62
     7
 10
495.474417
 20
194.050503
 11
495.546205
 21
193.969136
  0
LINE
  8
CSLAYER4
  6
CONTINUOUS
 62
     7
 10
495.546205
 20
193.969136
 11
495.620694
 21
193.890899
  0
LINE
  8
CSLAYER4
  6
CONTINUOUS
 62
     7
 10
495.620694
 20
193.890899
 11
495.697900
 21
193.816103
  0
LINE
  8
CSLAYER4
  6
CONTINUOUS
 62
     7
 10
495.697900
 20
193.816103
 11
495.777948
 21
193.745025
  0
LINE
  8
CSLAYER4
  6
CONTINUOUS
 62
     7
 10
495.777948
 20
193.745025
 11
495.860923
 21
193.677963
  0
LINE
  8
CSLAYER4
  6
CONTINUOUS
 62
     7
 10
495.860923
 20
193.677963
 11
495.946863
 21
193.615238
  0
LINE
  8
CSLAYER4
  6
CONTINUOUS
 62
     7
 10
495.946863
 20
193.615238
 11
496.035873
 21
193.557189
  0
LINE
  8
CSLAYER4
  6
CONTINUOUS
 62
     7
 10
496.035873
 20
193.557189
 11
496.127973
 21
193.504146
  0
LINE
  8
CSLAYER4
  6
CONTINUOUS
 62
     7
 10
496.127973
 20
193.504146
 11
496.223224
 21
193.456437
  0
LINE
  8
CSLAYER4
  6
CONTINUOUS
 62
     7
 10
496.223224
 20
193.456437
 11
496.321525
 21
193.414457
  0
LINE
  8
CSLAYER4
  6
CONTINUOUS
 62
     7
 10
496.321525
 20
193.414457
 11
496.421493
 21
193.378964
  0
LINE
  8
CSLAYER4
  6
CONTINUOUS
 62
     7
 10
496.421493
 20
193.378964
 11
496.522801
 21
193.350053
  0
LINE
  8
CSLAYER4
  6
CONTINUOUS
 62
     7
 10
496.522801
 20
193.350053
 11
496.625406
 21
193.327661
  0
LINE
  8
CSLAYER4
  6
CONTINUOUS
 62
     7
 10
496.625406
 20
193.327661
 11
496.729330
 21
193.311738
  0
LINE
  8
CSLAYER4
  6
CONTINUOUS
 62
     7
 10
496.729330
 20
193.311738
 11
496.834531
 21
193.302231
  0
LINE
  8
CSLAYER4
  6
CONTINUOUS
 62
     7
 10
496.834531
 20
193.302231
 11
496.940989
 21
193.299069
  0
LINE
  8
CSLAYER4
  6
CONTINUOUS
 62
     7
 10
496.940989
 20
193.299069
 11
497.052616
 21
193.302479
  0
LINE
  8
CSLAYER4
  6
CONTINUOUS
 62
     7
 10
497.052616
 20
193.302479
 11
497.163400
 21
193.312818
  0
LINE
  8
CSLAYER4
  6
CONTINUOUS
 62
     7
 10
497.163400
 20
193.312818
 11
497.273277
 21
193.330287
  0
LINE
  8
CSLAYER4
  6
CONTINUOUS
 62
     7
 10
497.273277
 20
193.330287
 11
497.382186
 21
193.355058
  0
LINE
  8
CSLAYER4
  6
CONTINUOUS
 62
     7
 10
497.382186
 20
193.355058
 11
497.489241
 21
193.387028
  0
LINE
  8
CSLAYER4
  6
CONTINUOUS
 62
     7
 10
497.489241
 20
193.387028
 11
497.593576
 21
193.425858
  0
LINE
  8
CSLAYER4
  6
CONTINUOUS
 62
     7
 10
497.593576
 20
193.425858
 11
497.695234
 21
193.471382
  0
LINE
  8
CSLAYER4
  6
CONTINUOUS
 62
     7
 10
497.695234
 20
193.471382
 11
497.794236
 21
193.523427
  0
LINE
  8
CSLAYER4
  6
CONTINUOUS
 62
     7
 10
497.794236
 20
193.523427
 11
497.890084
 21
193.581476
  0
LINE
  8
CSLAYER4
  6
CONTINUOUS
 62
     7
 10
497.890084
 20
193.581476
 11
497.982328
 21
193.644860
  0
LINE
  8
CSLAYER4
  6
CONTINUOUS
 62
     7
 10
497.982328
 20
193.644860
 11
498.070987
 21
193.713137
  0
LINE
  8
CSLAYER4
  6
CONTINUOUS
 62
     7
 10
498.070987
 20
193.713137
 11
498.156166
 21
193.785905
  0
LINE
  8
CSLAYER4
  6
CONTINUOUS
 62
     7
 10
498.156166
 20
193.785905
 11
498.237925
 21
193.862720
  0
LINE
  8
CSLAYER4
  6
CONTINUOUS
 62
     7
 10
498.237925
 20
193.862720
 11
498.316326
 21
193.943190
  0
LINE
  8
CSLAYER4
  6
CONTINUOUS
 62
     7
 10
498.316326
 20
193.943190
 11
498.391431
 21
194.026865
  0
LINE
  8
CSLAYER4
  6
CONTINUOUS
 62
     7
 10
498.391431
 20
194.026865
 11
498.463344
 21
194.113352
  0
LINE
  8
CSLAYER4
  6
CONTINUOUS
 62
     7
 10
498.463344
 20
194.113352
 11
498.532186
 21
194.202320
  0
LINE
  8
CSLAYER4
  6
CONTINUOUS
 62
     7
 10
498.532186
 20
194.202320
 11
498.598353
 21
194.293854
  0
LINE
  8
CSLAYER4
  6
CONTINUOUS
 62
     7
 10
498.598353
 20
194.293854
 11
498.661962
 21
194.387673
  0
LINE
  8
CSLAYER4
  6
CONTINUOUS
 62
     7
 10
498.661962
 20
194.387673
 11
498.723019
 21
194.483439
  0
LINE
  8
CSLAYER4
  6
CONTINUOUS
 62
     7
 10
498.723019
 20
194.483439
 11
498.781603
 21
194.580843
  0
LINE
  8
CSLAYER4
  6
CONTINUOUS
 62
     7
 10
498.781603
 20
194.580843
 11
498.837757
 21
194.679546
  0
LINE
  8
CSLAYER4
  6
CONTINUOUS
 62
     7
 10
498.837757
 20
194.679546
 11
498.891522
 21
194.779226
  0
LINE
  8
CSLAYER4
  6
CONTINUOUS
 62
     7
 10
498.891522
 20
194.779226
 11
498.942958
 21
194.879556
  0
LINE
  8
CSLAYER4
  6
CONTINUOUS
 62
     7
 10
498.942958
 20
194.879556
 11
499.019073
 21
195.043587
  0
LINE
  8
CSLAYER4
  6
CONTINUOUS
 62
     7
 10
499.019073
 20
195.043587
 11
499.090141
 21
195.210299
  0
LINE
  8
CSLAYER4
  6
CONTINUOUS
 62
     7
 10
499.090141
 20
195.210299
 11
499.156327
 21
195.379470
  0
LINE
  8
CSLAYER4
  6
CONTINUOUS
 62
     7
 10
499.156327
 20
195.379470
 11
499.217796
 21
195.550889
  0
LINE
  8
CSLAYER4
  6
CONTINUOUS
 62
     7
 10
499.217796
 20
195.550889
 11
499.274650
 21
195.724325
  0
LINE
  8
CSLAYER4
  6
CONTINUOUS
 62
     7
 10
499.274650
 20
195.724325
 11
499.327075
 21
195.899543
  0
LINE
  8
CSLAYER4
  6
CONTINUOUS
 62
     7
 10
499.327075
 20
195.899543
 11
499.375216
 21
196.076316
  0
LINE
  8
CSLAYER4
  6
CONTINUOUS
 62
     7
 10
499.375216
 20
196.076316
 11
499.419216
 21
196.254438
  0
LINE
  8
CSLAYER4
  6
CONTINUOUS
 62
     7
 10
499.419216
 20
196.254438
 11
499.459221
 21
196.433675
  0
LINE
  8
CSLAYER4
  6
CONTINUOUS
 62
     7
 10
499.459221
 20
196.433675
 11
499.495371
 21
196.613805
  0
LINE
  8
CSLAYER4
  6
CONTINUOUS
 62
     7
 10
499.495371
 20
196.613805
 11
499.527837
 21
196.794596
  0
LINE
  8
CSLAYER4
  6
CONTINUOUS
 62
     7
 10
499.527837
 20
196.794596
 11
499.556758
 21
196.975829
  0
LINE
  8
CSLAYER4
  6
CONTINUOUS
 62
     7
 10
499.556758
 20
196.975829
 11
499.582281
 21
197.157278
  0
LINE
  8
CSLAYER4
  6
CONTINUOUS
 62
     7
 10
499.582281
 20
197.157278
 11
499.604548
 21
197.338718
  0
LINE
  8
CSLAYER4
  6
CONTINUOUS
 62
     7
 10
499.604548
 20
197.338718
 11
499.623727
 21
197.519919
  0
LINE
  8
CSLAYER4
  6
CONTINUOUS
 62
     7
 10
499.623727
 20
197.519919
 11
499.639959
 21
197.700659
  0
LINE
  8
CSLAYER4
  6
CONTINUOUS
 62
     7
 10
499.639959
 20
197.700659
 11
499.653390
 21
197.880831
  0
LINE
  8
CSLAYER4
  6
CONTINUOUS
 62
     7
 10
499.653390
 20
197.880831
 11
499.664245
 21
198.061251
  0
LINE
  8
CSLAYER4
  6
CONTINUOUS
 62
     7
 10
499.664245
 20
198.061251
 11
499.672608
 21
198.242051
  0
LINE
  8
CSLAYER4
  6
CONTINUOUS
 62
     7
 10
499.672608
 20
198.242051
 11
499.678582
 21
198.423099
  0
LINE
  8
CSLAYER4
  6
CONTINUOUS
 62
     7
 10
499.678582
 20
198.423099
 11
499.682269
 21
198.604239
  0
LINE
  8
CSLAYER4
  6
CONTINUOUS
 62
     7
 10
499.682269
 20
198.604239
 11
499.683753
 21
198.785339
  0
LINE
  8
CSLAYER4
  6
CONTINUOUS
 62
     7
 10
499.683753
 20
198.785339
 11
499.683135
 21
198.966263
  0
LINE
  8
CSLAYER4
  6
CONTINUOUS
 62
     7
 10
499.683135
 20
198.966263
 11
499.680519
 21
199.146879
  0
LINE
  8
CSLAYER4
  6
CONTINUOUS
 62
     7
 10
499.680519
 20
199.146879
 11
499.675945
 21
199.310808
  0
LINE
  8
CSLAYER4
  6
CONTINUOUS
 62
     7
 10
499.675945
 20
199.310808
 11
499.669477
 21
199.475510
  0
LINE
  8
CSLAYER4
  6
CONTINUOUS
 62
     7
 10
499.669477
 20
199.475510
 11
499.660971
 21
199.640841
  0
LINE
  8
CSLAYER4
  6
CONTINUOUS
 62
     7
 10
499.660971
 20
199.640841
 11
499.650340
 21
199.806624
  0
LINE
  8
CSLAYER4
  6
CONTINUOUS
 62
     7
 10
499.650340
 20
199.806624
 11
499.637508
 21
199.972728
  0
LINE
  8
CSLAYER4
  6
CONTINUOUS
 62
     7
 10
499.637508
 20
199.972728
 11
499.622367
 21
200.138996
  0
LINE
  8
CSLAYER4
  6
CONTINUOUS
 62
     7
 10
499.622367
 20
200.138996
 11
499.604796
 21
200.305263
  0
LINE
  8
CSLAYER4
  6
CONTINUOUS
 62
     7
 10
499.604796
 20
200.305263
 11
499.584732
 21
200.471387
  0
LINE
  8
CSLAYER4
  6
CONTINUOUS
 62
     7
 10
499.584732
 20
200.471387
 11
499.562032
 21
200.637212
  0
LINE
  8
CSLAYER4
  6
CONTINUOUS
 62
     7
 10
499.562032
 20
200.637212
 11
499.536652
 21
200.802593
  0
LINE
  8
CSLAYER4
  6
CONTINUOUS
 62
     7
 10
499.536652
 20
200.802593
 11
499.508452
 21
200.967359
  0
LINE
  8
CSLAYER4
  6
CONTINUOUS
 62
     7
 10
499.508452
 20
200.967359
 11
499.477347
 21
201.131370
  0
LINE
  8
CSLAYER4
  6
CONTINUOUS
 62
     7
 10
499.477347
 20
201.131370
 11
499.443234
 21
201.294465
  0
LINE
  8
CSLAYER4
  6
CONTINUOUS
 62
     7
 10
499.443234
 20
201.294465
 11
499.406013
 21
201.456500
  0
LINE
  8
CSLAYER4
  6
CONTINUOUS
 62
     7
 10
499.406013
 20
201.456500
 11
499.365595
 21
201.617309
  0
LINE
  8
CSLAYER4
  6
CONTINUOUS
 62
     7
 10
499.365595
 20
201.617309
 11
499.321884
 21
201.776748
  0
LINE
  8
CSLAYER4
  6
CONTINUOUS
 62
     7
 10
499.321884
 20
201.776748
 11
499.274773
 21
201.934673
  0
LINE
  8
CSLAYER4
  6
CONTINUOUS
 62
     7
 10
499.274773
 20
201.934673
 11
499.224160
 21
202.090910
  0
LINE
  8
CSLAYER4
  6
CONTINUOUS
 62
     7
 10
499.224160
 20
202.090910
 11
499.169922
 21
202.245455
  0
LINE
  8
CSLAYER4
  6
CONTINUOUS
 62
     7
 10
499.169922
 20
202.245455
 11
499.111771
 21
202.398530
  0
LINE
  8
CSLAYER4
  6
CONTINUOUS
 62
     7
 10
499.111771
 20
202.398530
 11
499.049601
 21
202.549986
  0
LINE
  8
CSLAYER4
  6
CONTINUOUS
 62
     7
 10
499.049601
 20
202.549986
 11
498.983251
 21
202.699640
  0
LINE
  8
CSLAYER4
  6
CONTINUOUS
 62
     7
 10
498.983251
 20
202.699640
 11
498.912637
 21
202.847276
  0
LINE
  8
CSLAYER4
  6
CONTINUOUS
 62
     7
 10
498.912637
 20
202.847276
 11
498.837592
 21
202.992728
  0
LINE
  8
CSLAYER4
  6
CONTINUOUS
 62
     7
 10
498.837592
 20
202.992728
 11
498.786691
 21
203.081181
  0
LINE
  8
CSLAYER4
  6
CONTINUOUS
 62
     7
 10
498.786691
 20
203.081181
 11
498.733483
 21
203.168699
  0
LINE
  8
CSLAYER4
  6
CONTINUOUS
 62
     7
 10
498.733483
 20
203.168699
 11
498.677907
 21
203.255010
  0
LINE
  8
CSLAYER4
  6
CONTINUOUS
 62
     7
 10
498.677907
 20
203.255010
 11
498.619899
 21
203.339828
  0
LINE
  8
CSLAYER4
  6
CONTINUOUS
 62
     7
 10
498.619899
 20
203.339828
 11
498.559398
 21
203.422884
  0
LINE
  8
CSLAYER4
  6
CONTINUOUS
 62
     7
 10
498.559398
 20
203.422884
 11
498.496365
 21
203.503902
  0
LINE
  8
CSLAYER4
  6
CONTINUOUS
 62
     7
 10
498.496365
 20
203.503902
 11
498.430714
 21
203.582612
  0
LINE
  8
CSLAYER4
  6
CONTINUOUS
 62
     7
 10
498.430714
 20
203.582612
 11
498.362448
 21
203.658737
  0
LINE
  8
CSLAYER4
  6
CONTINUOUS
 62
     7
 10
498.362448
 20
203.658737
 11
498.291462
 21
203.731998
  0
LINE
  8
CSLAYER4
  6
CONTINUOUS
 62
     7
 10
498.291462
 20
203.731998
 11
498.217738
 21
203.802108
  0
LINE
  8
CSLAYER4
  6
CONTINUOUS
 62
     7
 10
498.217738
 20
203.802108
 11
498.141375
 21
203.868654
  0
LINE
  8
CSLAYER4
  6
CONTINUOUS
 62
     7
 10
498.141375
 20
203.868654
 11
498.062398
 21
203.931401
  0
LINE
  8
CSLAYER4
  6
CONTINUOUS
 62
     7
 10
498.062398
 20
203.931401
 11
497.980720
 21
203.990118
  0
LINE
  8
CSLAYER4
  6
CONTINUOUS
 62
     7
 10
497.980720
 20
203.990118
 11
497.896305
 21
204.044604
  0
LINE
  8
CSLAYER4
  6
CONTINUOUS
 62
     7
 10
497.896305
 20
204.044604
 11
497.809066
 21
204.094629
  0
LINE
  8
CSLAYER4
  6
CONTINUOUS
 62
     7
 10
497.809066
 20
204.094629
 11
497.719006
 21
204.139989
  0
LINE
  8
CSLAYER4
  6
CONTINUOUS
 62
     7
 10
497.719006
 20
204.139989
 11
497.626062
 21
204.180446
  0
LINE
  8
CSLAYER4
  6
CONTINUOUS
 62
     7
 10
497.626062
 20
204.180446
 11
497.531490
 21
204.215363
  0
LINE
  8
CSLAYER4
  6
CONTINUOUS
 62
     7
 10
497.531490
 20
204.215363
 11
497.435743
 21
204.244634
  0
LINE
  8
CSLAYER4
  6
CONTINUOUS
 62
     7
 10
497.435743
 20
204.244634
 11
497.338885
 21
204.268365
  0
LINE
  8
CSLAYER4
  6
CONTINUOUS
 62
     7
 10
497.338885
 20
204.268365
 11
497.240956
 21
204.286646
  0
LINE
  8
CSLAYER4
  6
CONTINUOUS
 62
     7
 10
497.240956
 20
204.286646
 11
497.141977
 21
204.299573
  0
LINE
  8
CSLAYER4
  6
CONTINUOUS
 62
     7
 10
497.141977
 20
204.299573
 11
497.041966
 21
204.307256
  0
LINE
  8
CSLAYER4
  6
CONTINUOUS
 62
     7
 10
497.041966
 20
204.307256
 11
496.940989
 21
204.309801
  0
LINE
  8
CSLAYER4
  6
CONTINUOUS
 62
     7
 10
496.940989
 20
204.309801
 11
496.833439
 21
204.306144
  0
LINE
  8
CSLAYER4
  6
CONTINUOUS
 62
     7
 10
496.833439
 20
204.306144
 11
496.726858
 21
204.295154
  0
LINE
  8
CSLAYER4
  6
CONTINUOUS
 62
     7
 10
496.726858
 20
204.295154
 11
496.621225
 21
204.276749
  0
LINE
  8
CSLAYER4
  6
CONTINUOUS
 62
     7
 10
496.621225
 20
204.276749
 11
496.516621
 21
204.250875
  0
LINE
  8
CSLAYER4
  6
CONTINUOUS
 62
     7
 10
496.516621
 20
204.250875
 11
496.414242
 21
204.217926
  0
LINE
  8
CSLAYER4
  6
CONTINUOUS
 62
     7
 10
496.414242
 20
204.217926
 11
496.314459
 21
204.178274
  0
LINE
  8
CSLAYER4
  6
CONTINUOUS
 62
     7
 10
496.314459
 20
204.178274
 11
496.217271
 21
204.132234
  0
LINE
  8
CSLAYER4
  6
CONTINUOUS
 62
     7
 10
496.217271
 20
204.132234
 11
496.122700
 21
204.080127
  0
LINE
  8
CSLAYER4
  6
CONTINUOUS
 62
     7
 10
496.122700
 20
204.080127
 11
496.031157
 21
204.022584
  0
LINE
  8
CSLAYER4
  6
CONTINUOUS
 62
     7
 10
496.031157
 20
204.022584
 11
495.942702
 21
203.960106
  0
LINE
  8
CSLAYER4
  6
CONTINUOUS
 62
     7
 10
495.942702
 20
203.960106
 11
495.857338
 21
203.893148
  0
LINE
  8
CSLAYER4
  6
CONTINUOUS
 62
     7
 10
495.857338
 20
203.893148
 11
495.775003
 21
203.822151
  0
LINE
  8
CSLAYER4
  6
CONTINUOUS
 62
     7
 10
495.775003
 20
203.822151
 11
495.695695
 21
203.747592
  0
LINE
  8
CSLAYER4
  6
CONTINUOUS
 62
     7
 10
495.695695
 20
203.747592
 11
495.619354
 21
203.669912
  0
LINE
  8
CSLAYER4
  6
CONTINUOUS
 62
     7
 10
495.619354
 20
203.669912
 11
495.545958
 21
203.589575
  0
LINE
  8
CSLAYER4
  6
CONTINUOUS
 62
     7
 10
495.545958
 20
203.589575
 11
495.475488
 21
203.507033
  0
LINE
  8
CSLAYER4
  6
CONTINUOUS
 62
     7
 10
495.475488
 20
203.507033
 11
495.407716
 21
203.422461
  0
LINE
  8
CSLAYER4
  6
CONTINUOUS
 62
     7
 10
495.407716
 20
203.422461
 11
495.342066
 21
203.335584
  0
LINE
  8
CSLAYER4
  6
CONTINUOUS
 62
     7
 10
495.342066
 20
203.335584
 11
495.278517
 21
203.246667
  0
LINE
  8
CSLAYER4
  6
CONTINUOUS
 62
     7
 10
495.278517
 20
203.246667
 11
495.217069
 21
203.156010
  0
LINE
  8
CSLAYER4
  6
CONTINUOUS
 62
     7
 10
495.217069
 20
203.156010
 11
495.157681
 21
203.063910
  0
LINE
  8
CSLAYER4
  6
CONTINUOUS
 62
     7
 10
495.157681
 20
203.063910
 11
495.100332
 21
202.970678
  0
LINE
  8
CSLAYER4
  6
CONTINUOUS
 62
     7
 10
495.100332
 20
202.970678
 11
495.045024
 21
202.876610
  0
LINE
  8
CSLAYER4
  6
CONTINUOUS
 62
     7
 10
495.045024
 20
202.876610
 11
494.991733
 21
202.781997
  0
LINE
  8
CSLAYER4
  6
CONTINUOUS
 62
     7
 10
494.991733
 20
202.781997
 11
494.916607
 21
202.626141
  0
LINE
  8
CSLAYER4
  6
CONTINUOUS
 62
     7
 10
494.916607
 20
202.626141
 11
494.845807
 21
202.467960
  0
LINE
  8
CSLAYER4
  6
CONTINUOUS
 62
     7
 10
494.845807
 20
202.467960
 11
494.779209
 21
202.307645
  0
LINE
  8
CSLAYER4
  6
CONTINUOUS
 62
     7
 10
494.779209
 20
202.307645
 11
494.716711
 21
202.145364
  0
LINE
  8
CSLAYER4
  6
CONTINUOUS
 62
     7
 10
494.716711
 20
202.145364
 11
494.658168
 21
201.981290
  0
LINE
  8
CSLAYER4
  6
CONTINUOUS
 62
     7
 10
494.658168
 20
201.981290
 11
494.603496
 21
201.815588
  0
LINE
  8
CSLAYER4
  6
CONTINUOUS
 62
     7
 10
494.603496
 20
201.815588
 11
494.552575
 21
201.648455
  0
LINE
  8
CSLAYER4
  6
CONTINUOUS
 62
     7
 10
494.552575
 20
201.648455
 11
494.505298
 21
201.480045
  0
LINE
  8
CSLAYER4
  6
CONTINUOUS
 62
     7
 10
494.505298
 20
201.480045
 11
494.461525
 21
201.310533
  0
LINE
  8
CSLAYER4
  6
CONTINUOUS
 62
     7
 10
494.461525
 20
201.310533
 11
494.421171
 21
201.140114
  0
LINE
  8
CSLAYER4
  6
CONTINUOUS
 62
     7
 10
494.421171
 20
201.140114
 11
494.384092
 21
200.968944
  0
LINE
  8
CSLAYER4
  6
CONTINUOUS
 62
     7
 10
494.384092
 20
200.968944
 11
494.350186
 21
200.797197
  0
LINE
  8
CSLAYER4
  6
CONTINUOUS
 62
     7
 10
494.350186
 20
200.797197
 11
494.319349
 21
200.625059
  0
LINE
  8
CSLAYER4
  6
CONTINUOUS
 62
     7
 10
494.319349
 20
200.625059
 11
494.291436
 21
200.452694
  0
LINE
  8
CSLAYER4
  6
CONTINUOUS
 62
     7
 10
494.291436
 20
200.452694
 11
494.266366
 21
200.280287
  0
LINE
  8
CSLAYER4
  6
CONTINUOUS
 62
     7
 10
494.266366
 20
200.280287
 11
494.244018
 21
200.108004
  0
LINE
  8
CSLAYER4
  6
CONTINUOUS
 62
     7
 10
494.244018
 20
200.108004
 11
494.224282
 21
199.935989
  0
LINE
  8
CSLAYER4
  6
CONTINUOUS
 62
     7
 10
494.224282
 20
199.935989
 11
494.206938
 21
199.763726
  0
LINE
  8
CSLAYER4
  6
CONTINUOUS
 62
     7
 10
494.206938
 20
199.763726
 11
494.191921
 21
199.591031
  0
LINE
  8
CSLAYER4
  6
CONTINUOUS
 62
     7
 10
494.191921
 20
199.591031
 11
494.179150
 21
199.418049
  0
LINE
  8
CSLAYER4
  6
CONTINUOUS
 62
     7
 10
494.179150
 20
199.418049
 11
494.168520
 21
199.244870
  0
LINE
  8
CSLAYER4
  6
CONTINUOUS
 62
     7
 10
494.168520
 20
199.244870
 11
494.159971
 21
199.071629
  0
LINE
  8
CSLAYER4
  6
CONTINUOUS
 62
     7
 10
494.159971
 20
199.071629
 11
494.153421
 21
198.898440
  0
LINE
  8
CSLAYER4
  6
CONTINUOUS
 62
     7
 10
494.153421
 20
198.898440
 11
494.148807
 21
198.725415
  0
LINE
  8
CSLAYER4
  6
CONTINUOUS
 62
     7
 10
494.148807
 20
198.725415
 11
494.153380
 21
198.557150
  0
LINE
  8
CSLAYER4
  6
CONTINUOUS
 62
     7
 10
494.153380
 20
198.557150
 11
494.159889
 21
198.388152
  0
LINE
  8
CSLAYER4
  6
CONTINUOUS
 62
     7
 10
494.159889
 20
198.388152
 11
494.168437
 21
198.218538
  0
LINE
  8
CSLAYER4
  6
CONTINUOUS
 62
     7
 10
494.168437
 20
198.218538
 11
494.179108
 21
198.048479
  0
LINE
  8
CSLAYER4
  6
CONTINUOUS
 62
     7
 10
494.179108
 20
198.048479
 11
494.191983
 21
197.878122
  0
LINE
  8
CSLAYER4
  6
CONTINUOUS
 62
     7
 10
494.191983
 20
197.878122
 11
494.207185
 21
197.707601
  0
LINE
  8
CSLAYER4
  6
CONTINUOUS
 62
     7
 10
494.207185
 20
197.707601
 11
494.224818
 21
197.537079
  0
LINE
  8
CSLAYER4
  6
CONTINUOUS
 62
     7
 10
494.224818
 20
197.537079
 11
494.244945
 21
197.366712
  0
LINE
  8
CSLAYER4
  6
CONTINUOUS
 62
     7
 10
494.244945
 20
197.366712
 11
494.267685
 21
197.196633
  0
LINE
  8
CSLAYER4
  6
CONTINUOUS
 62
     7
 10
494.267685
 20
197.196633
 11
494.293126
 21
197.026998
  0
LINE
  8
CSLAYER4
  6
CONTINUOUS
 62
     7
 10
494.293126
 20
197.026998
 11
494.321388
 21
196.857959
  0
LINE
  8
CSLAYER4
  6
CONTINUOUS
 62
     7
 10
494.321388
 20
196.857959
 11
494.352535
 21
196.689653
  0
LINE
  8
CSLAYER4
  6
CONTINUOUS
 62
     7
 10
494.352535
 20
196.689653
 11
494.386687
 21
196.522251
  0
LINE
  8
CSLAYER4
  6
CONTINUOUS
 62
     7
 10
494.386687
 20
196.522251
 11
494.423932
 21
196.355880
  0
LINE
  8
CSLAYER4
  6
CONTINUOUS
 62
     7
 10
494.423932
 20
196.355880
 11
494.464348
 21
196.190715
  0
LINE
  8
CSLAYER4
  6
CONTINUOUS
 62
     7
 10
494.464348
 20
196.190715
 11
494.508079
 21
196.026878
  0
LINE
  8
CSLAYER4
  6
CONTINUOUS
 62
     7
 10
494.508079
 20
196.026878
 11
494.555170
 21
195.864534
  0
LINE
  8
CSLAYER4
  6
CONTINUOUS
 62
     7
 10
494.555170
 20
195.864534
 11
494.605762
 21
195.703829
  0
LINE
  8
CSLAYER4
  6
CONTINUOUS
 62
     7
 10
494.605762
 20
195.703829
 11
494.659959
 21
195.544781
  0
LINE
  8
CSLAYER4
  6
CONTINUOUS
 62
     7
 10
494.659959
 20
195.544781
 11
494.718030
 21
195.387155
  0
LINE
  8
CSLAYER4
  6
CONTINUOUS
 62
     7
 10
494.718030
 20
195.387155
 11
494.780136
 21
195.231093
  0
LINE
  8
CSLAYER4
  6
CONTINUOUS
 62
     7
 10
494.780136
 20
195.231093
 11
494.846362
 21
195.076784
  0
LINE
  8
CSLAYER4
  6
CONTINUOUS
 62
     7
 10
494.846362
 20
195.076784
 11
494.916853
 21
194.924421
  0
LINE
  8
CSLAYER4
  6
CONTINUOUS
 62
     7
 10
494.916853
 20
194.924421
 11
494.991733
 21
194.774189
  0
ENDBLK
  8
0
  0
BLOCK
  8
CSLAYER1
  2
BLKF0008
 70
   64
 10
0.0
 20
0.0
 30
0.0
  0
LINE
  8
CSLAYER4
  6
CONTINUOUS
 62
     7
 10
530.704471
 20
193.504815
 11
530.838450
 21
193.466315
  0
LINE
  8
CSLAYER4
  6
CONTINUOUS
 62
     7
 10
530.838450
 20
193.466315
 11
530.973252
 21
193.431852
  0
LINE
  8
CSLAYER4
  6
CONTINUOUS
 62
     7
 10
530.973252
 20
193.431852
 11
531.108837
 21
193.401591
  0
LINE
  8
CSLAYER4
  6
CONTINUOUS
 62
     7
 10
531.108837
 20
193.401591
 11
531.245173
 21
193.375698
  0
LINE
  8
CSLAYER4
  6
CONTINUOUS
 62
     7
 10
531.245173
 20
193.375698
 11
531.382212
 21
193.354358
  0
LINE
  8
CSLAYER4
  6
CONTINUOUS
 62
     7
 10
531.382212
 20
193.354358
 11
531.519897
 21
193.337714
  0
LINE
  8
CSLAYER4
  6
CONTINUOUS
 62
     7
 10
531.519897
 20
193.337714
 11
531.658201
 21
193.325951
  0
LINE
  8
CSLAYER4
  6
CONTINUOUS
 62
     7
 10
531.658201
 20
193.325951
 11
531.797071
 21
193.319226
  0
LINE
  8
CSLAYER4
  6
CONTINUOUS
 62
     7
 10
531.797071
 20
193.319226
 11
531.936478
 21
193.317701
  0
LINE
  8
CSLAYER4
  6
CONTINUOUS
 62
     7
 10
531.936478
 20
193.317701
 11
532.075699
 21
193.321523
  0
LINE
  8
CSLAYER4
  6
CONTINUOUS
 62
     7
 10
532.075699
 20
193.321523
 11
532.213993
 21
193.330710
  0
LINE
  8
CSLAYER4
  6
CONTINUOUS
 62
     7
 10
532.213993
 20
193.330710
 11
532.351369
 21
193.345263
  0
LINE
  8
CSLAYER4
  6
CONTINUOUS
 62
     7
 10
532.351369
 20
193.345263
 11
532.487820
 21
193.365203
  0
LINE
  8
CSLAYER4
  6
CONTINUOUS
 62
     7
 10
532.487820
 20
193.365203
 11
532.623364
 21
193.390520
  0
LINE
  8
CSLAYER4
  6
CONTINUOUS
 62
     7
 10
532.623364
 20
193.390520
 11
532.757980
 21
193.421223
  0
LINE
  8
CSLAYER4
  6
CONTINUOUS
 62
     7
 10
532.757980
 20
193.421223
 11
532.891650
 21
193.457313
  0
LINE
  8
CSLAYER4
  6
CONTINUOUS
 62
     7
 10
532.891650
 20
193.457313
 11
533.024413
 21
193.498800
  0
LINE
  8
CSLAYER4
  6
CONTINUOUS
 62
     7
 10
533.024413
 20
193.498800
 11
533.156146
 21
193.545644
  0
LINE
  8
CSLAYER4
  6
CONTINUOUS
 62
     7
 10
533.156146
 20
193.545644
 11
533.285922
 21
193.597440
  0
LINE
  8
CSLAYER4
  6
CONTINUOUS
 62
     7
 10
533.285922
 20
193.597440
 11
533.413515
 21
193.653975
  0
LINE
  8
CSLAYER4
  6
CONTINUOUS
 62
     7
 10
533.413515
 20
193.653975
 11
533.538964
 21
193.715073
  0
LINE
  8
CSLAYER4
  6
CONTINUOUS
 62
     7
 10
533.538964
 20
193.715073
 11
533.662251
 21
193.780580
  0
LINE
  8
CSLAYER4
  6
CONTINUOUS
 62
     7
 10
533.662251
 20
193.780580
 11
533.783439
 21
193.850360
  0
LINE
  8
CSLAYER4
  6
CONTINUOUS
 62
     7
 10
533.783439
 20
193.850360
 11
533.902522
 21
193.924239
  0
LINE
  8
CSLAYER4
  6
CONTINUOUS
 62
     7
 10
533.902522
 20
193.924239
 11
533.953588
 21
193.957724
  0
LINE
  8
CSLAYER4
  6
CONTINUOUS
 62
     7
 10
533.953588
 20
193.957724
 11
534.003624
 21
193.992536
  0
LINE
  8
CSLAYER4
  6
CONTINUOUS
 62
     7
 10
534.003624
 20
193.992536
 11
534.052630
 21
194.028657
  0
LINE
  8
CSLAYER4
  6
CONTINUOUS
 62
     7
 10
534.052630
 20
194.028657
 11
534.100627
 21
194.066066
  0
LINE
  8
CSLAYER4
  6
CONTINUOUS
 62
     7
 10
534.100627
 20
194.066066
 11
534.147615
 21
194.104742
  0
LINE
  8
CSLAYER4
  6
CONTINUOUS
 62
     7
 10
534.147615
 20
194.104742
 11
534.193633
 21
194.144673
  0
LINE
  8
CSLAYER4
  6
CONTINUOUS
 62
     7
 10
534.193633
 20
194.144673
 11
534.238642
 21
194.185830
  0
LINE
  8
CSLAYER4
  6
CONTINUOUS
 62
     7
 10
534.238642
 20
194.185830
 11
534.282684
 21
194.228214
  0
LINE
  8
CSLAYER4
  6
CONTINUOUS
 62
     7
 10
534.282684
 20
194.228214
 11
534.325716
 21
194.271761
  0
LINE
  8
CSLAYER4
  6
CONTINUOUS
 62
     7
 10
534.325716
 20
194.271761
 11
534.367656
 21
194.316317
  0
LINE
  8
CSLAYER4
  6
CONTINUOUS
 62
     7
 10
534.367656
 20
194.316317
 11
534.408484
 21
194.361852
  0
LINE
  8
CSLAYER4
  6
CONTINUOUS
 62
     7
 10
534.408484
 20
194.361852
 11
534.448242
 21
194.408313
  0
LINE
  8
CSLAYER4
  6
CONTINUOUS
 62
     7
 10
534.448242
 20
194.408313
 11
534.486927
 21
194.455682
  0
LINE
  8
CSLAYER4
  6
CONTINUOUS
 62
     7
 10
534.486927
 20
194.455682
 11
534.524562
 21
194.503916
  0
LINE
  8
CSLAYER4
  6
CONTINUOUS
 62
     7
 10
534.524562
 20
194.503916
 11
534.561166
 21
194.552984
  0
LINE
  8
CSLAYER4
  6
CONTINUOUS
 62
     7
 10
534.561166
 20
194.552984
 11
534.596742
 21
194.602844
  0
LINE
  8
CSLAYER4
  6
CONTINUOUS
 62
     7
 10
534.596742
 20
194.602844
 11
534.631308
 21
194.653467
  0
LINE
  8
CSLAYER4
  6
CONTINUOUS
 62
     7
 10
534.631308
 20
194.653467
 11
534.664905
 21
194.704800
  0
LINE
  8
CSLAYER4
  6
CONTINUOUS
 62
     7
 10
534.664905
 20
194.704800
 11
534.697494
 21
194.756783
  0
LINE
  8
CSLAYER4
  6
CONTINUOUS
 62
     7
 10
534.697494
 20
194.756783
 11
534.729114
 21
194.809394
  0
LINE
  8
CSLAYER4
  6
CONTINUOUS
 62
     7
 10
534.729114
 20
194.809394
 11
534.759786
 21
194.862570
  0
LINE
  8
CSLAYER4
  6
CONTINUOUS
 62
     7
 10
534.759786
 20
194.862570
 11
534.789510
 21
194.916294
  0
LINE
  8
CSLAYER4
  6
CONTINUOUS
 62
     7
 10
534.789510
 20
194.916294
 11
534.818308
 21
194.970522
  0
LINE
  8
CSLAYER4
  6
CONTINUOUS
 62
     7
 10
534.818308
 20
194.970522
 11
534.846222
 21
195.025203
  0
LINE
  8
CSLAYER4
  6
CONTINUOUS
 62
     7
 10
534.846222
 20
195.025203
 11
534.875431
 21
195.085787
  0
LINE
  8
CSLAYER4
  6
CONTINUOUS
 62
     7
 10
534.875431
 20
195.085787
 11
534.902952
 21
195.147141
  0
LINE
  8
CSLAYER4
  6
CONTINUOUS
 62
     7
 10
534.902952
 20
195.147141
 11
534.928803
 21
195.209228
  0
LINE
  8
CSLAYER4
  6
CONTINUOUS
 62
     7
 10
534.928803
 20
195.209228
 11
534.953029
 21
195.271994
  0
LINE
  8
CSLAYER4
  6
CONTINUOUS
 62
     7
 10
534.953029
 20
195.271994
 11
534.975688
 21
195.335399
  0
LINE
  8
CSLAYER4
  6
CONTINUOUS
 62
     7
 10
534.975688
 20
195.335399
 11
534.996802
 21
195.399369
  0
LINE
  8
CSLAYER4
  6
CONTINUOUS
 62
     7
 10
534.996802
 20
195.399369
 11
535.016434
 21
195.463877
  0
LINE
  8
CSLAYER4
  6
CONTINUOUS
 62
     7
 10
535.016434
 20
195.463877
 11
535.034602
 21
195.528857
  0
LINE
  8
CSLAYER4
  6
CONTINUOUS
 62
     7
 10
535.034602
 20
195.528857
 11
535.051350
 21
195.594260
  0
LINE
  8
CSLAYER4
  6
CONTINUOUS
 62
     7
 10
535.051350
 20
195.594260
 11
535.066717
 21
195.660045
  0
LINE
  8
CSLAYER4
  6
CONTINUOUS
 62
     7
 10
535.066717
 20
195.660045
 11
535.080765
 21
195.726159
  0
LINE
  8
CSLAYER4
  6
CONTINUOUS
 62
     7
 10
535.080765
 20
195.726159
 11
535.093516
 21
195.792540
  0
LINE
  8
CSLAYER4
  6
CONTINUOUS
 62
     7
 10
535.093516
 20
195.792540
 11
535.105011
 21
195.859137
  0
LINE
  8
CSLAYER4
  6
CONTINUOUS
 62
     7
 10
535.105011
 20
195.859137
 11
535.115310
 21
195.925920
  0
LINE
  8
CSLAYER4
  6
CONTINUOUS
 62
     7
 10
535.115310
 20
195.925920
 11
535.124436
 21
195.992817
  0
LINE
  8
CSLAYER4
  6
CONTINUOUS
 62
     7
 10
535.124436
 20
195.992817
 11
535.132428
 21
196.059786
  0
LINE
  8
CSLAYER4
  6
CONTINUOUS
 62
     7
 10
535.132428
 20
196.059786
 11
535.139349
 21
196.126775
  0
LINE
  8
CSLAYER4
  6
CONTINUOUS
 62
     7
 10
535.139349
 20
196.126775
 11
535.145221
 21
196.193867
  0
LINE
  8
CSLAYER4
  6
CONTINUOUS
 62
     7
 10
535.145221
 20
196.193867
 11
535.150102
 21
196.261103
  0
LINE
  8
CSLAYER4
  6
CONTINUOUS
 62
     7
 10
535.150102
 20
196.261103
 11
535.154037
 21
196.328442
  0
LINE
  8
CSLAYER4
  6
CONTINUOUS
 62
     7
 10
535.154037
 20
196.328442
 11
535.157025
 21
196.395854
  0
LINE
  8
CSLAYER4
  6
CONTINUOUS
 62
     7
 10
535.157025
 20
196.395854
 11
535.159125
 21
196.463276
  0
LINE
  8
CSLAYER4
  6
CONTINUOUS
 62
     7
 10
535.159125
 20
196.463276
 11
535.160382
 21
196.530677
  0
LINE
  8
CSLAYER4
  6
CONTINUOUS
 62
     7
 10
535.160382
 20
196.530677
 11
535.160773
 21
196.598027
  0
LINE
  8
CSLAYER4
  6
CONTINUOUS
 62
     7
 10
535.160773
 20
196.598027
 11
535.159867
 21
196.682205
  0
LINE
  8
CSLAYER4
  6
CONTINUOUS
 62
     7
 10
535.159867
 20
196.682205
 11
535.157044
 21
196.766385
  0
LINE
  8
CSLAYER4
  6
CONTINUOUS
 62
     7
 10
535.157044
 20
196.766385
 11
535.152225
 21
196.850481
  0
LINE
  8
CSLAYER4
  6
CONTINUOUS
 62
     7
 10
535.152225
 20
196.850481
 11
535.145344
 21
196.934414
  0
LINE
  8
CSLAYER4
  6
CONTINUOUS
 62
     7
 10
535.145344
 20
196.934414
 11
535.136322
 21
197.018120
  0
LINE
  8
CSLAYER4
  6
CONTINUOUS
 62
     7
 10
535.136322
 20
197.018120
 11
535.125033
 21
197.101526
  0
LINE
  8
CSLAYER4
  6
CONTINUOUS
 62
     7
 10
535.125033
 20
197.101526
 11
535.111438
 21
197.184552
  0
LINE
  8
CSLAYER4
  6
CONTINUOUS
 62
     7
 10
535.111438
 20
197.184552
 11
535.095411
 21
197.267135
  0
LINE
  8
CSLAYER4
  6
CONTINUOUS
 62
     7
 10
535.095411
 20
197.267135
 11
535.076892
 21
197.349192
  0
LINE
  8
CSLAYER4
  6
CONTINUOUS
 62
     7
 10
535.076892
 20
197.349192
 11
535.055820
 21
197.430591
  0
LINE
  8
CSLAYER4
  6
CONTINUOUS
 62
     7
 10
535.055820
 20
197.430591
 11
535.032192
 21
197.510990
  0
LINE
  8
CSLAYER4
  6
CONTINUOUS
 62
     7
 10
535.032192
 20
197.510990
 11
535.005949
 21
197.590308
  0
LINE
  8
CSLAYER4
  6
CONTINUOUS
 62
     7
 10
535.005949
 20
197.590308
 11
534.977047
 21
197.668514
  0
LINE
  8
CSLAYER4
  6
CONTINUOUS
 62
     7
 10
534.977047
 20
197.668514
 11
534.945448
 21
197.745566
  0
LINE
  8
CSLAYER4
  6
CONTINUOUS
 62
     7
 10
534.945448
 20
197.745566
 11
534.911088
 21
197.821413
  0
LINE
  8
CSLAYER4
  6
CONTINUOUS
 62
     7
 10
534.911088
 20
197.821413
 11
534.873906
 21
197.896023
  0
LINE
  8
CSLAYER4
  6
CONTINUOUS
 62
     7
 10
534.873906
 20
197.896023
 11
534.833841
 21
197.969357
  0
LINE
  8
CSLAYER4
  6
CONTINUOUS
 62
     7
 10
534.833841
 20
197.969357
 11
534.790870
 21
198.041373
  0
LINE
  8
CSLAYER4
  6
CONTINUOUS
 62
     7
 10
534.790870
 20
198.041373
 11
534.745180
 21
198.111657
  0
LINE
  8
CSLAYER4
  6
CONTINUOUS
 62
     7
 10
534.745180
 20
198.111657
 11
534.696937
 21
198.179913
  0
LINE
  8
CSLAYER4
  6
CONTINUOUS
 62
     7
 10
534.696937
 20
198.179913
 11
534.646221
 21
198.246161
  0
LINE
  8
CSLAYER4
  6
CONTINUOUS
 62
     7
 10
534.646221
 20
198.246161
 11
534.593013
 21
198.310410
  0
LINE
  8
CSLAYER4
  6
CONTINUOUS
 62
     7
 10
534.593013
 20
198.310410
 11
534.537333
 21
198.372672
  0
LINE
  8
CSLAYER4
  6
CONTINUOUS
 62
     7
 10
534.537333
 20
198.372672
 11
534.479223
 21
198.432977
  0
LINE
  8
CSLAYER4
  6
CONTINUOUS
 62
     7
 10
534.479223
 20
198.432977
 11
534.438744
 21
198.472887
  0
LINE
  8
CSLAYER4
  6
CONTINUOUS
 62
     7
 10
534.438744
 20
198.472887
 11
534.397752
 21
198.512160
  0
LINE
  8
CSLAYER4
  6
CONTINUOUS
 62
     7
 10
534.397752
 20
198.512160
 11
534.356265
 21
198.550805
  0
LINE
  8
CSLAYER4
  6
CONTINUOUS
 62
     7
 10
534.356265
 20
198.550805
 11
534.314304
 21
198.588812
  0
LINE
  8
CSLAYER4
  6
CONTINUOUS
 62
     7
 10
534.314304
 20
198.588812
 11
534.271848
 21
198.626189
  0
LINE
  8
CSLAYER4
  6
CONTINUOUS
 62
     7
 10
534.271848
 20
198.626189
 11
534.228900
 21
198.662937
  0
LINE
  8
CSLAYER4
  6
CONTINUOUS
 62
     7
 10
534.228900
 20
198.662937
 11
534.185455
 21
198.699059
  0
LINE
  8
CSLAYER4
  6
CONTINUOUS
 62
     7
 10
534.185455
 20
198.699059
 11
534.141558
 21
198.734562
  0
LINE
  8
CSLAYER4
  6
CONTINUOUS
 62
     7
 10
534.141558
 20
198.734562
 11
534.097167
 21
198.769446
  0
LINE
  8
CSLAYER4
  6
CONTINUOUS
 62
     7
 10
534.097167
 20
198.769446
 11
534.052300
 21
198.803714
  0
LINE
  8
CSLAYER4
  6
CONTINUOUS
 62
     7
 10
534.052300
 20
198.803714
 11
534.006961
 21
198.837362
  0
LINE
  8
CSLAYER4
  6
CONTINUOUS
 62
     7
 10
534.006961
 20
198.837362
 11
533.961169
 21
198.870404
  0
LINE
  8
CSLAYER4
  6
CONTINUOUS
 62
     7
 10
533.961169
 20
198.870404
 11
533.914903
 21
198.902849
  0
LINE
  8
CSLAYER4
  6
CONTINUOUS
 62
     7
 10
533.914903
 20
198.902849
 11
533.868184
 21
198.934674
  0
LINE
  8
CSLAYER4
  6
CONTINUOUS
 62
     7
 10
533.868184
 20
198.934674
 11
533.820991
 21
198.965913
  0
LINE
  8
CSLAYER4
  6
CONTINUOUS
 62
     7
 10
533.820991
 20
198.965913
 11
533.773365
 21
198.996545
  0
LINE
  8
CSLAYER4
  6
CONTINUOUS
 62
     7
 10
533.773365
 20
198.996545
 11
533.725264
 21
199.026578
  0
LINE
  8
CSLAYER4
  6
CONTINUOUS
 62
     7
 10
533.725264
 20
199.026578
 11
533.676733
 21
199.056015
  0
LINE
  8
CSLAYER4
  6
CONTINUOUS
 62
     7
 10
533.676733
 20
199.056015
 11
533.627830
 21
199.084812
  0
LINE
  8
CSLAYER4
  6
CONTINUOUS
 62
     7
 10
533.627830
 20
199.084812
 11
533.578597
 21
199.112982
  0
LINE
  8
CSLAYER4
  6
CONTINUOUS
 62
     7
 10
533.578597
 20
199.112982
 11
533.529015
 21
199.140513
  0
LINE
  8
CSLAYER4
  6
CONTINUOUS
 62
     7
 10
533.529015
 20
199.140513
 11
533.479083
 21
199.167426
  0
LINE
  8
CSLAYER4
  6
CONTINUOUS
 62
     7
 10
533.479083
 20
199.167426
 11
533.428840
 21
199.193711
  0
LINE
  8
CSLAYER4
  6
CONTINUOUS
 62
     7
 10
533.428840
 20
199.193711
 11
533.378248
 21
199.219379
  0
LINE
  8
CSLAYER4
  6
CONTINUOUS
 62
     7
 10
531.595729
 20
200.005790
 11
533.378254
 21
199.219383
  0
LINE
  8
CSLAYER4
  6
CONTINUOUS
 62
     7
 10
531.595734
 20
200.005790
 11
531.557451
 21
200.021363
  0
LINE
  8
CSLAYER4
  6
CONTINUOUS
 62
     7
 10
531.557451
 20
200.021363
 11
531.519279
 21
200.037410
  0
LINE
  8
CSLAYER4
  6
CONTINUOUS
 62
     7
 10
531.519279
 20
200.037410
 11
531.481243
 21
200.053941
  0
LINE
  8
CSLAYER4
  6
CONTINUOUS
 62
     7
 10
531.481243
 20
200.053941
 11
531.443359
 21
200.070977
  0
LINE
  8
CSLAYER4
  6
CONTINUOUS
 62
     7
 10
531.443359
 20
200.070977
 11
531.405673
 21
200.088506
  0
LINE
  8
CSLAYER4
  6
CONTINUOUS
 62
     7
 10
531.405673
 20
200.088506
 11
531.368193
 21
200.106563
  0
LINE
  8
CSLAYER4
  6
CONTINUOUS
 62
     7
 10
531.368193
 20
200.106563
 11
531.330939
 21
200.125143
  0
LINE
  8
CSLAYER4
  6
CONTINUOUS
 62
     7
 10
531.330939
 20
200.125143
 11
531.293953
 21
200.144247
  0
LINE
  8
CSLAYER4
  6
CONTINUOUS
 62
     7
 10
531.293953
 20
200.144247
 11
531.257245
 21
200.163900
  0
LINE
  8
CSLAYER4
  6
CONTINUOUS
 62
     7
 10
531.257245
 20
200.163900
 11
531.220846
 21
200.184098
  0
LINE
  8
CSLAYER4
  6
CONTINUOUS
 62
     7
 10
531.220846
 20
200.184098
 11
531.184776
 21
200.204862
  0
LINE
  8
CSLAYER4
  6
CONTINUOUS
 62
     7
 10
531.184776
 20
200.204862
 11
531.149067
 21
200.226192
  0
LINE
  8
CSLAYER4
  6
CONTINUOUS
 62
     7
 10
531.149067
 20
200.226192
 11
531.113739
 21
200.248089
  0
LINE
  8
CSLAYER4
  6
CONTINUOUS
 62
     7
 10
531.113739
 20
200.248089
 11
531.078813
 21
200.270585
  0
LINE
  8
CSLAYER4
  6
CONTINUOUS
 62
     7
 10
531.078813
 20
200.270585
 11
531.044308
 21
200.293676
  0
LINE
  8
CSLAYER4
  6
CONTINUOUS
 62
     7
 10
531.044308
 20
200.293676
 11
531.010269
 21
200.317376
  0
LINE
  8
CSLAYER4
  6
CONTINUOUS
 62
     7
 10
531.010269
 20
200.317376
 11
530.976702
 21
200.341683
  0
LINE
  8
CSLAYER4
  6
CONTINUOUS
 62
     7
 10
530.976702
 20
200.341683
 11
530.943651
 21
200.366609
  0
LINE
  8
CSLAYER4
  6
CONTINUOUS
 62
     7
 10
530.943651
 20
200.366609
 11
530.911104
 21
200.392172
  0
LINE
  8
CSLAYER4
  6
CONTINUOUS
 62
     7
 10
530.911104
 20
200.392172
 11
530.879103
 21
200.418405
  0
LINE
  8
CSLAYER4
  6
CONTINUOUS
 62
     7
 10
530.879103
 20
200.418405
 11
530.847648
 21
200.445287
  0
LINE
  8
CSLAYER4
  6
CONTINUOUS
 62
     7
 10
530.847648
 20
200.445287
 11
530.816779
 21
200.472860
  0
LINE
  8
CSLAYER4
  6
CONTINUOUS
 62
     7
 10
530.816779
 20
200.472860
 11
530.786518
 21
200.501111
  0
LINE
  8
CSLAYER4
  6
CONTINUOUS
 62
     7
 10
530.786518
 20
200.501111
 11
530.756896
 21
200.530064
  0
LINE
  8
CSLAYER4
  6
CONTINUOUS
 62
     7
 10
530.756896
 20
200.530064
 11
530.733012
 21
200.554566
  0
LINE
  8
CSLAYER4
  6
CONTINUOUS
 62
     7
 10
530.733012
 20
200.554566
 11
530.709828
 21
200.579678
  0
LINE
  8
CSLAYER4
  6
CONTINUOUS
 62
     7
 10
530.709828
 20
200.579678
 11
530.687353
 21
200.605385
  0
LINE
  8
CSLAYER4
  6
CONTINUOUS
 62
     7
 10
530.687353
 20
200.605385
 11
530.665641
 21
200.631711
  0
LINE
  8
CSLAYER4
  6
CONTINUOUS
 62
     7
 10
530.665641
 20
200.631711
 11
530.644713
 21
200.658666
  0
LINE
  8
CSLAYER4
  6
CONTINUOUS
 62
     7
 10
530.644713
 20
200.658666
 11
530.624619
 21
200.686248
  0
LINE
  8
CSLAYER4
  6
CONTINUOUS
 62
     7
 10
530.624619
 20
200.686248
 11
530.605378
 21
200.714480
  0
LINE
  8
CSLAYER4
  6
CONTINUOUS
 62
     7
 10
530.605378
 20
200.714480
 11
530.587035
 21
200.743350
  0
LINE
  8
CSLAYER4
  6
CONTINUOUS
 62
     7
 10
530.587035
 20
200.743350
 11
530.569608
 21
200.772890
  0
LINE
  8
CSLAYER4
  6
CONTINUOUS
 62
     7
 10
530.569608
 20
200.772890
 11
530.553210
 21
200.802984
  0
LINE
  8
CSLAYER4
  6
CONTINUOUS
 62
     7
 10
530.553210
 20
200.802984
 11
530.537914
 21
200.833514
  0
LINE
  8
CSLAYER4
  6
CONTINUOUS
 62
     7
 10
530.537914
 20
200.833514
 11
530.523721
 21
200.864474
  0
LINE
  8
CSLAYER4
  6
CONTINUOUS
 62
     7
 10
530.523721
 20
200.864474
 11
530.510662
 21
200.895867
  0
LINE
  8
CSLAYER4
  6
CONTINUOUS
 62
     7
 10
530.510662
 20
200.895867
 11
530.498715
 21
200.927693
  0
LINE
  8
CSLAYER4
  6
CONTINUOUS
 62
     7
 10
530.498715
 20
200.927693
 11
530.487900
 21
200.959962
  0
LINE
  8
CSLAYER4
  6
CONTINUOUS
 62
     7
 10
530.487900
 20
200.959962
 11
530.478217
 21
200.992664
  0
LINE
  8
CSLAYER4
  6
CONTINUOUS
 62
     7
 10
530.478217
 20
200.992664
 11
530.469679
 21
201.025797
  0
LINE
  8
CSLAYER4
  6
CONTINUOUS
 62
     7
 10
530.469679
 20
201.025797
 11
530.462295
 21
201.059375
  0
LINE
  8
CSLAYER4
  6
CONTINUOUS
 62
     7
 10
530.462295
 20
201.059375
 11
530.456094
 21
201.093168
  0
LINE
  8
CSLAYER4
  6
CONTINUOUS
 62
     7
 10
530.456094
 20
201.093168
 11
530.451078
 21
201.127106
  0
LINE
  8
CSLAYER4
  6
CONTINUOUS
 62
     7
 10
530.451078
 20
201.127106
 11
530.447217
 21
201.161166
  0
LINE
  8
CSLAYER4
  6
CONTINUOUS
 62
     7
 10
530.447217
 20
201.161166
 11
530.444487
 21
201.195351
  0
LINE
  8
CSLAYER4
  6
CONTINUOUS
 62
     7
 10
530.444487
 20
201.195351
 11
530.442870
 21
201.229650
  0
LINE
  8
CSLAYER4
  6
CONTINUOUS
 62
     7
 10
530.442870
 20
201.229650
 11
530.442334
 21
201.264041
  0
LINE
  8
CSLAYER4
  6
CONTINUOUS
 62
     7
 10
530.442334
 20
201.264041
 11
530.442963
 21
201.321492
  0
LINE
  8
CSLAYER4
  6
CONTINUOUS
 62
     7
 10
530.442963
 20
201.321492
 11
530.444899
 21
201.379088
  0
LINE
  8
CSLAYER4
  6
CONTINUOUS
 62
     7
 10
530.444899
 20
201.379088
 11
530.448237
 21
201.436724
  0
LINE
  8
CSLAYER4
  6
CONTINUOUS
 62
     7
 10
530.448237
 20
201.436724
 11
530.453056
 21
201.494310
  0
LINE
  8
CSLAYER4
  6
CONTINUOUS
 62
     7
 10
530.453056
 20
201.494310
 11
530.459452
 21
201.551751
  0
LINE
  8
CSLAYER4
  6
CONTINUOUS
 62
     7
 10
530.459452
 20
201.551751
 11
530.467497
 21
201.608934
  0
LINE
  8
CSLAYER4
  6
CONTINUOUS
 62
     7
 10
530.467497
 20
201.608934
 11
530.477290
 21
201.665790
  0
LINE
  8
CSLAYER4
  6
CONTINUOUS
 62
     7
 10
530.477290
 20
201.665790
 11
530.488920
 21
201.722211
  0
LINE
  8
CSLAYER4
  6
CONTINUOUS
 62
     7
 10
530.488920
 20
201.722211
 11
530.502463
 21
201.778088
  0
LINE
  8
CSLAYER4
  6
CONTINUOUS
 62
     7
 10
530.502463
 20
201.778088
 11
530.518006
 21
201.833334
  0
LINE
  8
CSLAYER4
  6
CONTINUOUS
 62
     7
 10
530.518006
 20
201.833334
 11
530.535628
 21
201.887789
  0
LINE
  8
CSLAYER4
  6
CONTINUOUS
 62
     7
 10
530.535628
 20
201.887789
 11
530.555332
 21
201.941223
  0
LINE
  8
CSLAYER4
  6
CONTINUOUS
 62
     7
 10
530.555332
 20
201.941223
 11
530.577198
 21
201.993567
  0
LINE
  8
CSLAYER4
  6
CONTINUOUS
 62
     7
 10
530.577198
 20
201.993567
 11
530.601289
 21
202.044756
  0
LINE
  8
CSLAYER4
  6
CONTINUOUS
 62
     7
 10
530.601289
 20
202.044756
 11
530.627667
 21
202.094730
  0
LINE
  8
CSLAYER4
  6
CONTINUOUS
 62
     7
 10
530.627667
 20
202.094730
 11
530.656402
 21
202.143396
  0
LINE
  8
CSLAYER4
  6
CONTINUOUS
 62
     7
 10
530.656402
 20
202.143396
 11
530.687548
 21
202.190723
  0
LINE
  8
CSLAYER4
  6
CONTINUOUS
 62
     7
 10
530.687548
 20
202.190723
 11
530.721187
 21
202.236618
  0
LINE
  8
CSLAYER4
  6
CONTINUOUS
 62
     7
 10
530.721187
 20
202.236618
 11
530.757175
 21
202.280774
  0
LINE
  8
CSLAYER4
  6
CONTINUOUS
 62
     7
 10
530.757175
 20
202.280774
 11
530.795160
 21
202.322796
  0
LINE
  8
CSLAYER4
  6
CONTINUOUS
 62
     7
 10
530.795160
 20
202.322796
 11
530.835133
 21
202.362687
  0
LINE
  8
CSLAYER4
  6
CONTINUOUS
 62
     7
 10
530.835133
 20
202.362687
 11
530.877052
 21
202.400475
  0
LINE
  8
CSLAYER4
  6
CONTINUOUS
 62
     7
 10
530.877052
 20
202.400475
 11
530.920888
 21
202.436195
  0
LINE
  8
CSLAYER4
  6
CONTINUOUS
 62
     7
 10
530.920888
 20
202.436195
 11
530.966608
 21
202.469865
  0
LINE
  8
CSLAYER4
  6
CONTINUOUS
 62
     7
 10
530.966608
 20
202.469865
 11
531.008713
 21
202.498302
  0
LINE
  8
CSLAYER4
  6
CONTINUOUS
 62
     7
 10
531.008713
 20
202.498302
 11
531.051622
 21
202.525175
  0
LINE
  8
CSLAYER4
  6
CONTINUOUS
 62
     7
 10
531.051622
 20
202.525175
 11
531.095334
 21
202.550409
  0
LINE
  8
CSLAYER4
  6
CONTINUOUS
 62
     7
 10
531.095334
 20
202.550409
 11
531.139849
 21
202.573953
  0
LINE
  8
CSLAYER4
  6
CONTINUOUS
 62
     7
 10
531.139849
 20
202.573953
 11
531.185199
 21
202.595748
  0
LINE
  8
CSLAYER4
  6
CONTINUOUS
 62
     7
 10
531.185199
 20
202.595748
 11
531.231372
 21
202.615719
  0
LINE
  8
CSLAYER4
  6
CONTINUOUS
 62
     7
 10
531.231372
 20
202.615719
 11
531.278380
 21
202.633815
  0
LINE
  8
CSLAYER4
  6
CONTINUOUS
 62
     7
 10
531.278380
 20
202.633815
 11
531.326223
 21
202.649966
  0
LINE
  8
CSLAYER4
  6
CONTINUOUS
 62
     7
 10
531.326223
 20
202.649966
 11
531.374908
 21
202.664106
  0
LINE
  8
CSLAYER4
  6
CONTINUOUS
 62
     7
 10
531.374908
 20
202.664106
 11
531.424027
 21
202.676085
  0
LINE
  8
CSLAYER4
  6
CONTINUOUS
 62
     7
 10
531.424027
 20
202.676085
 11
531.473343
 21
202.685859
  0
LINE
  8
CSLAYER4
  6
CONTINUOUS
 62
     7
 10
531.473343
 20
202.685859
 11
531.522853
 21
202.693451
  0
LINE
  8
CSLAYER4
  6
CONTINUOUS
 62
     7
 10
531.522853
 20
202.693451
 11
531.572550
 21
202.698888
  0
LINE
  8
CSLAYER4
  6
CONTINUOUS
 62
     7
 10
531.572550
 20
202.698888
 11
531.622441
 21
202.702196
  0
LINE
  8
CSLAYER4
  6
CONTINUOUS
 62
     7
 10
531.622441
 20
202.702196
 11
531.672507
 21
202.703400
  0
LINE
  8
CSLAYER4
  6
CONTINUOUS
 62
     7
 10
531.672507
 20
202.703400
 11
531.722760
 21
202.702524
  0
LINE
  8
CSLAYER4
  6
CONTINUOUS
 62
     7
 10
531.722760
 20
202.702524
 11
531.773176
 21
202.699589
  0
LINE
  8
CSLAYER4
  6
CONTINUOUS
 62
     7
 10
531.773176
 20
202.699589
 11
531.823675
 21
202.694636
  0
LINE
  8
CSLAYER4
  6
CONTINUOUS
 62
     7
 10
531.823675
 20
202.694636
 11
531.873928
 21
202.687755
  0
LINE
  8
CSLAYER4
  6
CONTINUOUS
 62
     7
 10
531.873928
 20
202.687755
 11
531.923860
 21
202.679010
  0
LINE
  8
CSLAYER4
  6
CONTINUOUS
 62
     7
 10
531.923860
 20
202.679010
 11
531.973453
 21
202.668504
  0
LINE
  8
CSLAYER4
  6
CONTINUOUS
 62
     7
 10
531.973453
 20
202.668504
 11
532.022686
 21
202.656300
  0
LINE
  8
CSLAYER4
  6
CONTINUOUS
 62
     7
 10
532.022686
 20
202.656300
 11
532.071549
 21
202.642488
  0
LINE
  8
CSLAYER4
  6
CONTINUOUS
 62
     7
 10
532.071549
 20
202.642488
 11
532.119997
 21
202.627152
  0
LINE
  8
CSLAYER4
  6
CONTINUOUS
 62
     7
 10
532.119997
 20
202.627152
 11
532.207369
 21
202.596870
  0
LINE
  8
CSLAYER4
  6
CONTINUOUS
 62
     7
 10
532.207369
 20
202.596870
 11
532.292610
 21
202.561758
  0
LINE
  8
CSLAYER4
  6
CONTINUOUS
 62
     7
 10
532.292610
 20
202.561758
 11
532.375596
 21
202.521642
  0
LINE
  8
CSLAYER4
  6
CONTINUOUS
 62
     7
 10
532.375596
 20
202.521642
 11
532.456221
 21
202.476375
  0
LINE
  8
CSLAYER4
  6
CONTINUOUS
 62
     7
 10
532.456221
 20
202.476375
 11
532.534024
 21
202.426008
  0
LINE
  8
CSLAYER4
  6
CONTINUOUS
 62
     7
 10
532.534024
 20
202.426008
 11
532.608202
 21
202.371039
  0
LINE
  8
CSLAYER4
  6
CONTINUOUS
 62
     7
 10
532.608202
 20
202.371039
 11
532.678693
 21
202.311558
  0
LINE
  8
CSLAYER4
  6
CONTINUOUS
 62
     7
 10
532.678693
 20
202.311558
 11
532.745580
 21
202.247628
  0
LINE
  8
CSLAYER4
  6
CONTINUOUS
 62
     7
 10
532.745580
 20
202.247628
 11
532.808758
 21
202.179414
  0
LINE
  8
CSLAYER4
  6
CONTINUOUS
 62
     7
 10
532.808758
 20
202.179414
 11
532.867713
 21
202.107780
  0
LINE
  8
CSLAYER4
  6
CONTINUOUS
 62
     7
 10
532.867713
 20
202.107780
 11
532.922467
 21
202.033097
  0
LINE
  8
CSLAYER4
  6
CONTINUOUS
 62
     7
 10
532.922467
 20
202.033097
 11
532.973203
 21
201.955623
  0
LINE
  8
CSLAYER4
  6
CONTINUOUS
 62
     7
 10
532.973203
 20
201.955623
 11
533.020045
 21
201.875645
  0
LINE
  8
CSLAYER4
  6
CONTINUOUS
 62
     7
 10
533.020045
 20
201.875645
 11
533.063181
 21
201.793413
  0
LINE
  8
CSLAYER4
  6
CONTINUOUS
 62
     7
 10
533.063181
 20
201.793413
 11
533.102752
 21
201.709203
  0
LINE
  8
CSLAYER4
  6
CONTINUOUS
 62
     7
 10
533.102752
 20
201.709203
 11
533.138925
 21
201.623273
  0
LINE
  8
CSLAYER4
  6
CONTINUOUS
 62
     7
 10
533.138925
 20
201.623273
 11
533.171863
 21
201.535880
  0
LINE
  8
CSLAYER4
  6
CONTINUOUS
 62
     7
 10
533.171863
 20
201.535880
 11
533.201794
 21
201.447065
  0
LINE
  8
CSLAYER4
  6
CONTINUOUS
 62
     7
 10
533.201794
 20
201.447065
 11
533.228841
 21
201.357036
  0
LINE
  8
CSLAYER4
  6
CONTINUOUS
 62
     7
 10
533.228841
 20
201.357036
 11
533.253148
 21
201.266018
  0
LINE
  8
CSLAYER4
  6
CONTINUOUS
 62
     7
 10
533.253148
 20
201.266018
 11
533.274880
 21
201.174278
  0
LINE
  8
CSLAYER4
  6
CONTINUOUS
 62
     7
 10
533.274880
 20
201.174278
 11
533.294142
 21
201.082034
  0
LINE
  8
CSLAYER4
  6
CONTINUOUS
 62
     7
 10
533.294142
 20
201.082034
 11
533.311074
 21
200.989544
  0
LINE
  8
CSLAYER4
  6
CONTINUOUS
 62
     7
 10
533.311074
 20
200.989544
 11
533.325823
 21
200.897052
  0
LINE
  8
CSLAYER4
  6
CONTINUOUS
 62
     7
 10
534.898642
 20
200.897052
 11
533.325826
 21
200.897052
  0
LINE
  8
CSLAYER4
  6
CONTINUOUS
 62
     7
 10
534.898647
 20
200.897052
 11
534.893784
 21
201.006909
  0
LINE
  8
CSLAYER4
  6
CONTINUOUS
 62
     7
 10
534.893784
 20
201.006909
 11
534.886719
 21
201.116733
  0
LINE
  8
CSLAYER4
  6
CONTINUOUS
 62
     7
 10
534.886719
 20
201.116733
 11
534.877347
 21
201.226436
  0
LINE
  8
CSLAYER4
  6
CONTINUOUS
 62
     7
 10
534.877347
 20
201.226436
 11
534.865584
 21
201.335922
  0
LINE
  8
CSLAYER4
  6
CONTINUOUS
 62
     7
 10
534.865584
 20
201.335922
 11
534.851329
 21
201.445098
  0
LINE
  8
CSLAYER4
  6
CONTINUOUS
 62
     7
 10
534.851329
 20
201.445098
 11
534.834478
 21
201.553863
  0
LINE
  8
CSLAYER4
  6
CONTINUOUS
 62
     7
 10
534.834478
 20
201.553863
 11
534.814951
 21
201.662133
  0
LINE
  8
CSLAYER4
  6
CONTINUOUS
 62
     7
 10
534.814951
 20
201.662133
 11
534.792663
 21
201.769817
  0
LINE
  8
CSLAYER4
  6
CONTINUOUS
 62
     7
 10
534.792663
 20
201.769817
 11
534.767469
 21
201.876800
  0
LINE
  8
CSLAYER4
  6
CONTINUOUS
 62
     7
 10
534.767469
 20
201.876800
 11
534.739351
 21
201.982968
  0
LINE
  8
CSLAYER4
  6
CONTINUOUS
 62
     7
 10
534.739351
 20
201.982968
 11
534.708205
 21
202.088045
  0
LINE
  8
CSLAYER4
  6
CONTINUOUS
 62
     7
 10
534.708205
 20
202.088045
 11
534.674031
 21
202.191918
  0
LINE
  8
CSLAYER4
  6
CONTINUOUS
 62
     7
 10
534.674031
 20
202.191918
 11
534.636705
 21
202.294533
  0
LINE
  8
CSLAYER4
  6
CONTINUOUS
 62
     7
 10
534.636705
 20
202.294533
 11
534.596166
 21
202.395800
  0
LINE
  8
CSLAYER4
  6
CONTINUOUS
 62
     7
 10
534.596166
 20
202.395800
 11
534.552330
 21
202.495655
  0
LINE
  8
CSLAYER4
  6
CONTINUOUS
 62
     7
 10
534.552330
 20
202.495655
 11
534.505137
 21
202.594028
  0
LINE
  8
CSLAYER4
  6
CONTINUOUS
 62
     7
 10
534.505137
 20
202.594028
 11
534.454503
 21
202.690856
  0
LINE
  8
CSLAYER4
  6
CONTINUOUS
 62
     7
 10
534.454503
 20
202.690856
 11
534.400348
 21
202.786065
  0
LINE
  8
CSLAYER4
  6
CONTINUOUS
 62
     7
 10
534.400348
 20
202.786065
 11
534.342813
 21
202.879257
  0
LINE
  8
CSLAYER4
  6
CONTINUOUS
 62
     7
 10
534.342813
 20
202.879257
 11
534.282108
 21
202.970028
  0
LINE
  8
CSLAYER4
  6
CONTINUOUS
 62
     7
 10
534.282108
 20
202.970028
 11
534.218208
 21
203.058369
  0
LINE
  8
CSLAYER4
  6
CONTINUOUS
 62
     7
 10
534.218208
 20
203.058369
 11
534.151116
 21
203.144258
  0
LINE
  8
CSLAYER4
  6
CONTINUOUS
 62
     7
 10
534.151116
 20
203.144258
 11
534.080851
 21
203.227706
  0
LINE
  8
CSLAYER4
  6
CONTINUOUS
 62
     7
 10
534.080851
 20
203.227706
 11
534.007374
 21
203.308701
  0
LINE
  8
CSLAYER4
  6
CONTINUOUS
 62
     7
 10
534.007374
 20
203.308701
 11
533.933071
 21
203.388885
  0
LINE
  8
CSLAYER4
  6
CONTINUOUS
 62
     7
 10
533.933071
 20
203.388885
 11
533.856565
 21
203.466606
  0
LINE
  8
CSLAYER4
  6
CONTINUOUS
 62
     7
 10
533.856565
 20
203.466606
 11
533.777835
 21
203.541753
  0
LINE
  8
CSLAYER4
  6
CONTINUOUS
 62
     7
 10
533.777835
 20
203.541753
 11
533.696818
 21
203.614181
  0
LINE
  8
CSLAYER4
  6
CONTINUOUS
 62
     7
 10
533.696818
 20
203.614181
 11
533.613514
 21
203.683766
  0
LINE
  8
CSLAYER4
  6
CONTINUOUS
 62
     7
 10
533.613514
 20
203.683766
 11
533.527861
 21
203.750384
  0
LINE
  8
CSLAYER4
  6
CONTINUOUS
 62
     7
 10
533.527861
 20
203.750384
 11
533.439799
 21
203.813901
  0
LINE
  8
CSLAYER4
  6
CONTINUOUS
 62
     7
 10
533.439799
 20
203.813901
 11
533.349348
 21
203.874185
  0
LINE
  8
CSLAYER4
  6
CONTINUOUS
 62
     7
 10
533.349348
 20
203.874185
 11
533.256403
 21
203.931113
  0
LINE
  8
CSLAYER4
  6
CONTINUOUS
 62
     7
 10
533.256403
 20
203.931113
 11
533.161482
 21
203.984268
  0
LINE
  8
CSLAYER4
  6
CONTINUOUS
 62
     7
 10
533.161482
 20
203.984268
 11
533.065077
 21
204.033357
  0
LINE
  8
CSLAYER4
  6
CONTINUOUS
 62
     7
 10
533.065077
 20
204.033357
 11
532.967188
 21
204.078387
  0
LINE
  8
CSLAYER4
  6
CONTINUOUS
 62
     7
 10
532.967188
 20
204.078387
 11
532.867797
 21
204.119349
  0
LINE
  8
CSLAYER4
  6
CONTINUOUS
 62
     7
 10
532.867797
 20
204.119349
 11
532.766920
 21
204.156263
  0
LINE
  8
CSLAYER4
  6
CONTINUOUS
 62
     7
 10
532.766920
 20
204.156263
 11
532.664563
 21
204.189129
  0
LINE
  8
CSLAYER4
  6
CONTINUOUS
 62
     7
 10
532.664563
 20
204.189129
 11
532.560742
 21
204.217947
  0
LINE
  8
CSLAYER4
  6
CONTINUOUS
 62
     7
 10
532.560742
 20
204.217947
 11
532.455417
 21
204.242739
  0
LINE
  8
CSLAYER4
  6
CONTINUOUS
 62
     7
 10
532.455417
 20
204.242739
 11
532.348723
 21
204.263483
  0
LINE
  8
CSLAYER4
  6
CONTINUOUS
 62
     7
 10
532.348723
 20
204.263483
 11
532.241431
 21
204.280097
  0
LINE
  8
CSLAYER4
  6
CONTINUOUS
 62
     7
 10
532.241431
 20
204.280097
 11
532.133779
 21
204.292662
  0
LINE
  8
CSLAYER4
  6
CONTINUOUS
 62
     7
 10
532.133779
 20
204.292662
 11
532.025808
 21
204.301293
  0
LINE
  8
CSLAYER4
  6
CONTINUOUS
 62
     7
 10
532.025808
 20
204.301293
 11
531.917578
 21
204.306123
  0
LINE
  8
CSLAYER4
  6
CONTINUOUS
 62
     7
 10
531.917578
 20
204.306123
 11
531.809154
 21
204.307256
  0
LINE
  8
CSLAYER4
  6
CONTINUOUS
 62
     7
 10
531.809154
 20
204.307256
 11
531.700584
 21
204.304815
  0
LINE
  8
CSLAYER4
  6
CONTINUOUS
 62
     7
 10
531.700584
 20
204.304815
 11
531.586413
 21
204.298749
  0
LINE
  8
CSLAYER4
  6
CONTINUOUS
 62
     7
 10
531.586413
 20
204.298749
 11
531.472900
 21
204.288954
  0
LINE
  8
CSLAYER4
  6
CONTINUOUS
 62
     7
 10
531.472900
 20
204.288954
 11
531.360067
 21
204.275348
  0
LINE
  8
CSLAYER4
  6
CONTINUOUS
 62
     7
 10
531.360067
 20
204.275348
 11
531.247975
 21
204.257838
  0
LINE
  8
CSLAYER4
  6
CONTINUOUS
 62
     7
 10
531.247975
 20
204.257838
 11
531.136656
 21
204.236343
  0
LINE
  8
CSLAYER4
  6
CONTINUOUS
 62
     7
 10
531.136656
 20
204.236343
 11
531.026161
 21
204.210770
  0
LINE
  8
CSLAYER4
  6
CONTINUOUS
 62
     7
 10
531.026161
 20
204.210770
 11
530.916531
 21
204.181023
  0
LINE
  8
CSLAYER4
  6
CONTINUOUS
 62
     7
 10
530.916531
 20
204.181023
 11
530.807808
 21
204.147035
  0
LINE
  8
CSLAYER4
  6
CONTINUOUS
 62
     7
 10
530.807808
 20
204.147035
 11
530.700063
 21
204.108710
  0
LINE
  8
CSLAYER4
  6
CONTINUOUS
 62
     7
 10
530.700063
 20
204.108710
 11
530.594110
 21
204.066296
  0
LINE
  8
CSLAYER4
  6
CONTINUOUS
 62
     7
 10
530.594110
 20
204.066296
 11
530.490331
 21
204.019967
  0
LINE
  8
CSLAYER4
  6
CONTINUOUS
 62
     7
 10
530.490331
 20
204.019967
 11
530.388684
 21
203.969777
  0
LINE
  8
CSLAYER4
  6
CONTINUOUS
 62
     7
 10
530.388684
 20
203.969777
 11
530.289147
 21
203.915765
  0
LINE
  8
CSLAYER4
  6
CONTINUOUS
 62
     7
 10
530.289147
 20
203.915765
 11
530.191722
 21
203.857985
  0
LINE
  8
CSLAYER4
  6
CONTINUOUS
 62
     7
 10
530.191722
 20
203.857985
 11
530.096377
 21
203.796495
  0
LINE
  8
CSLAYER4
  6
CONTINUOUS
 62
     7
 10
530.096377
 20
203.796495
 11
530.003094
 21
203.731319
  0
LINE
  8
CSLAYER4
  6
CONTINUOUS
 62
     7
 10
530.003094
 20
203.731319
 11
529.911849
 21
203.662527
  0
LINE
  8
CSLAYER4
  6
CONTINUOUS
 62
     7
 10
529.911849
 20
203.662527
 11
529.822737
 21
203.590244
  0
LINE
  8
CSLAYER4
  6
CONTINUOUS
 62
     7
 10
529.822737
 20
203.590244
 11
529.736199
 21
203.514953
  0
LINE
  8
CSLAYER4
  6
CONTINUOUS
 62
     7
 10
529.736199
 20
203.514953
 11
529.652235
 21
203.436840
  0
LINE
  8
CSLAYER4
  6
CONTINUOUS
 62
     7
 10
529.652235
 20
203.436840
 11
529.570827
 21
203.356050
  0
LINE
  8
CSLAYER4
  6
CONTINUOUS
 62
     7
 10
529.570827
 20
203.356050
 11
529.491900
 21
203.272725
  0
LINE
  8
CSLAYER4
  6
CONTINUOUS
 62
     7
 10
529.491900
 20
203.272725
 11
529.415434
 21
203.186991
  0
LINE
  8
CSLAYER4
  6
CONTINUOUS
 62
     7
 10
529.415434
 20
203.186991
 11
529.341360
 21
203.098991
  0
LINE
  8
CSLAYER4
  6
CONTINUOUS
 62
     7
 10
529.341360
 20
203.098991
 11
529.289244
 21
203.027438
  0
LINE
  8
CSLAYER4
  6
CONTINUOUS
 62
     7
 10
529.289244
 20
203.027438
 11
529.239280
 21
202.954599
  0
LINE
  8
CSLAYER4
  6
CONTINUOUS
 62
     7
 10
529.239280
 20
202.954599
 11
529.191478
 21
202.880493
  0
LINE
  8
CSLAYER4
  6
CONTINUOUS
 62
     7
 10
529.191478
 20
202.880493
 11
529.145871
 21
202.805099
  0
LINE
  8
CSLAYER4
  6
CONTINUOUS
 62
     7
 10
529.145871
 20
202.805099
 11
529.102468
 21
202.728417
  0
LINE
  8
CSLAYER4
  6
CONTINUOUS
 62
     7
 10
529.102468
 20
202.728417
 11
529.061271
 21
202.650440
  0
LINE
  8
CSLAYER4
  6
CONTINUOUS
 62
     7
 10
529.061271
 20
202.650440
 11
529.022296
 21
202.571163
  0
LINE
  8
CSLAYER4
  6
CONTINUOUS
 62
     7
 10
529.022296
 20
202.571163
 11
528.985557
 21
202.490568
  0
LINE
  8
CSLAYER4
  6
CONTINUOUS
 62
     7
 10
528.985557
 20
202.490568
 11
528.951084
 21
202.408706
  0
LINE
  8
CSLAYER4
  6
CONTINUOUS
 62
     7
 10
528.951084
 20
202.408706
 11
528.919053
 21
202.325969
  0
LINE
  8
CSLAYER4
  6
CONTINUOUS
 62
     7
 10
528.919053
 20
202.325969
 11
528.889461
 21
202.242500
  0
LINE
  8
CSLAYER4
  6
CONTINUOUS
 62
     7
 10
528.889461
 20
202.242500
 11
528.862290
 21
202.158320
  0
LINE
  8
CSLAYER4
  6
CONTINUOUS
 62
     7
 10
528.862290
 20
202.158320
 11
528.837489
 21
202.073441
  0
LINE
  8
CSLAYER4
  6
CONTINUOUS
 62
     7
 10
528.837489
 20
202.073441
 11
528.815046
 21
201.987870
  0
LINE
  8
CSLAYER4
  6
CONTINUOUS
 62
     7
 10
528.815046
 20
201.987870
 11
528.794910
 21
201.901653
  0
LINE
  8
CSLAYER4
  6
CONTINUOUS
 62
     7
 10
528.794910
 20
201.901653
 11
528.777051
 21
201.814785
  0
LINE
  8
CSLAYER4
  6
CONTINUOUS
 62
     7
 10
528.777051
 20
201.814785
 11
528.761446
 21
201.727299
  0
LINE
  8
CSLAYER4
  6
CONTINUOUS
 62
     7
 10
528.761446
 20
201.727299
 11
528.748057
 21
201.639267
  0
LINE
  8
CSLAYER4
  6
CONTINUOUS
 62
     7
 10
528.748057
 20
201.639267
 11
528.736872
 21
201.550959
  0
LINE
  8
CSLAYER4
  6
CONTINUOUS
 62
     7
 10
528.736872
 20
201.550959
 11
528.727849
 21
201.462422
  0
LINE
  8
CSLAYER4
  6
CONTINUOUS
 62
     7
 10
528.727849
 20
201.462422
 11
528.720939
 21
201.373701
  0
LINE
  8
CSLAYER4
  6
CONTINUOUS
 62
     7
 10
528.720939
 20
201.373701
 11
528.716065
 21
201.284825
  0
LINE
  8
CSLAYER4
  6
CONTINUOUS
 62
     7
 10
528.716065
 20
201.284825
 11
528.713182
 21
201.195836
  0
LINE
  8
CSLAYER4
  6
CONTINUOUS
 62
     7
 10
528.713182
 20
201.195836
 11
528.712234
 21
201.106764
  0
LINE
  8
CSLAYER4
  6
CONTINUOUS
 62
     7
 10
528.712234
 20
201.106764
 11
528.713119
 21
201.020402
  0
LINE
  8
CSLAYER4
  6
CONTINUOUS
 62
     7
 10
528.713119
 20
201.020402
 11
528.715849
 21
200.933997
  0
LINE
  8
CSLAYER4
  6
CONTINUOUS
 62
     7
 10
528.715849
 20
200.933997
 11
528.720495
 21
200.847614
  0
LINE
  8
CSLAYER4
  6
CONTINUOUS
 62
     7
 10
528.720495
 20
200.847614
 11
528.727159
 21
200.761364
  0
LINE
  8
CSLAYER4
  6
CONTINUOUS
 62
     7
 10
528.727159
 20
200.761364
 11
528.735934
 21
200.675310
  0
LINE
  8
CSLAYER4
  6
CONTINUOUS
 62
     7
 10
528.735934
 20
200.675310
 11
528.746904
 21
200.589555
  0
LINE
  8
CSLAYER4
  6
CONTINUOUS
 62
     7
 10
528.746904
 20
200.589555
 11
528.760149
 21
200.504171
  0
LINE
  8
CSLAYER4
  6
CONTINUOUS
 62
     7
 10
528.760149
 20
200.504171
 11
528.775783
 21
200.419250
  0
LINE
  8
CSLAYER4
  6
CONTINUOUS
 62
     7
 10
528.775783
 20
200.419250
 11
528.793881
 21
200.334875
  0
LINE
  8
CSLAYER4
  6
CONTINUOUS
 62
     7
 10
528.793881
 20
200.334875
 11
528.814521
 21
200.251158
  0
LINE
  8
CSLAYER4
  6
CONTINUOUS
 62
     7
 10
528.814521
 20
200.251158
 11
528.837747
 21
200.168402
  0
LINE
  8
CSLAYER4
  6
CONTINUOUS
 62
     7
 10
528.837747
 20
200.168402
 11
528.863599
 21
200.086683
  0
LINE
  8
CSLAYER4
  6
CONTINUOUS
 62
     7
 10
528.863599
 20
200.086683
 11
528.892150
 21
200.006078
  0
LINE
  8
CSLAYER4
  6
CONTINUOUS
 62
     7
 10
528.892150
 20
200.006078
 11
528.923470
 21
199.926636
  0
LINE
  8
CSLAYER4
  6
CONTINUOUS
 62
     7
 10
528.923470
 20
199.926636
 11
528.957634
 21
199.848420
  0
LINE
  8
CSLAYER4
  6
CONTINUOUS
 62
     7
 10
528.957634
 20
199.848420
 11
528.994693
 21
199.771493
  0
LINE
  8
CSLAYER4
  6
CONTINUOUS
 62
     7
 10
528.994693
 20
199.771493
 11
529.034739
 21
199.695903
  0
LINE
  8
CSLAYER4
  6
CONTINUOUS
 62
     7
 10
529.034739
 20
199.695903
 11
529.077811
 21
199.621704
  0
LINE
  8
CSLAYER4
  6
CONTINUOUS
 62
     7
 10
529.077811
 20
199.621704
 11
529.123810
 21
199.549266
  0
LINE
  8
CSLAYER4
  6
CONTINUOUS
 62
     7
 10
529.123810
 20
199.549266
 11
529.172487
 21
199.478993
  0
LINE
  8
CSLAYER4
  6
CONTINUOUS
 62
     7
 10
529.172487
 20
199.478993
 11
529.223830
 21
199.410869
  0
LINE
  8
CSLAYER4
  6
CONTINUOUS
 62
     7
 10
529.223830
 20
199.410869
 11
529.277832
 21
199.344900
  0
LINE
  8
CSLAYER4
  6
CONTINUOUS
 62
     7
 10
529.277832
 20
199.344900
 11
529.334490
 21
199.281074
  0
LINE
  8
CSLAYER4
  6
CONTINUOUS
 62
     7
 10
529.334490
 20
199.281074
 11
529.393785
 21
199.219379
  0
LINE
  8
CSLAYER4
  6
CONTINUOUS
 62
     7
 10
529.393785
 20
199.219379
 11
529.428361
 21
199.185162
  0
LINE
  8
CSLAYER4
  6
CONTINUOUS
 62
     7
 10
529.428361
 20
199.185162
 11
529.463370
 21
199.151225
  0
LINE
  8
CSLAYER4
  6
CONTINUOUS
 62
     7
 10
529.463370
 20
199.151225
 11
529.498801
 21
199.117617
  0
LINE
  8
CSLAYER4
  6
CONTINUOUS
 62
     7
 10
529.498801
 20
199.117617
 11
529.534665
 21
199.084349
  0
LINE
  8
CSLAYER4
  6
CONTINUOUS
 62
     7
 10
529.534665
 20
199.084349
 11
529.570950
 21
199.051463
  0
LINE
  8
CSLAYER4
  6
CONTINUOUS
 62
     7
 10
529.570950
 20
199.051463
 11
529.607658
 21
199.018977
  0
LINE
  8
CSLAYER4
  6
CONTINUOUS
 62
     7
 10
529.607658
 20
199.018977
 11
529.644778
 21
198.986936
  0
LINE
  8
CSLAYER4
  6
CONTINUOUS
 62
     7
 10
529.644778
 20
198.986936
 11
529.682310
 21
198.955365
  0
LINE
  8
CSLAYER4
  6
CONTINUOUS
 62
     7
 10
529.682310
 20
198.955365
 11
529.720254
 21
198.924293
  0
LINE
  8
CSLAYER4
  6
CONTINUOUS
 62
     7
 10
529.720254
 20
198.924293
 11
529.758610
 21
198.893742
  0
LINE
  8
CSLAYER4
  6
CONTINUOUS
 62
     7
 10
529.758610
 20
198.893742
 11
529.797358
 21
198.863750
  0
LINE
  8
CSLAYER4
  6
CONTINUOUS
 62
     7
 10
529.797358
 20
198.863750
 11
529.836517
 21
198.834356
  0
LINE
  8
CSLAYER4
  6
CONTINUOUS
 62
     7
 10
529.836517
 20
198.834356
 11
529.876068
 21
198.805578
  0
LINE
  8
CSLAYER4
  6
CONTINUOUS
 62
     7
 10
529.876068
 20
198.805578
 11
529.916010
 21
198.777440
  0
LINE
  8
CSLAYER4
  6
CONTINUOUS
 62
     7
 10
529.916010
 20
198.777440
 11
529.956333
 21
198.749990
  0
LINE
  8
CSLAYER4
  6
CONTINUOUS
 62
     7
 10
529.956333
 20
198.749990
 11
529.997049
 21
198.723242
  0
LINE
  8
CSLAYER4
  6
CONTINUOUS
 62
     7
 10
529.997049
 20
198.723242
 11
530.038153
 21
198.697236
  0
LINE
  8
CSLAYER4
  6
CONTINUOUS
 62
     7
 10
530.038153
 20
198.697236
 11
530.079630
 21
198.672002
  0
LINE
  8
CSLAYER4
  6
CONTINUOUS
 62
     7
 10
530.079630
 20
198.672002
 11
530.121510
 21
198.647550
  0
LINE
  8
CSLAYER4
  6
CONTINUOUS
 62
     7
 10
530.121510
 20
198.647550
 11
530.163831
 21
198.623882
  0
LINE
  8
CSLAYER4
  6
CONTINUOUS
 62
     7
 10
530.163831
 20
198.623882
 11
530.206584
 21
198.601047
  0
LINE
  8
CSLAYER4
  6
CONTINUOUS
 62
     7
 10
530.206584
 20
198.601047
 11
530.249782
 21
198.579068
  0
LINE
  8
CSLAYER4
  6
CONTINUOUS
 62
     7
 10
530.249782
 20
198.579068
 11
530.293411
 21
198.557984
  0
LINE
  8
CSLAYER4
  6
CONTINUOUS
 62
     7
 10
530.293411
 20
198.557984
 11
530.337474
 21
198.537827
  0
LINE
  8
CSLAYER4
  6
CONTINUOUS
 62
     7
 10
532.539418
 20
197.594139
 11
530.337477
 21
198.537828
  0
LINE
  8
CSLAYER4
  6
CONTINUOUS
 62
     7
 10
532.539421
 20
197.594139
 11
532.602312
 21
197.565249
  0
LINE
  8
CSLAYER4
  6
CONTINUOUS
 62
     7
 10
532.602312
 20
197.565249
 11
532.664047
 21
197.533979
  0
LINE
  8
CSLAYER4
  6
CONTINUOUS
 62
     7
 10
532.664047
 20
197.533979
 11
532.724487
 21
197.500217
  0
LINE
  8
CSLAYER4
  6
CONTINUOUS
 62
     7
 10
532.724487
 20
197.500217
 11
532.783401
 21
197.463869
  0
LINE
  8
CSLAYER4
  6
CONTINUOUS
 62
     7
 10
532.783401
 20
197.463869
 11
532.840626
 21
197.424833
  0
LINE
  8
CSLAYER4
  6
CONTINUOUS
 62
     7
 10
532.840626
 20
197.424833
 11
532.895872
 21
197.383079
  0
LINE
  8
CSLAYER4
  6
CONTINUOUS
 62
     7
 10
532.895872
 20
197.383079
 11
532.948752
 21
197.338707
  0
LINE
  8
CSLAYER4
  6
CONTINUOUS
 62
     7
 10
532.948752
 20
197.338707
 11
532.999138
 21
197.291669
  0
LINE
  8
CSLAYER4
  6
CONTINUOUS
 62
     7
 10
532.999138
 20
197.291669
 11
533.046888
 21
197.241890
  0
LINE
  8
CSLAYER4
  6
CONTINUOUS
 62
     7
 10
533.046888
 20
197.241890
 11
533.091916
 21
197.189310
  0
LINE
  8
CSLAYER4
  6
CONTINUOUS
 62
     7
 10
533.091916
 20
197.189310
 11
533.133858
 21
197.134176
  0
LINE
  8
CSLAYER4
  6
CONTINUOUS
 62
     7
 10
533.133858
 20
197.134176
 11
533.172255
 21
197.077127
  0
LINE
  8
CSLAYER4
  6
CONTINUOUS
 62
     7
 10
533.172255
 20
197.077127
 11
533.207151
 21
197.018243
  0
LINE
  8
CSLAYER4
  6
CONTINUOUS
 62
     7
 10
533.207151
 20
197.018243
 11
533.238606
 21
196.957557
  0
LINE
  8
CSLAYER4
  6
CONTINUOUS
 62
     7
 10
533.238606
 20
196.957557
 11
533.266662
 21
196.895130
  0
LINE
  8
CSLAYER4
  6
CONTINUOUS
 62
     7
 10
533.266662
 20
196.895130
 11
533.291422
 21
196.831005
  0
LINE
  8
CSLAYER4
  6
CONTINUOUS
 62
     7
 10
533.291422
 20
196.831005
 11
533.312928
 21
196.765221
  0
LINE
  8
CSLAYER4
  6
CONTINUOUS
 62
     7
 10
533.312928
 20
196.765221
 11
533.331220
 21
196.698015
  0
LINE
  8
CSLAYER4
  6
CONTINUOUS
 62
     7
 10
533.331220
 20
196.698015
 11
533.346258
 21
196.630028
  0
LINE
  8
CSLAYER4
  6
CONTINUOUS
 62
     7
 10
533.346258
 20
196.630028
 11
533.358205
 21
196.561410
  0
LINE
  8
CSLAYER4
  6
CONTINUOUS
 62
     7
 10
533.358205
 20
196.561410
 11
533.367228
 21
196.492311
  0
LINE
  8
CSLAYER4
  6
CONTINUOUS
 62
     7
 10
533.367228
 20
196.492311
 11
533.373448
 21
196.422860
  0
LINE
  8
CSLAYER4
  6
CONTINUOUS
 62
     7
 10
533.373448
 20
196.422860
 11
533.377074
 21
196.353203
  0
LINE
  8
CSLAYER4
  6
CONTINUOUS
 62
     7
 10
533.377074
 20
196.353203
 11
533.378248
 21
196.283463
  0
LINE
  8
CSLAYER4
  6
CONTINUOUS
 62
     7
 10
533.378248
 20
196.283463
 11
533.376786
 21
196.218276
  0
LINE
  8
CSLAYER4
  6
CONTINUOUS
 62
     7
 10
533.376786
 20
196.218276
 11
533.372274
 21
196.153379
  0
LINE
  8
CSLAYER4
  6
CONTINUOUS
 62
     7
 10
533.372274
 20
196.153379
 11
533.364612
 21
196.088831
  0
LINE
  8
CSLAYER4
  6
CONTINUOUS
 62
     7
 10
533.364612
 20
196.088831
 11
533.353612
 21
196.024704
  0
LINE
  8
CSLAYER4
  6
CONTINUOUS
 62
     7
 10
533.353612
 20
196.024704
 11
533.339191
 21
195.961145
  0
LINE
  8
CSLAYER4
  6
CONTINUOUS
 62
     7
 10
533.339191
 20
195.961145
 11
533.321353
 21
195.898698
  0
LINE
  8
CSLAYER4
  6
CONTINUOUS
 62
     7
 10
533.321353
 20
195.898698
 11
533.300094
 21
195.837549
  0
LINE
  8
CSLAYER4
  6
CONTINUOUS
 62
     7
 10
533.300094
 20
195.837549
 11
533.275395
 21
195.777698
  0
LINE
  8
CSLAYER4
  6
CONTINUOUS
 62
     7
 10
533.275395
 20
195.777698
 11
533.247216
 21
195.719165
  0
LINE
  8
CSLAYER4
  6
CONTINUOUS
 62
     7
 10
533.247216
 20
195.719165
 11
533.215782
 21
195.662331
  0
LINE
  8
CSLAYER4
  6
CONTINUOUS
 62
     7
 10
533.215782
 20
195.662331
 11
533.181421
 21
195.607680
  0
LINE
  8
CSLAYER4
  6
CONTINUOUS
 62
     7
 10
533.181421
 20
195.607680
 11
533.144281
 21
195.555173
  0
LINE
  8
CSLAYER4
  6
CONTINUOUS
 62
     7
 10
533.144281
 20
195.555173
 11
533.104524
 21
195.504767
  0
LINE
  8
CSLAYER4
  6
CONTINUOUS
 62
     7
 10
533.104524
 20
195.504767
 11
533.062275
 21
195.456399
  0
LINE
  8
CSLAYER4
  6
CONTINUOUS
 62
     7
 10
533.062275
 20
195.456399
 11
533.017677
 21
195.410021
  0
LINE
  8
CSLAYER4
  6
CONTINUOUS
 62
     7
 10
533.017677
 20
195.410021
 11
532.970833
 21
195.365588
  0
LINE
  8
CSLAYER4
  6
CONTINUOUS
 62
     7
 10
532.970833
 20
195.365588
 11
532.921932
 21
195.323049
  0
LINE
  8
CSLAYER4
  6
CONTINUOUS
 62
     7
 10
532.921932
 20
195.323049
 11
532.871173
 21
195.282447
  0
LINE
  8
CSLAYER4
  6
CONTINUOUS
 62
     7
 10
532.871173
 20
195.282447
 11
532.818832
 21
195.243783
  0
LINE
  8
CSLAYER4
  6
CONTINUOUS
 62
     7
 10
532.818832
 20
195.243783
 11
532.765066
 21
195.207003
  0
LINE
  8
CSLAYER4
  6
CONTINUOUS
 62
     7
 10
532.765066
 20
195.207003
 11
532.710067
 21
195.172046
  0
LINE
  8
CSLAYER4
  6
CONTINUOUS
 62
     7
 10
532.710067
 20
195.172046
 11
532.654015
 21
195.138881
  0
LINE
  8
CSLAYER4
  6
CONTINUOUS
 62
     7
 10
532.654015
 20
195.138881
 11
532.597078
 21
195.107426
  0
LINE
  8
CSLAYER4
  6
CONTINUOUS
 62
     7
 10
532.597078
 20
195.107426
 11
532.539421
 21
195.077639
  0
LINE
  8
CSLAYER4
  6
CONTINUOUS
 62
     7
 10
532.539421
 20
195.077639
 11
532.483597
 21
195.061253
  0
LINE
  8
CSLAYER4
  6
CONTINUOUS
 62
     7
 10
532.483597
 20
195.061253
 11
532.427515
 21
195.046379
  0
LINE
  8
CSLAYER4
  6
CONTINUOUS
 62
     7
 10
532.427515
 20
195.046379
 11
532.371145
 21
195.033051
  0
LINE
  8
CSLAYER4
  6
CONTINUOUS
 62
     7
 10
532.371145
 20
195.033051
 11
532.314508
 21
195.021279
  0
LINE
  8
CSLAYER4
  6
CONTINUOUS
 62
     7
 10
532.314508
 20
195.021279
 11
532.257592
 21
195.011093
  0
LINE
  8
CSLAYER4
  6
CONTINUOUS
 62
     7
 10
532.257592
 20
195.011093
 11
532.200397
 21
195.002502
  0
LINE
  8
CSLAYER4
  6
CONTINUOUS
 62
     7
 10
532.200397
 20
195.002502
 11
532.142935
 21
194.995560
  0
LINE
  8
CSLAYER4
  6
CONTINUOUS
 62
     7
 10
532.142935
 20
194.995560
 11
532.085206
 21
194.990267
  0
LINE
  8
CSLAYER4
  6
CONTINUOUS
 62
     7
 10
532.085206
 20
194.990267
 11
532.027207
 21
194.986652
  0
LINE
  8
CSLAYER4
  6
CONTINUOUS
 62
     7
 10
532.027207
 20
194.986652
 11
531.969201
 21
194.984756
  0
LINE
  8
CSLAYER4
  6
CONTINUOUS
 62
     7
 10
531.969201
 20
194.984756
 11
531.911326
 21
194.984561
  0
LINE
  8
CSLAYER4
  6
CONTINUOUS
 62
     7
 10
531.911326
 20
194.984561
 11
531.853576
 21
194.986053
  0
LINE
  8
CSLAYER4
  6
CONTINUOUS
 62
     7
 10
531.853576
 20
194.986053
 11
531.795939
 21
194.989247
  0
LINE
  8
CSLAYER4
  6
CONTINUOUS
 62
     7
 10
531.795939
 20
194.989247
 11
531.738436
 21
194.994098
  0
LINE
  8
CSLAYER4
  6
CONTINUOUS
 62
     7
 10
531.738436
 20
194.994098
 11
531.681057
 21
195.000629
  0
LINE
  8
CSLAYER4
  6
CONTINUOUS
 62
     7
 10
531.681057
 20
195.000629
 11
531.623790
 21
195.008805
  0
LINE
  8
CSLAYER4
  6
CONTINUOUS
 62
     7
 10
531.623790
 20
195.008805
 11
531.566658
 21
195.018621
  0
LINE
  8
CSLAYER4
  6
CONTINUOUS
 62
     7
 10
531.566658
 20
195.018621
 11
531.509680
 21
195.030065
  0
LINE
  8
CSLAYER4
  6
CONTINUOUS
 62
     7
 10
531.509680
 20
195.030065
 11
531.453084
 21
195.043062
  0
LINE
  8
CSLAYER4
  6
CONTINUOUS
 62
     7
 10
531.453084
 20
195.043062
 11
531.396888
 21
195.057575
  0
LINE
  8
CSLAYER4
  6
CONTINUOUS
 62
     7
 10
531.396888
 20
195.057575
 11
531.341115
 21
195.073571
  0
LINE
  8
CSLAYER4
  6
CONTINUOUS
 62
     7
 10
531.341115
 20
195.073571
 11
531.285765
 21
195.091008
  0
LINE
  8
CSLAYER4
  6
CONTINUOUS
 62
     7
 10
531.285765
 20
195.091008
 11
531.230826
 21
195.109845
  0
LINE
  8
CSLAYER4
  6
CONTINUOUS
 62
     7
 10
531.230826
 20
195.109845
 11
531.176310
 21
195.130064
  0
LINE
  8
CSLAYER4
  6
CONTINUOUS
 62
     7
 10
531.176310
 20
195.130064
 11
531.138211
 21
195.145760
  0
LINE
  8
CSLAYER4
  6
CONTINUOUS
 62
     7
 10
531.138211
 20
195.145760
 11
531.100411
 21
195.162261
  0
LINE
  8
CSLAYER4
  6
CONTINUOUS
 62
     7
 10
531.100411
 20
195.162261
 11
531.062983
 21
195.179595
  0
LINE
  8
CSLAYER4
  6
CONTINUOUS
 62
     7
 10
531.062983
 20
195.179595
 11
531.025945
 21
195.197774
  0
LINE
  8
CSLAYER4
  6
CONTINUOUS
 62
     7
 10
531.025945
 20
195.197774
 11
530.989350
 21
195.216839
  0
LINE
  8
CSLAYER4
  6
CONTINUOUS
 62
     7
 10
530.989350
 20
195.216839
 11
530.953240
 21
195.236789
  0
LINE
  8
CSLAYER4
  6
CONTINUOUS
 62
     7
 10
530.953240
 20
195.236789
 11
530.917665
 21
195.257667
  0
LINE
  8
CSLAYER4
  6
CONTINUOUS
 62
     7
 10
530.917665
 20
195.257667
 11
530.882655
 21
195.279492
  0
LINE
  8
CSLAYER4
  6
CONTINUOUS
 62
     7
 10
530.882655
 20
195.279492
 11
530.848255
 21
195.302274
  0
LINE
  8
CSLAYER4
  6
CONTINUOUS
 62
     7
 10
530.848255
 20
195.302274
 11
530.814534
 21
195.326036
  0
LINE
  8
CSLAYER4
  6
CONTINUOUS
 62
     7
 10
530.814534
 20
195.326036
 11
530.781595
 21
195.350735
  0
LINE
  8
CSLAYER4
  6
CONTINUOUS
 62
     7
 10
530.781595
 20
195.350735
 11
530.749491
 21
195.376380
  0
LINE
  8
CSLAYER4
  6
CONTINUOUS
 62
     7
 10
530.749491
 20
195.376380
 11
530.718252
 21
195.402996
  0
LINE
  8
CSLAYER4
  6
CONTINUOUS
 62
     7
 10
530.718252
 20
195.402996
 11
530.687899
 21
195.430587
  0
LINE
  8
CSLAYER4
  6
CONTINUOUS
 62
     7
 10
530.687899
 20
195.430587
 11
530.658463
 21
195.459180
  0
LINE
  8
CSLAYER4
  6
CONTINUOUS
 62
     7
 10
530.658463
 20
195.459180
 11
530.629974
 21
195.488792
  0
LINE
  8
CSLAYER4
  6
CONTINUOUS
 62
     7
 10
530.629974
 20
195.488792
 11
530.602462
 21
195.519434
  0
LINE
  8
CSLAYER4
  6
CONTINUOUS
 62
     7
 10
530.602462
 20
195.519434
 11
530.575962
 21
195.551126
  0
LINE
  8
CSLAYER4
  6
CONTINUOUS
 62
     7
 10
530.575962
 20
195.551126
 11
530.550594
 21
195.583766
  0
LINE
  8
CSLAYER4
  6
CONTINUOUS
 62
     7
 10
530.550594
 20
195.583766
 11
530.526462
 21
195.617229
  0
LINE
  8
CSLAYER4
  6
CONTINUOUS
 62
     7
 10
530.526462
 20
195.617229
 11
530.503576
 21
195.651495
  0
LINE
  8
CSLAYER4
  6
CONTINUOUS
 62
     7
 10
530.503576
 20
195.651495
 11
530.481925
 21
195.686577
  0
LINE
  8
CSLAYER4
  6
CONTINUOUS
 62
     7
 10
530.481925
 20
195.686577
 11
530.461512
 21
195.722481
  0
LINE
  8
CSLAYER4
  6
CONTINUOUS
 62
     7
 10
530.461512
 20
195.722481
 11
530.442334
 21
195.759189
  0
LINE
  8
CSLAYER4
  6
CONTINUOUS
 62
     7
 10
530.442334
 20
195.759189
 11
530.421745
 21
195.801788
  0
LINE
  8
CSLAYER4
  6
CONTINUOUS
 62
     7
 10
530.421745
 20
195.801788
 11
530.401938
 21
195.845583
  0
LINE
  8
CSLAYER4
  6
CONTINUOUS
 62
     7
 10
530.401938
 20
195.845583
 11
530.382906
 21
195.890499
  0
LINE
  8
CSLAYER4
  6
CONTINUOUS
 62
     7
 10
530.382906
 20
195.890499
 11
530.364613
 21
195.936467
  0
LINE
  8
CSLAYER4
  6
CONTINUOUS
 62
     7
 10
530.364613
 20
195.936467
 11
530.347051
 21
195.983403
  0
LINE
  8
CSLAYER4
  6
CONTINUOUS
 62
     7
 10
530.347051
 20
195.983403
 11
530.330212
 21
196.031225
  0
LINE
  8
CSLAYER4
  6
CONTINUOUS
 62
     7
 10
530.330212
 20
196.031225
 11
530.314062
 21
196.079850
  0
LINE
  8
CSLAYER4
  6
CONTINUOUS
 62
     7
 10
530.314062
 20
196.079850
 11
530.298582
 21
196.129226
  0
LINE
  8
CSLAYER4
  6
CONTINUOUS
 62
     7
 10
530.298582
 20
196.129226
 11
530.283771
 21
196.179242
  0
LINE
  8
CSLAYER4
  6
CONTINUOUS
 62
     7
 10
530.283771
 20
196.179242
 11
530.269609
 21
196.229853
  0
LINE
  8
CSLAYER4
  6
CONTINUOUS
 62
     7
 10
530.269609
 20
196.229853
 11
530.256064
 21
196.280961
  0
LINE
  8
CSLAYER4
  6
CONTINUOUS
 62
     7
 10
530.256064
 20
196.280961
 11
530.243128
 21
196.332491
  0
LINE
  8
CSLAYER4
  6
CONTINUOUS
 62
     7
 10
530.243128
 20
196.332491
 11
530.230779
 21
196.384370
  0
LINE
  8
CSLAYER4
  6
CONTINUOUS
 62
     7
 10
530.230779
 20
196.384370
 11
530.219007
 21
196.436517
  0
LINE
  8
CSLAYER4
  6
CONTINUOUS
 62
     7
 10
530.219007
 20
196.436517
 11
530.207779
 21
196.488851
  0
LINE
  8
CSLAYER4
  6
CONTINUOUS
 62
     7
 10
530.207779
 20
196.488851
 11
530.197098
 21
196.541306
  0
LINE
  8
CSLAYER4
  6
CONTINUOUS
 62
     7
 10
530.197098
 20
196.541306
 11
530.186922
 21
196.593813
  0
LINE
  8
CSLAYER4
  6
CONTINUOUS
 62
     7
 10
530.186922
 20
196.593813
 11
530.177220
 21
196.646528
  0
LINE
  8
CSLAYER4
  6
CONTINUOUS
 62
     7
 10
530.177220
 20
196.646528
 11
530.167950
 21
196.699437
  0
LINE
  8
CSLAYER4
  6
CONTINUOUS
 62
     7
 10
530.167950
 20
196.699437
 11
530.159103
 21
196.752501
  0
LINE
  8
CSLAYER4
  6
CONTINUOUS
 62
     7
 10
530.159103
 20
196.752501
 11
530.150679
 21
196.805648
  0
LINE
  8
CSLAYER4
  6
CONTINUOUS
 62
     7
 10
530.150679
 20
196.805648
 11
530.142655
 21
196.858814
  0
LINE
  8
CSLAYER4
  6
CONTINUOUS
 62
     7
 10
530.142655
 20
196.858814
 11
530.135023
 21
196.911960
  0
LINE
  8
CSLAYER4
  6
CONTINUOUS
 62
     7
 10
530.135023
 20
196.911960
 11
530.127771
 21
196.965014
  0
LINE
  8
CSLAYER4
  6
CONTINUOUS
 62
     7
 10
528.450099
 20
196.965014
 11
530.127769
 21
196.965014
  0
LINE
  8
CSLAYER4
  6
CONTINUOUS
 62
     7
 10
528.450097
 20
196.965014
 11
528.465753
 21
196.779095
  0
LINE
  8
CSLAYER4
  6
CONTINUOUS
 62
     7
 10
528.465753
 20
196.779095
 11
528.485961
 21
196.592865
  0
LINE
  8
CSLAYER4
  6
CONTINUOUS
 62
     7
 10
528.485961
 20
196.592865
 11
528.511060
 21
196.406853
  0
LINE
  8
CSLAYER4
  6
CONTINUOUS
 62
     7
 10
528.511060
 20
196.406853
 11
528.541393
 21
196.221614
  0
LINE
  8
CSLAYER4
  6
CONTINUOUS
 62
     7
 10
528.541393
 20
196.221614
 11
528.577299
 21
196.037693
  0
LINE
  8
CSLAYER4
  6
CONTINUOUS
 62
     7
 10
528.577299
 20
196.037693
 11
528.619114
 21
195.855626
  0
LINE
  8
CSLAYER4
  6
CONTINUOUS
 62
     7
 10
528.619114
 20
195.855626
 11
528.667215
 21
195.675834
  0
LINE
  8
CSLAYER4
  6
CONTINUOUS
 62
     7
 10
528.667215
 20
195.675834
 11
528.722236
 21
195.498030
  0
LINE
  8
CSLAYER4
  6
CONTINUOUS
 62
     7
 10
528.722236
 20
195.498030
 11
528.784662
 21
195.322719
  0
LINE
  8
CSLAYER4
  6
CONTINUOUS
 62
     7
 10
528.784662
 20
195.322719
 11
528.854937
 21
195.150581
  0
LINE
  8
CSLAYER4
  6
CONTINUOUS
 62
     7
 10
528.854937
 20
195.150581
 11
528.933502
 21
194.982326
  0
LINE
  8
CSLAYER4
  6
CONTINUOUS
 62
     7
 10
528.933502
 20
194.982326
 11
529.020802
 21
194.818613
  0
LINE
  8
CSLAYER4
  6
CONTINUOUS
 62
     7
 10
529.020802
 20
194.818613
 11
529.116919
 21
194.660718
  0
LINE
  8
CSLAYER4
  6
CONTINUOUS
 62
     7
 10
529.116919
 20
194.660718
 11
529.221543
 21
194.510085
  0
LINE
  8
CSLAYER4
  6
CONTINUOUS
 62
     7
 10
529.221543
 20
194.510085
 11
529.334943
 21
194.367084
  0
LINE
  8
CSLAYER4
  6
CONTINUOUS
 62
     7
 10
529.334943
 20
194.367084
 11
529.457355
 21
194.232075
  0
LINE
  8
CSLAYER4
  6
CONTINUOUS
 62
     7
 10
529.457355
 20
194.232075
 11
529.589047
 21
194.105390
  0
LINE
  8
CSLAYER4
  6
CONTINUOUS
 62
     7
 10
529.589047
 20
194.105390
 11
529.730224
 21
193.987428
  0
LINE
  8
CSLAYER4
  6
CONTINUOUS
 62
     7
 10
529.730224
 20
193.987428
 11
529.878828
 21
193.880063
  0
LINE
  8
CSLAYER4
  6
CONTINUOUS
 62
     7
 10
529.878828
 20
193.880063
 11
530.033385
 21
193.783977
  0
LINE
  8
CSLAYER4
  6
CONTINUOUS
 62
     7
 10
530.033385
 20
193.783977
 11
530.193555
 21
193.698779
  0
LINE
  8
CSLAYER4
  6
CONTINUOUS
 62
     7
 10
530.193555
 20
193.698779
 11
530.359009
 21
193.624106
  0
LINE
  8
CSLAYER4
  6
CONTINUOUS
 62
     7
 10
530.359009
 20
193.624106
 11
530.529427
 21
193.559579
  0
LINE
  8
CSLAYER4
  6
CONTINUOUS
 62
     7
 10
530.529427
 20
193.559579
 11
530.704471
 21
193.504815
  0
ENDBLK
  8
0
  0
BLOCK
  8
CSLAYER1
  2
BLKF0009
 70
   64
 10
0.0
 20
0.0
 30
0.0
  0
LINE
  8
CSLAYER4
  6
CONTINUOUS
 62
     7
 10
476.885490
 20
180.049884
 11
477.019468
 21
180.011385
  0
LINE
  8
CSLAYER4
  6
CONTINUOUS
 62
     7
 10
477.019468
 20
180.011385
 11
477.154270
 21
179.976923
  0
LINE
  8
CSLAYER4
  6
CONTINUOUS
 62
     7
 10
477.154270
 20
179.976923
 11
477.289855
 21
179.946662
  0
LINE
  8
CSLAYER4
  6
CONTINUOUS
 62
     7
 10
477.289855
 20
179.946662
 11
477.426192
 21
179.920769
  0
LINE
  8
CSLAYER4
  6
CONTINUOUS
 62
     7
 10
477.426192
 20
179.920769
 11
477.563230
 21
179.899427
  0
LINE
  8
CSLAYER4
  6
CONTINUOUS
 62
     7
 10
477.563230
 20
179.899427
 11
477.700915
 21
179.882784
  0
LINE
  8
CSLAYER4
  6
CONTINUOUS
 62
     7
 10
477.700915
 20
179.882784
 11
477.839220
 21
179.871021
  0
LINE
  8
CSLAYER4
  6
CONTINUOUS
 62
     7
 10
477.839220
 20
179.871021
 11
477.978090
 21
179.864295
  0
LINE
  8
CSLAYER4
  6
CONTINUOUS
 62
     7
 10
477.978090
 20
179.864295
 11
478.117497
 21
179.862771
  0
LINE
  8
CSLAYER4
  6
CONTINUOUS
 62
     7
 10
478.117497
 20
179.862771
 11
478.256718
 21
179.866592
  0
LINE
  8
CSLAYER4
  6
CONTINUOUS
 62
     7
 10
478.256718
 20
179.866592
 11
478.395012
 21
179.875779
  0
LINE
  8
CSLAYER4
  6
CONTINUOUS
 62
     7
 10
478.395012
 20
179.875779
 11
478.532389
 21
179.890332
  0
LINE
  8
CSLAYER4
  6
CONTINUOUS
 62
     7
 10
478.532389
 20
179.890332
 11
478.668838
 21
179.910273
  0
LINE
  8
CSLAYER4
  6
CONTINUOUS
 62
     7
 10
478.668838
 20
179.910273
 11
478.804383
 21
179.935589
  0
LINE
  8
CSLAYER4
  6
CONTINUOUS
 62
     7
 10
478.804383
 20
179.935589
 11
478.939000
 21
179.966292
  0
LINE
  8
CSLAYER4
  6
CONTINUOUS
 62
     7
 10
478.939000
 20
179.966292
 11
479.072668
 21
180.002382
  0
LINE
  8
CSLAYER4
  6
CONTINUOUS
 62
     7
 10
479.072668
 20
180.002382
 11
479.205432
 21
180.043871
  0
LINE
  8
CSLAYER4
  6
CONTINUOUS
 62
     7
 10
479.205432
 20
180.043871
 11
479.337165
 21
180.090713
  0
LINE
  8
CSLAYER4
  6
CONTINUOUS
 62
     7
 10
479.337165
 20
180.090713
 11
479.466940
 21
180.142511
  0
LINE
  8
CSLAYER4
  6
CONTINUOUS
 62
     7
 10
479.466940
 20
180.142511
 11
479.594533
 21
180.199046
  0
LINE
  8
CSLAYER4
  6
CONTINUOUS
 62
     7
 10
479.594533
 20
180.199046
 11
479.719983
 21
180.260142
  0
LINE
  8
CSLAYER4
  6
CONTINUOUS
 62
     7
 10
479.719983
 20
180.260142
 11
479.843271
 21
180.325649
  0
LINE
  8
CSLAYER4
  6
CONTINUOUS
 62
     7
 10
479.843271
 20
180.325649
 11
479.964456
 21
180.395429
  0
LINE
  8
CSLAYER4
  6
CONTINUOUS
 62
     7
 10
479.964456
 20
180.395429
 11
480.083541
 21
180.469310
  0
LINE
  8
CSLAYER4
  6
CONTINUOUS
 62
     7
 10
480.083541
 20
180.469310
 11
480.134607
 21
180.502794
  0
LINE
  8
CSLAYER4
  6
CONTINUOUS
 62
     7
 10
480.134607
 20
180.502794
 11
480.184642
 21
180.537606
  0
LINE
  8
CSLAYER4
  6
CONTINUOUS
 62
     7
 10
480.184642
 20
180.537606
 11
480.233649
 21
180.573728
  0
LINE
  8
CSLAYER4
  6
CONTINUOUS
 62
     7
 10
480.233649
 20
180.573728
 11
480.281646
 21
180.611136
  0
LINE
  8
CSLAYER4
  6
CONTINUOUS
 62
     7
 10
480.281646
 20
180.611136
 11
480.328633
 21
180.649811
  0
LINE
  8
CSLAYER4
  6
CONTINUOUS
 62
     7
 10
480.328633
 20
180.649811
 11
480.374652
 21
180.689742
  0
LINE
  8
CSLAYER4
  6
CONTINUOUS
 62
     7
 10
480.374652
 20
180.689742
 11
480.419662
 21
180.730901
  0
LINE
  8
CSLAYER4
  6
CONTINUOUS
 62
     7
 10
480.419662
 20
180.730901
 11
480.463702
 21
180.773283
  0
LINE
  8
CSLAYER4
  6
CONTINUOUS
 62
     7
 10
480.463702
 20
180.773283
 11
480.506734
 21
180.816831
  0
LINE
  8
CSLAYER4
  6
CONTINUOUS
 62
     7
 10
480.506734
 20
180.816831
 11
480.548674
 21
180.861387
  0
LINE
  8
CSLAYER4
  6
CONTINUOUS
 62
     7
 10
480.548674
 20
180.861387
 11
480.589503
 21
180.906921
  0
LINE
  8
CSLAYER4
  6
CONTINUOUS
 62
     7
 10
480.589503
 20
180.906921
 11
480.629260
 21
180.953384
  0
LINE
  8
CSLAYER4
  6
CONTINUOUS
 62
     7
 10
480.629260
 20
180.953384
 11
480.667945
 21
181.000752
  0
LINE
  8
CSLAYER4
  6
CONTINUOUS
 62
     7
 10
480.667945
 20
181.000752
 11
480.705580
 21
181.048986
  0
LINE
  8
CSLAYER4
  6
CONTINUOUS
 62
     7
 10
480.705580
 20
181.048986
 11
480.742186
 21
181.098053
  0
LINE
  8
CSLAYER4
  6
CONTINUOUS
 62
     7
 10
480.742186
 20
181.098053
 11
480.777760
 21
181.147914
  0
LINE
  8
CSLAYER4
  6
CONTINUOUS
 62
     7
 10
480.777760
 20
181.147914
 11
480.812326
 21
181.198536
  0
LINE
  8
CSLAYER4
  6
CONTINUOUS
 62
     7
 10
480.812326
 20
181.198536
 11
480.845925
 21
181.249871
  0
LINE
  8
CSLAYER4
  6
CONTINUOUS
 62
     7
 10
480.845925
 20
181.249871
 11
480.878512
 21
181.301853
  0
LINE
  8
CSLAYER4
  6
CONTINUOUS
 62
     7
 10
480.878512
 20
181.301853
 11
480.910132
 21
181.354464
  0
LINE
  8
CSLAYER4
  6
CONTINUOUS
 62
     7
 10
480.910132
 20
181.354464
 11
480.940804
 21
181.407641
  0
LINE
  8
CSLAYER4
  6
CONTINUOUS
 62
     7
 10
480.940804
 20
181.407641
 11
480.970530
 21
181.461363
  0
LINE
  8
CSLAYER4
  6
CONTINUOUS
 62
     7
 10
480.970530
 20
181.461363
 11
480.999327
 21
181.515591
  0
LINE
  8
CSLAYER4
  6
CONTINUOUS
 62
     7
 10
480.999327
 20
181.515591
 11
481.027239
 21
181.570272
  0
LINE
  8
CSLAYER4
  6
CONTINUOUS
 62
     7
 10
481.027239
 20
181.570272
 11
481.056450
 21
181.630856
  0
LINE
  8
CSLAYER4
  6
CONTINUOUS
 62
     7
 10
481.056450
 20
181.630856
 11
481.083970
 21
181.692212
  0
LINE
  8
CSLAYER4
  6
CONTINUOUS
 62
     7
 10
481.083970
 20
181.692212
 11
481.109823
 21
181.754298
  0
LINE
  8
CSLAYER4
  6
CONTINUOUS
 62
     7
 10
481.109823
 20
181.754298
 11
481.134048
 21
181.817064
  0
LINE
  8
CSLAYER4
  6
CONTINUOUS
 62
     7
 10
481.134048
 20
181.817064
 11
481.156707
 21
181.880469
  0
LINE
  8
CSLAYER4
  6
CONTINUOUS
 62
     7
 10
481.156707
 20
181.880469
 11
481.177821
 21
181.944440
  0
LINE
  8
CSLAYER4
  6
CONTINUOUS
 62
     7
 10
481.177821
 20
181.944440
 11
481.197453
 21
182.008946
  0
LINE
  8
CSLAYER4
  6
CONTINUOUS
 62
     7
 10
481.197453
 20
182.008946
 11
481.215621
 21
182.073927
  0
LINE
  8
CSLAYER4
  6
CONTINUOUS
 62
     7
 10
481.215621
 20
182.073927
 11
481.232368
 21
182.139330
  0
LINE
  8
CSLAYER4
  6
CONTINUOUS
 62
     7
 10
481.232368
 20
182.139330
 11
481.247736
 21
182.205114
  0
LINE
  8
CSLAYER4
  6
CONTINUOUS
 62
     7
 10
481.247736
 20
182.205114
 11
481.261783
 21
182.271228
  0
LINE
  8
CSLAYER4
  6
CONTINUOUS
 62
     7
 10
481.261783
 20
182.271228
 11
481.274535
 21
182.337609
  0
LINE
  8
CSLAYER4
  6
CONTINUOUS
 62
     7
 10
481.274535
 20
182.337609
 11
481.286029
 21
182.404208
  0
LINE
  8
CSLAYER4
  6
CONTINUOUS
 62
     7
 10
481.286029
 20
182.404208
 11
481.296330
 21
182.470991
  0
LINE
  8
CSLAYER4
  6
CONTINUOUS
 62
     7
 10
481.296330
 20
182.470991
 11
481.305454
 21
182.537888
  0
LINE
  8
CSLAYER4
  6
CONTINUOUS
 62
     7
 10
481.305454
 20
182.537888
 11
481.313448
 21
182.604855
  0
LINE
  8
CSLAYER4
  6
CONTINUOUS
 62
     7
 10
481.313448
 20
182.604855
 11
481.320369
 21
182.671845
  0
LINE
  8
CSLAYER4
  6
CONTINUOUS
 62
     7
 10
481.320369
 20
182.671845
 11
481.326238
 21
182.738936
  0
LINE
  8
CSLAYER4
  6
CONTINUOUS
 62
     7
 10
481.326238
 20
182.738936
 11
481.331121
 21
182.806173
  0
LINE
  8
CSLAYER4
  6
CONTINUOUS
 62
     7
 10
481.331121
 20
182.806173
 11
481.335057
 21
182.873513
  0
LINE
  8
CSLAYER4
  6
CONTINUOUS
 62
     7
 10
481.335057
 20
182.873513
 11
481.338042
 21
182.940924
  0
LINE
  8
CSLAYER4
  6
CONTINUOUS
 62
     7
 10
481.338042
 20
182.940924
 11
481.340143
 21
183.008346
  0
LINE
  8
CSLAYER4
  6
CONTINUOUS
 62
     7
 10
481.340143
 20
183.008346
 11
481.341400
 21
183.075747
  0
LINE
  8
CSLAYER4
  6
CONTINUOUS
 62
     7
 10
481.341400
 20
183.075747
 11
481.341792
 21
183.143097
  0
LINE
  8
CSLAYER4
  6
CONTINUOUS
 62
     7
 10
481.341792
 20
183.143097
 11
481.340886
 21
183.227276
  0
LINE
  8
CSLAYER4
  6
CONTINUOUS
 62
     7
 10
481.340886
 20
183.227276
 11
481.338063
 21
183.311456
  0
LINE
  8
CSLAYER4
  6
CONTINUOUS
 62
     7
 10
481.338063
 20
183.311456
 11
481.333243
 21
183.395552
  0
LINE
  8
CSLAYER4
  6
CONTINUOUS
 62
     7
 10
481.333243
 20
183.395552
 11
481.326363
 21
183.479484
  0
LINE
  8
CSLAYER4
  6
CONTINUOUS
 62
     7
 10
481.326363
 20
183.479484
 11
481.317340
 21
183.563190
  0
LINE
  8
CSLAYER4
  6
CONTINUOUS
 62
     7
 10
481.317340
 20
183.563190
 11
481.306051
 21
183.646596
  0
LINE
  8
CSLAYER4
  6
CONTINUOUS
 62
     7
 10
481.306051
 20
183.646596
 11
481.292457
 21
183.729623
  0
LINE
  8
CSLAYER4
  6
CONTINUOUS
 62
     7
 10
481.292457
 20
183.729623
 11
481.276431
 21
183.812205
  0
LINE
  8
CSLAYER4
  6
CONTINUOUS
 62
     7
 10
481.276431
 20
183.812205
 11
481.257910
 21
183.894263
  0
LINE
  8
CSLAYER4
  6
CONTINUOUS
 62
     7
 10
481.257910
 20
183.894263
 11
481.236838
 21
183.975660
  0
LINE
  8
CSLAYER4
  6
CONTINUOUS
 62
     7
 10
481.236838
 20
183.975660
 11
481.213210
 21
184.056060
  0
LINE
  8
CSLAYER4
  6
CONTINUOUS
 62
     7
 10
481.213210
 20
184.056060
 11
481.186966
 21
184.135379
  0
LINE
  8
CSLAYER4
  6
CONTINUOUS
 62
     7
 10
481.186966
 20
184.135379
 11
481.158066
 21
184.213584
  0
LINE
  8
CSLAYER4
  6
CONTINUOUS
 62
     7
 10
481.158066
 20
184.213584
 11
481.126467
 21
184.290635
  0
LINE
  8
CSLAYER4
  6
CONTINUOUS
 62
     7
 10
481.126467
 20
184.290635
 11
481.092106
 21
184.366482
  0
LINE
  8
CSLAYER4
  6
CONTINUOUS
 62
     7
 10
481.092106
 20
184.366482
 11
481.054924
 21
184.441092
  0
LINE
  8
CSLAYER4
  6
CONTINUOUS
 62
     7
 10
481.054924
 20
184.441092
 11
481.014859
 21
184.514427
  0
LINE
  8
CSLAYER4
  6
CONTINUOUS
 62
     7
 10
481.014859
 20
184.514427
 11
480.971889
 21
184.586442
  0
LINE
  8
CSLAYER4
  6
CONTINUOUS
 62
     7
 10
480.971889
 20
184.586442
 11
480.926200
 21
184.656728
  0
LINE
  8
CSLAYER4
  6
CONTINUOUS
 62
     7
 10
480.926200
 20
184.656728
 11
480.877956
 21
184.724984
  0
LINE
  8
CSLAYER4
  6
CONTINUOUS
 62
     7
 10
480.877956
 20
184.724984
 11
480.827241
 21
184.791231
  0
LINE
  8
CSLAYER4
  6
CONTINUOUS
 62
     7
 10
480.827241
 20
184.791231
 11
480.774033
 21
184.855481
  0
LINE
  8
CSLAYER4
  6
CONTINUOUS
 62
     7
 10
480.774033
 20
184.855481
 11
480.718351
 21
184.917741
  0
LINE
  8
CSLAYER4
  6
CONTINUOUS
 62
     7
 10
480.718351
 20
184.917741
 11
480.660241
 21
184.978046
  0
LINE
  8
CSLAYER4
  6
CONTINUOUS
 62
     7
 10
480.660241
 20
184.978046
 11
480.619764
 21
185.017958
  0
LINE
  8
CSLAYER4
  6
CONTINUOUS
 62
     7
 10
480.619764
 20
185.017958
 11
480.578770
 21
185.057231
  0
LINE
  8
CSLAYER4
  6
CONTINUOUS
 62
     7
 10
480.578770
 20
185.057231
 11
480.537283
 21
185.095875
  0
LINE
  8
CSLAYER4
  6
CONTINUOUS
 62
     7
 10
480.537283
 20
185.095875
 11
480.495322
 21
185.133881
  0
LINE
  8
CSLAYER4
  6
CONTINUOUS
 62
     7
 10
480.495322
 20
185.133881
 11
480.452868
 21
185.171258
  0
LINE
  8
CSLAYER4
  6
CONTINUOUS
 62
     7
 10
480.452868
 20
185.171258
 11
480.409917
 21
185.208008
  0
LINE
  8
CSLAYER4
  6
CONTINUOUS
 62
     7
 10
480.409917
 20
185.208008
 11
480.366474
 21
185.244129
  0
LINE
  8
CSLAYER4
  6
CONTINUOUS
 62
     7
 10
480.366474
 20
185.244129
 11
480.322576
 21
185.279631
  0
LINE
  8
CSLAYER4
  6
CONTINUOUS
 62
     7
 10
480.322576
 20
185.279631
 11
480.278184
 21
185.314517
  0
LINE
  8
CSLAYER4
  6
CONTINUOUS
 62
     7
 10
480.278184
 20
185.314517
 11
480.233319
 21
185.348783
  0
LINE
  8
CSLAYER4
  6
CONTINUOUS
 62
     7
 10
480.233319
 20
185.348783
 11
480.187980
 21
185.382432
  0
LINE
  8
CSLAYER4
  6
CONTINUOUS
 62
     7
 10
480.187980
 20
185.382432
 11
480.142188
 21
185.415474
  0
LINE
  8
CSLAYER4
  6
CONTINUOUS
 62
     7
 10
480.142188
 20
185.415474
 11
480.095922
 21
185.447918
  0
LINE
  8
CSLAYER4
  6
CONTINUOUS
 62
     7
 10
480.095922
 20
185.447918
 11
480.049201
 21
185.479745
  0
LINE
  8
CSLAYER4
  6
CONTINUOUS
 62
     7
 10
480.049201
 20
185.479745
 11
480.002010
 21
185.510984
  0
LINE
  8
CSLAYER4
  6
CONTINUOUS
 62
     7
 10
480.002010
 20
185.510984
 11
479.954383
 21
185.541615
  0
LINE
  8
CSLAYER4
  6
CONTINUOUS
 62
     7
 10
479.954383
 20
185.541615
 11
479.906284
 21
185.571648
  0
LINE
  8
CSLAYER4
  6
CONTINUOUS
 62
     7
 10
479.906284
 20
185.571648
 11
479.857752
 21
185.601084
  0
LINE
  8
CSLAYER4
  6
CONTINUOUS
 62
     7
 10
479.857752
 20
185.601084
 11
479.808849
 21
185.629883
  0
LINE
  8
CSLAYER4
  6
CONTINUOUS
 62
     7
 10
479.808849
 20
185.629883
 11
479.759616
 21
185.658053
  0
LINE
  8
CSLAYER4
  6
CONTINUOUS
 62
     7
 10
479.759616
 20
185.658053
 11
479.710033
 21
185.685584
  0
LINE
  8
CSLAYER4
  6
CONTINUOUS
 62
     7
 10
479.710033
 20
185.685584
 11
479.660101
 21
185.712495
  0
LINE
  8
CSLAYER4
  6
CONTINUOUS
 62
     7
 10
479.660101
 20
185.712495
 11
479.609859
 21
185.738781
  0
LINE
  8
CSLAYER4
  6
CONTINUOUS
 62
     7
 10
479.609859
 20
185.738781
 11
479.559267
 21
185.764448
  0
LINE
  8
CSLAYER4
  6
CONTINUOUS
 62
     7
 10
477.776749
 20
186.550860
 11
479.559273
 21
185.764452
  0
LINE
  8
CSLAYER4
  6
CONTINUOUS
 62
     7
 10
477.776752
 20
186.550859
 11
477.738468
 21
186.566433
  0
LINE
  8
CSLAYER4
  6
CONTINUOUS
 62
     7
 10
477.738468
 20
186.566433
 11
477.700299
 21
186.582480
  0
LINE
  8
CSLAYER4
  6
CONTINUOUS
 62
     7
 10
477.700299
 20
186.582480
 11
477.662262
 21
186.599010
  0
LINE
  8
CSLAYER4
  6
CONTINUOUS
 62
     7
 10
477.662262
 20
186.599010
 11
477.624379
 21
186.616046
  0
LINE
  8
CSLAYER4
  6
CONTINUOUS
 62
     7
 10
477.624379
 20
186.616046
 11
477.586692
 21
186.633576
  0
LINE
  8
CSLAYER4
  6
CONTINUOUS
 62
     7
 10
477.586692
 20
186.633576
 11
477.549211
 21
186.651632
  0
LINE
  8
CSLAYER4
  6
CONTINUOUS
 62
     7
 10
477.549211
 20
186.651632
 11
477.511957
 21
186.670212
  0
LINE
  8
CSLAYER4
  6
CONTINUOUS
 62
     7
 10
477.511957
 20
186.670212
 11
477.474972
 21
186.689318
  0
LINE
  8
CSLAYER4
  6
CONTINUOUS
 62
     7
 10
477.474972
 20
186.689318
 11
477.438264
 21
186.708969
  0
LINE
  8
CSLAYER4
  6
CONTINUOUS
 62
     7
 10
477.438264
 20
186.708969
 11
477.401865
 21
186.729167
  0
LINE
  8
CSLAYER4
  6
CONTINUOUS
 62
     7
 10
477.401865
 20
186.729167
 11
477.365796
 21
186.749933
  0
LINE
  8
CSLAYER4
  6
CONTINUOUS
 62
     7
 10
477.365796
 20
186.749933
 11
477.330085
 21
186.771263
  0
LINE
  8
CSLAYER4
  6
CONTINUOUS
 62
     7
 10
477.330085
 20
186.771263
 11
477.294759
 21
186.793160
  0
LINE
  8
CSLAYER4
  6
CONTINUOUS
 62
     7
 10
477.294759
 20
186.793160
 11
477.259831
 21
186.815654
  0
LINE
  8
CSLAYER4
  6
CONTINUOUS
 62
     7
 10
477.259831
 20
186.815654
 11
477.225328
 21
186.838746
  0
LINE
  8
CSLAYER4
  6
CONTINUOUS
 62
     7
 10
477.225328
 20
186.838746
 11
477.191287
 21
186.862446
  0
LINE
  8
CSLAYER4
  6
CONTINUOUS
 62
     7
 10
477.191287
 20
186.862446
 11
477.157720
 21
186.886752
  0
LINE
  8
CSLAYER4
  6
CONTINUOUS
 62
     7
 10
477.157720
 20
186.886752
 11
477.124669
 21
186.911678
  0
LINE
  8
CSLAYER4
  6
CONTINUOUS
 62
     7
 10
477.124669
 20
186.911678
 11
477.092122
 21
186.937242
  0
LINE
  8
CSLAYER4
  6
CONTINUOUS
 62
     7
 10
477.092122
 20
186.937242
 11
477.060121
 21
186.963476
  0
LINE
  8
CSLAYER4
  6
CONTINUOUS
 62
     7
 10
477.060121
 20
186.963476
 11
477.028666
 21
186.990357
  0
LINE
  8
CSLAYER4
  6
CONTINUOUS
 62
     7
 10
477.028666
 20
186.990357
 11
476.997798
 21
187.017930
  0
LINE
  8
CSLAYER4
  6
CONTINUOUS
 62
     7
 10
476.997798
 20
187.017930
 11
476.967537
 21
187.046181
  0
LINE
  8
CSLAYER4
  6
CONTINUOUS
 62
     7
 10
476.967537
 20
187.046181
 11
476.937915
 21
187.075134
  0
LINE
  8
CSLAYER4
  6
CONTINUOUS
 62
     7
 10
476.937915
 20
187.075134
 11
476.914030
 21
187.099637
  0
LINE
  8
CSLAYER4
  6
CONTINUOUS
 62
     7
 10
476.914030
 20
187.099637
 11
476.890845
 21
187.124748
  0
LINE
  8
CSLAYER4
  6
CONTINUOUS
 62
     7
 10
476.890845
 20
187.124748
 11
476.868372
 21
187.150455
  0
LINE
  8
CSLAYER4
  6
CONTINUOUS
 62
     7
 10
476.868372
 20
187.150455
 11
476.846659
 21
187.176782
  0
LINE
  8
CSLAYER4
  6
CONTINUOUS
 62
     7
 10
476.846659
 20
187.176782
 11
476.825731
 21
187.203735
  0
LINE
  8
CSLAYER4
  6
CONTINUOUS
 62
     7
 10
476.825731
 20
187.203735
 11
476.805636
 21
187.231319
  0
LINE
  8
CSLAYER4
  6
CONTINUOUS
 62
     7
 10
476.805636
 20
187.231319
 11
476.786397
 21
187.259550
  0
LINE
  8
CSLAYER4
  6
CONTINUOUS
 62
     7
 10
476.786397
 20
187.259550
 11
476.768053
 21
187.288421
  0
LINE
  8
CSLAYER4
  6
CONTINUOUS
 62
     7
 10
476.768053
 20
187.288421
 11
476.750626
 21
187.317959
  0
LINE
  8
CSLAYER4
  6
CONTINUOUS
 62
     7
 10
476.750626
 20
187.317959
 11
476.734230
 21
187.348055
  0
LINE
  8
CSLAYER4
  6
CONTINUOUS
 62
     7
 10
476.734230
 20
187.348055
 11
476.718934
 21
187.378583
  0
LINE
  8
CSLAYER4
  6
CONTINUOUS
 62
     7
 10
476.718934
 20
187.378583
 11
476.704741
 21
187.409544
  0
LINE
  8
CSLAYER4
  6
CONTINUOUS
 62
     7
 10
476.704741
 20
187.409544
 11
476.691681
 21
187.440938
  0
LINE
  8
CSLAYER4
  6
CONTINUOUS
 62
     7
 10
476.691681
 20
187.440938
 11
476.679733
 21
187.472763
  0
LINE
  8
CSLAYER4
  6
CONTINUOUS
 62
     7
 10
476.679733
 20
187.472763
 11
476.668918
 21
187.505033
  0
LINE
  8
CSLAYER4
  6
CONTINUOUS
 62
     7
 10
476.668918
 20
187.505033
 11
476.659237
 21
187.537734
  0
LINE
  8
CSLAYER4
  6
CONTINUOUS
 62
     7
 10
476.659237
 20
187.537734
 11
476.650698
 21
187.570868
  0
LINE
  8
CSLAYER4
  6
CONTINUOUS
 62
     7
 10
476.650698
 20
187.570868
 11
476.643313
 21
187.604445
  0
LINE
  8
CSLAYER4
  6
CONTINUOUS
 62
     7
 10
476.643313
 20
187.604445
 11
476.637112
 21
187.638239
  0
LINE
  8
CSLAYER4
  6
CONTINUOUS
 62
     7
 10
476.637112
 20
187.638239
 11
476.632098
 21
187.672176
  0
LINE
  8
CSLAYER4
  6
CONTINUOUS
 62
     7
 10
476.632098
 20
187.672176
 11
476.628234
 21
187.706237
  0
LINE
  8
CSLAYER4
  6
CONTINUOUS
 62
     7
 10
476.628234
 20
187.706237
 11
476.625505
 21
187.740422
  0
LINE
  8
CSLAYER4
  6
CONTINUOUS
 62
     7
 10
476.625505
 20
187.740422
 11
476.623888
 21
187.774719
  0
LINE
  8
CSLAYER4
  6
CONTINUOUS
 62
     7
 10
476.623888
 20
187.774719
 11
476.623353
 21
187.809110
  0
LINE
  8
CSLAYER4
  6
CONTINUOUS
 62
     7
 10
476.623353
 20
187.809110
 11
476.623981
 21
187.866561
  0
LINE
  8
CSLAYER4
  6
CONTINUOUS
 62
     7
 10
476.623981
 20
187.866561
 11
476.625918
 21
187.924158
  0
LINE
  8
CSLAYER4
  6
CONTINUOUS
 62
     7
 10
476.625918
 20
187.924158
 11
476.629254
 21
187.981794
  0
LINE
  8
CSLAYER4
  6
CONTINUOUS
 62
     7
 10
476.629254
 20
187.981794
 11
476.634075
 21
188.039381
  0
LINE
  8
CSLAYER4
  6
CONTINUOUS
 62
     7
 10
476.634075
 20
188.039381
 11
476.640471
 21
188.096822
  0
LINE
  8
CSLAYER4
  6
CONTINUOUS
 62
     7
 10
476.640471
 20
188.096822
 11
476.648515
 21
188.154005
  0
LINE
  8
CSLAYER4
  6
CONTINUOUS
 62
     7
 10
476.648515
 20
188.154005
 11
476.658310
 21
188.210859
  0
LINE
  8
CSLAYER4
  6
CONTINUOUS
 62
     7
 10
476.658310
 20
188.210859
 11
476.669938
 21
188.267280
  0
LINE
  8
CSLAYER4
  6
CONTINUOUS
 62
     7
 10
476.669938
 20
188.267280
 11
476.683483
 21
188.323157
  0
LINE
  8
CSLAYER4
  6
CONTINUOUS
 62
     7
 10
476.683483
 20
188.323157
 11
476.699025
 21
188.378405
  0
LINE
  8
CSLAYER4
  6
CONTINUOUS
 62
     7
 10
476.699025
 20
188.378405
 11
476.716648
 21
188.432858
  0
LINE
  8
CSLAYER4
  6
CONTINUOUS
 62
     7
 10
476.716648
 20
188.432858
 11
476.736351
 21
188.486294
  0
LINE
  8
CSLAYER4
  6
CONTINUOUS
 62
     7
 10
476.736351
 20
188.486294
 11
476.758216
 21
188.538636
  0
LINE
  8
CSLAYER4
  6
CONTINUOUS
 62
     7
 10
476.758216
 20
188.538636
 11
476.782308
 21
188.589825
  0
LINE
  8
CSLAYER4
  6
CONTINUOUS
 62
     7
 10
476.782308
 20
188.589825
 11
476.808685
 21
188.639799
  0
LINE
  8
CSLAYER4
  6
CONTINUOUS
 62
     7
 10
476.808685
 20
188.639799
 11
476.837421
 21
188.688465
  0
LINE
  8
CSLAYER4
  6
CONTINUOUS
 62
     7
 10
476.837421
 20
188.688465
 11
476.868568
 21
188.735793
  0
LINE
  8
CSLAYER4
  6
CONTINUOUS
 62
     7
 10
476.868568
 20
188.735793
 11
476.902206
 21
188.781689
  0
LINE
  8
CSLAYER4
  6
CONTINUOUS
 62
     7
 10
476.902206
 20
188.781689
 11
476.938194
 21
188.825843
  0
LINE
  8
CSLAYER4
  6
CONTINUOUS
 62
     7
 10
476.938194
 20
188.825843
 11
476.976178
 21
188.867867
  0
LINE
  8
CSLAYER4
  6
CONTINUOUS
 62
     7
 10
476.976178
 20
188.867867
 11
477.016152
 21
188.907756
  0
LINE
  8
CSLAYER4
  6
CONTINUOUS
 62
     7
 10
477.016152
 20
188.907756
 11
477.058072
 21
188.945546
  0
LINE
  8
CSLAYER4
  6
CONTINUOUS
 62
     7
 10
477.058072
 20
188.945546
 11
477.101907
 21
188.981265
  0
LINE
  8
CSLAYER4
  6
CONTINUOUS
 62
     7
 10
477.101907
 20
188.981265
 11
477.147627
 21
189.014936
  0
LINE
  8
CSLAYER4
  6
CONTINUOUS
 62
     7
 10
477.147627
 20
189.014936
 11
477.189733
 21
189.043373
  0
LINE
  8
CSLAYER4
  6
CONTINUOUS
 62
     7
 10
477.189733
 20
189.043373
 11
477.232641
 21
189.070245
  0
LINE
  8
CSLAYER4
  6
CONTINUOUS
 62
     7
 10
477.232641
 20
189.070245
 11
477.276352
 21
189.095478
  0
LINE
  8
CSLAYER4
  6
CONTINUOUS
 62
     7
 10
477.276352
 20
189.095478
 11
477.320868
 21
189.119024
  0
LINE
  8
CSLAYER4
  6
CONTINUOUS
 62
     7
 10
477.320868
 20
189.119024
 11
477.366217
 21
189.140819
  0
LINE
  8
CSLAYER4
  6
CONTINUOUS
 62
     7
 10
477.366217
 20
189.140819
 11
477.412390
 21
189.160790
  0
LINE
  8
CSLAYER4
  6
CONTINUOUS
 62
     7
 10
477.412390
 20
189.160790
 11
477.459399
 21
189.178886
  0
LINE
  8
CSLAYER4
  6
CONTINUOUS
 62
     7
 10
477.459399
 20
189.178886
 11
477.507241
 21
189.195035
  0
LINE
  8
CSLAYER4
  6
CONTINUOUS
 62
     7
 10
477.507241
 20
189.195035
 11
477.555927
 21
189.209177
  0
LINE
  8
CSLAYER4
  6
CONTINUOUS
 62
     7
 10
477.555927
 20
189.209177
 11
477.605047
 21
189.221154
  0
LINE
  8
CSLAYER4
  6
CONTINUOUS
 62
     7
 10
477.605047
 20
189.221154
 11
477.654361
 21
189.230930
  0
LINE
  8
CSLAYER4
  6
CONTINUOUS
 62
     7
 10
477.654361
 20
189.230930
 11
477.703872
 21
189.238520
  0
LINE
  8
CSLAYER4
  6
CONTINUOUS
 62
     7
 10
477.703872
 20
189.238520
 11
477.753567
 21
189.243959
  0
LINE
  8
CSLAYER4
  6
CONTINUOUS
 62
     7
 10
477.753567
 20
189.243959
 11
477.803460
 21
189.247265
  0
LINE
  8
CSLAYER4
  6
CONTINUOUS
 62
     7
 10
477.803460
 20
189.247265
 11
477.853525
 21
189.248469
  0
LINE
  8
CSLAYER4
  6
CONTINUOUS
 62
     7
 10
477.853525
 20
189.248469
 11
477.903778
 21
189.247595
  0
LINE
  8
CSLAYER4
  6
CONTINUOUS
 62
     7
 10
477.903778
 20
189.247595
 11
477.954195
 21
189.244659
  0
LINE
  8
CSLAYER4
  6
CONTINUOUS
 62
     7
 10
477.954195
 20
189.244659
 11
478.004694
 21
189.239705
  0
LINE
  8
CSLAYER4
  6
CONTINUOUS
 62
     7
 10
478.004694
 20
189.239705
 11
478.054947
 21
189.232826
  0
LINE
  8
CSLAYER4
  6
CONTINUOUS
 62
     7
 10
478.054947
 20
189.232826
 11
478.104880
 21
189.224081
  0
LINE
  8
CSLAYER4
  6
CONTINUOUS
 62
     7
 10
478.104880
 20
189.224081
 11
478.154472
 21
189.213575
  0
LINE
  8
CSLAYER4
  6
CONTINUOUS
 62
     7
 10
478.154472
 20
189.213575
 11
478.203705
 21
189.201369
  0
LINE
  8
CSLAYER4
  6
CONTINUOUS
 62
     7
 10
478.203705
 20
189.201369
 11
478.252567
 21
189.187557
  0
LINE
  8
CSLAYER4
  6
CONTINUOUS
 62
     7
 10
478.252567
 20
189.187557
 11
478.301017
 21
189.172221
  0
LINE
  8
CSLAYER4
  6
CONTINUOUS
 62
     7
 10
478.301017
 20
189.172221
 11
478.388389
 21
189.141941
  0
LINE
  8
CSLAYER4
  6
CONTINUOUS
 62
     7
 10
478.388389
 20
189.141941
 11
478.473628
 21
189.106829
  0
LINE
  8
CSLAYER4
  6
CONTINUOUS
 62
     7
 10
478.473628
 20
189.106829
 11
478.556613
 21
189.066711
  0
LINE
  8
CSLAYER4
  6
CONTINUOUS
 62
     7
 10
478.556613
 20
189.066711
 11
478.637239
 21
189.021444
  0
LINE
  8
CSLAYER4
  6
CONTINUOUS
 62
     7
 10
478.637239
 20
189.021444
 11
478.715043
 21
188.971079
  0
LINE
  8
CSLAYER4
  6
CONTINUOUS
 62
     7
 10
478.715043
 20
188.971079
 11
478.789222
 21
188.916110
  0
LINE
  8
CSLAYER4
  6
CONTINUOUS
 62
     7
 10
478.789222
 20
188.916110
 11
478.859712
 21
188.856629
  0
LINE
  8
CSLAYER4
  6
CONTINUOUS
 62
     7
 10
478.859712
 20
188.856629
 11
478.926598
 21
188.792699
  0
LINE
  8
CSLAYER4
  6
CONTINUOUS
 62
     7
 10
478.926598
 20
188.792699
 11
478.989777
 21
188.724483
  0
LINE
  8
CSLAYER4
  6
CONTINUOUS
 62
     7
 10
478.989777
 20
188.724483
 11
479.048733
 21
188.652849
  0
LINE
  8
CSLAYER4
  6
CONTINUOUS
 62
     7
 10
479.048733
 20
188.652849
 11
479.103486
 21
188.578167
  0
LINE
  8
CSLAYER4
  6
CONTINUOUS
 62
     7
 10
479.103486
 20
188.578167
 11
479.154222
 21
188.500692
  0
LINE
  8
CSLAYER4
  6
CONTINUOUS
 62
     7
 10
479.154222
 20
188.500692
 11
479.201064
 21
188.420715
  0
LINE
  8
CSLAYER4
  6
CONTINUOUS
 62
     7
 10
479.201064
 20
188.420715
 11
479.244199
 21
188.338482
  0
LINE
  8
CSLAYER4
  6
CONTINUOUS
 62
     7
 10
479.244199
 20
188.338482
 11
479.283771
 21
188.254272
  0
LINE
  8
CSLAYER4
  6
CONTINUOUS
 62
     7
 10
479.283771
 20
188.254272
 11
479.319943
 21
188.168342
  0
LINE
  8
CSLAYER4
  6
CONTINUOUS
 62
     7
 10
479.319943
 20
188.168342
 11
479.352882
 21
188.080949
  0
LINE
  8
CSLAYER4
  6
CONTINUOUS
 62
     7
 10
479.352882
 20
188.080949
 11
479.382813
 21
187.992135
  0
LINE
  8
CSLAYER4
  6
CONTINUOUS
 62
     7
 10
479.382813
 20
187.992135
 11
479.409859
 21
187.902105
  0
LINE
  8
CSLAYER4
  6
CONTINUOUS
 62
     7
 10
479.409859
 20
187.902105
 11
479.434167
 21
187.811088
  0
LINE
  8
CSLAYER4
  6
CONTINUOUS
 62
     7
 10
479.434167
 20
187.811088
 11
479.455899
 21
187.719348
  0
LINE
  8
CSLAYER4
  6
CONTINUOUS
 62
     7
 10
479.455899
 20
187.719348
 11
479.475159
 21
187.627104
  0
LINE
  8
CSLAYER4
  6
CONTINUOUS
 62
     7
 10
479.475159
 20
187.627104
 11
479.492092
 21
187.534613
  0
LINE
  8
CSLAYER4
  6
CONTINUOUS
 62
     7
 10
479.492092
 20
187.534613
 11
479.506842
 21
187.442123
  0
LINE
  8
CSLAYER4
  6
CONTINUOUS
 62
     7
 10
481.079661
 20
187.442123
 11
479.506846
 21
187.442123
  0
LINE
  8
CSLAYER4
  6
CONTINUOUS
 62
     7
 10
481.079665
 20
187.442123
 11
481.074804
 21
187.551978
  0
LINE
  8
CSLAYER4
  6
CONTINUOUS
 62
     7
 10
481.074804
 20
187.551978
 11
481.067739
 21
187.661804
  0
LINE
  8
CSLAYER4
  6
CONTINUOUS
 62
     7
 10
481.067739
 20
187.661804
 11
481.058365
 21
187.771506
  0
LINE
  8
CSLAYER4
  6
CONTINUOUS
 62
     7
 10
481.058365
 20
187.771506
 11
481.046602
 21
187.880991
  0
LINE
  8
CSLAYER4
  6
CONTINUOUS
 62
     7
 10
481.046602
 20
187.880991
 11
481.032348
 21
187.990169
  0
LINE
  8
CSLAYER4
  6
CONTINUOUS
 62
     7
 10
481.032348
 20
187.990169
 11
481.015498
 21
188.098934
  0
LINE
  8
CSLAYER4
  6
CONTINUOUS
 62
     7
 10
481.015498
 20
188.098934
 11
480.995970
 21
188.207204
  0
LINE
  8
CSLAYER4
  6
CONTINUOUS
 62
     7
 10
480.995970
 20
188.207204
 11
480.973681
 21
188.314886
  0
LINE
  8
CSLAYER4
  6
CONTINUOUS
 62
     7
 10
480.973681
 20
188.314886
 11
480.948489
 21
188.421869
  0
LINE
  8
CSLAYER4
  6
CONTINUOUS
 62
     7
 10
480.948489
 20
188.421869
 11
480.920370
 21
188.528037
  0
LINE
  8
CSLAYER4
  6
CONTINUOUS
 62
     7
 10
480.920370
 20
188.528037
 11
480.889224
 21
188.633115
  0
LINE
  8
CSLAYER4
  6
CONTINUOUS
 62
     7
 10
480.889224
 20
188.633115
 11
480.855049
 21
188.736989
  0
LINE
  8
CSLAYER4
  6
CONTINUOUS
 62
     7
 10
480.855049
 20
188.736989
 11
480.817723
 21
188.839604
  0
LINE
  8
CSLAYER4
  6
CONTINUOUS
 62
     7
 10
480.817723
 20
188.839604
 11
480.777184
 21
188.940870
  0
LINE
  8
CSLAYER4
  6
CONTINUOUS
 62
     7
 10
480.777184
 20
188.940870
 11
480.733348
 21
189.040725
  0
LINE
  8
CSLAYER4
  6
CONTINUOUS
 62
     7
 10
480.733348
 20
189.040725
 11
480.686155
 21
189.139097
  0
LINE
  8
CSLAYER4
  6
CONTINUOUS
 62
     7
 10
480.686155
 20
189.139097
 11
480.635523
 21
189.235925
  0
LINE
  8
CSLAYER4
  6
CONTINUOUS
 62
     7
 10
480.635523
 20
189.235925
 11
480.581367
 21
189.331134
  0
LINE
  8
CSLAYER4
  6
CONTINUOUS
 62
     7
 10
480.581367
 20
189.331134
 11
480.523833
 21
189.424328
  0
LINE
  8
CSLAYER4
  6
CONTINUOUS
 62
     7
 10
480.523833
 20
189.424328
 11
480.463126
 21
189.515097
  0
LINE
  8
CSLAYER4
  6
CONTINUOUS
 62
     7
 10
480.463126
 20
189.515097
 11
480.399226
 21
189.603438
  0
LINE
  8
CSLAYER4
  6
CONTINUOUS
 62
     7
 10
480.399226
 20
189.603438
 11
480.332134
 21
189.689328
  0
LINE
  8
CSLAYER4
  6
CONTINUOUS
 62
     7
 10
480.332134
 20
189.689328
 11
480.261870
 21
189.772776
  0
LINE
  8
CSLAYER4
  6
CONTINUOUS
 62
     7
 10
480.261870
 20
189.772776
 11
480.188392
 21
189.853772
  0
LINE
  8
CSLAYER4
  6
CONTINUOUS
 62
     7
 10
480.188392
 20
189.853772
 11
480.114090
 21
189.933954
  0
LINE
  8
CSLAYER4
  6
CONTINUOUS
 62
     7
 10
480.114090
 20
189.933954
 11
480.037584
 21
190.011677
  0
LINE
  8
CSLAYER4
  6
CONTINUOUS
 62
     7
 10
480.037584
 20
190.011677
 11
479.958853
 21
190.086824
  0
LINE
  8
CSLAYER4
  6
CONTINUOUS
 62
     7
 10
479.958853
 20
190.086824
 11
479.877837
 21
190.159250
  0
LINE
  8
CSLAYER4
  6
CONTINUOUS
 62
     7
 10
479.877837
 20
190.159250
 11
479.794533
 21
190.228835
  0
LINE
  8
CSLAYER4
  6
CONTINUOUS
 62
     7
 10
479.794533
 20
190.228835
 11
479.708880
 21
190.295453
  0
LINE
  8
CSLAYER4
  6
CONTINUOUS
 62
     7
 10
479.708880
 20
190.295453
 11
479.620818
 21
190.358972
  0
LINE
  8
CSLAYER4
  6
CONTINUOUS
 62
     7
 10
479.620818
 20
190.358972
 11
479.530366
 21
190.419255
  0
LINE
  8
CSLAYER4
  6
CONTINUOUS
 62
     7
 10
479.530366
 20
190.419255
 11
479.437422
 21
190.476182
  0
LINE
  8
CSLAYER4
  6
CONTINUOUS
 62
     7
 10
479.437422
 20
190.476182
 11
479.342499
 21
190.529339
  0
LINE
  8
CSLAYER4
  6
CONTINUOUS
 62
     7
 10
479.342499
 20
190.529339
 11
479.246095
 21
190.578426
  0
LINE
  8
CSLAYER4
  6
CONTINUOUS
 62
     7
 10
479.246095
 20
190.578426
 11
479.148207
 21
190.623458
  0
LINE
  8
CSLAYER4
  6
CONTINUOUS
 62
     7
 10
479.148207
 20
190.623458
 11
479.048815
 21
190.664420
  0
LINE
  8
CSLAYER4
  6
CONTINUOUS
 62
     7
 10
479.048815
 20
190.664420
 11
478.947939
 21
190.701333
  0
LINE
  8
CSLAYER4
  6
CONTINUOUS
 62
     7
 10
478.947939
 20
190.701333
 11
478.845582
 21
190.734198
  0
LINE
  8
CSLAYER4
  6
CONTINUOUS
 62
     7
 10
478.845582
 20
190.734198
 11
478.741761
 21
190.763018
  0
LINE
  8
CSLAYER4
  6
CONTINUOUS
 62
     7
 10
478.741761
 20
190.763018
 11
478.636435
 21
190.787810
  0
LINE
  8
CSLAYER4
  6
CONTINUOUS
 62
     7
 10
478.636435
 20
190.787810
 11
478.529742
 21
190.808552
  0
LINE
  8
CSLAYER4
  6
CONTINUOUS
 62
     7
 10
478.529742
 20
190.808552
 11
478.422450
 21
190.825166
  0
LINE
  8
CSLAYER4
  6
CONTINUOUS
 62
     7
 10
478.422450
 20
190.825166
 11
478.314798
 21
190.837731
  0
LINE
  8
CSLAYER4
  6
CONTINUOUS
 62
     7
 10
478.314798
 20
190.837731
 11
478.206826
 21
190.846364
  0
LINE
  8
CSLAYER4
  6
CONTINUOUS
 62
     7
 10
478.206826
 20
190.846364
 11
478.098597
 21
190.851194
  0
LINE
  8
CSLAYER4
  6
CONTINUOUS
 62
     7
 10
478.098597
 20
190.851194
 11
477.990172
 21
190.852326
  0
LINE
  8
CSLAYER4
  6
CONTINUOUS
 62
     7
 10
477.990172
 20
190.852326
 11
477.881604
 21
190.849884
  0
LINE
  8
CSLAYER4
  6
CONTINUOUS
 62
     7
 10
477.881604
 20
190.849884
 11
477.767431
 21
190.843818
  0
LINE
  8
CSLAYER4
  6
CONTINUOUS
 62
     7
 10
477.767431
 20
190.843818
 11
477.653919
 21
190.834025
  0
LINE
  8
CSLAYER4
  6
CONTINUOUS
 62
     7
 10
477.653919
 20
190.834025
 11
477.541086
 21
190.820418
  0
LINE
  8
CSLAYER4
  6
CONTINUOUS
 62
     7
 10
477.541086
 20
190.820418
 11
477.428994
 21
190.802909
  0
LINE
  8
CSLAYER4
  6
CONTINUOUS
 62
     7
 10
477.428994
 20
190.802909
 11
477.317674
 21
190.781412
  0
LINE
  8
CSLAYER4
  6
CONTINUOUS
 62
     7
 10
477.317674
 20
190.781412
 11
477.207180
 21
190.755839
  0
LINE
  8
CSLAYER4
  6
CONTINUOUS
 62
     7
 10
477.207180
 20
190.755839
 11
477.097551
 21
190.726094
  0
LINE
  8
CSLAYER4
  6
CONTINUOUS
 62
     7
 10
477.097551
 20
190.726094
 11
476.988826
 21
190.692104
  0
LINE
  8
CSLAYER4
  6
CONTINUOUS
 62
     7
 10
476.988826
 20
190.692104
 11
476.881081
 21
190.653779
  0
LINE
  8
CSLAYER4
  6
CONTINUOUS
 62
     7
 10
476.881081
 20
190.653779
 11
476.775129
 21
190.611365
  0
LINE
  8
CSLAYER4
  6
CONTINUOUS
 62
     7
 10
476.775129
 20
190.611365
 11
476.671348
 21
190.565037
  0
LINE
  8
CSLAYER4
  6
CONTINUOUS
 62
     7
 10
476.671348
 20
190.565037
 11
476.569702
 21
190.514847
  0
LINE
  8
CSLAYER4
  6
CONTINUOUS
 62
     7
 10
476.569702
 20
190.514847
 11
476.470165
 21
190.460835
  0
LINE
  8
CSLAYER4
  6
CONTINUOUS
 62
     7
 10
476.470165
 20
190.460835
 11
476.372740
 21
190.403054
  0
LINE
  8
CSLAYER4
  6
CONTINUOUS
 62
     7
 10
476.372740
 20
190.403054
 11
476.277396
 21
190.341564
  0
LINE
  8
CSLAYER4
  6
CONTINUOUS
 62
     7
 10
476.277396
 20
190.341564
 11
476.184112
 21
190.276389
  0
LINE
  8
CSLAYER4
  6
CONTINUOUS
 62
     7
 10
476.184112
 20
190.276389
 11
476.092867
 21
190.207598
  0
LINE
  8
CSLAYER4
  6
CONTINUOUS
 62
     7
 10
476.092867
 20
190.207598
 11
476.003755
 21
190.135314
  0
LINE
  8
CSLAYER4
  6
CONTINUOUS
 62
     7
 10
476.003755
 20
190.135314
 11
475.917216
 21
190.060023
  0
LINE
  8
CSLAYER4
  6
CONTINUOUS
 62
     7
 10
475.917216
 20
190.060023
 11
475.833253
 21
189.981911
  0
LINE
  8
CSLAYER4
  6
CONTINUOUS
 62
     7
 10
475.833253
 20
189.981911
 11
475.751845
 21
189.901121
  0
LINE
  8
CSLAYER4
  6
CONTINUOUS
 62
     7
 10
475.751845
 20
189.901121
 11
475.672918
 21
189.817796
  0
LINE
  8
CSLAYER4
  6
CONTINUOUS
 62
     7
 10
475.672918
 20
189.817796
 11
475.596454
 21
189.732060
  0
LINE
  8
CSLAYER4
  6
CONTINUOUS
 62
     7
 10
475.596454
 20
189.732060
 11
475.522378
 21
189.644060
  0
LINE
  8
CSLAYER4
  6
CONTINUOUS
 62
     7
 10
475.522378
 20
189.644060
 11
475.470262
 21
189.572508
  0
LINE
  8
CSLAYER4
  6
CONTINUOUS
 62
     7
 10
475.470262
 20
189.572508
 11
475.420299
 21
189.499668
  0
LINE
  8
CSLAYER4
  6
CONTINUOUS
 62
     7
 10
475.420299
 20
189.499668
 11
475.372498
 21
189.425562
  0
LINE
  8
CSLAYER4
  6
CONTINUOUS
 62
     7
 10
475.372498
 20
189.425562
 11
475.326891
 21
189.350169
  0
LINE
  8
CSLAYER4
  6
CONTINUOUS
 62
     7
 10
475.326891
 20
189.350169
 11
475.283488
 21
189.273488
  0
LINE
  8
CSLAYER4
  6
CONTINUOUS
 62
     7
 10
475.283488
 20
189.273488
 11
475.242289
 21
189.195509
  0
LINE
  8
CSLAYER4
  6
CONTINUOUS
 62
     7
 10
475.242289
 20
189.195509
 11
475.203315
 21
189.116232
  0
LINE
  8
CSLAYER4
  6
CONTINUOUS
 62
     7
 10
475.203315
 20
189.116232
 11
475.166575
 21
189.035637
  0
LINE
  8
CSLAYER4
  6
CONTINUOUS
 62
     7
 10
475.166575
 20
189.035637
 11
475.132104
 21
188.953776
  0
LINE
  8
CSLAYER4
  6
CONTINUOUS
 62
     7
 10
475.132104
 20
188.953776
 11
475.100071
 21
188.871038
  0
LINE
  8
CSLAYER4
  6
CONTINUOUS
 62
     7
 10
475.100071
 20
188.871038
 11
475.070481
 21
188.787570
  0
LINE
  8
CSLAYER4
  6
CONTINUOUS
 62
     7
 10
475.070481
 20
188.787570
 11
475.043310
 21
188.703390
  0
LINE
  8
CSLAYER4
  6
CONTINUOUS
 62
     7
 10
475.043310
 20
188.703390
 11
475.018507
 21
188.618510
  0
LINE
  8
CSLAYER4
  6
CONTINUOUS
 62
     7
 10
475.018507
 20
188.618510
 11
474.996064
 21
188.532941
  0
LINE
  8
CSLAYER4
  6
CONTINUOUS
 62
     7
 10
474.996064
 20
188.532941
 11
474.975928
 21
188.446722
  0
LINE
  8
CSLAYER4
  6
CONTINUOUS
 62
     7
 10
474.975928
 20
188.446722
 11
474.958069
 21
188.359854
  0
LINE
  8
CSLAYER4
  6
CONTINUOUS
 62
     7
 10
474.958069
 20
188.359854
 11
474.942465
 21
188.272370
  0
LINE
  8
CSLAYER4
  6
CONTINUOUS
 62
     7
 10
474.942465
 20
188.272370
 11
474.929076
 21
188.184338
  0
LINE
  8
CSLAYER4
  6
CONTINUOUS
 62
     7
 10
474.929076
 20
188.184338
 11
474.917890
 21
188.096028
  0
LINE
  8
CSLAYER4
  6
CONTINUOUS
 62
     7
 10
474.917890
 20
188.096028
 11
474.908868
 21
188.007492
  0
LINE
  8
CSLAYER4
  6
CONTINUOUS
 62
     7
 10
474.908868
 20
188.007492
 11
474.901956
 21
187.918772
  0
LINE
  8
CSLAYER4
  6
CONTINUOUS
 62
     7
 10
474.901956
 20
187.918772
 11
474.897084
 21
187.829894
  0
LINE
  8
CSLAYER4
  6
CONTINUOUS
 62
     7
 10
474.897084
 20
187.829894
 11
474.894201
 21
187.740905
  0
LINE
  8
CSLAYER4
  6
CONTINUOUS
 62
     7
 10
474.894201
 20
187.740905
 11
474.893253
 21
187.651833
  0
LINE
  8
CSLAYER4
  6
CONTINUOUS
 62
     7
 10
474.893253
 20
187.651833
 11
474.894139
 21
187.565471
  0
LINE
  8
CSLAYER4
  6
CONTINUOUS
 62
     7
 10
474.894139
 20
187.565471
 11
474.896868
 21
187.479068
  0
LINE
  8
CSLAYER4
  6
CONTINUOUS
 62
     7
 10
474.896868
 20
187.479068
 11
474.901513
 21
187.392683
  0
LINE
  8
CSLAYER4
  6
CONTINUOUS
 62
     7
 10
474.901513
 20
187.392683
 11
474.908178
 21
187.306434
  0
LINE
  8
CSLAYER4
  6
CONTINUOUS
 62
     7
 10
474.908178
 20
187.306434
 11
474.916953
 21
187.220381
  0
LINE
  8
CSLAYER4
  6
CONTINUOUS
 62
     7
 10
474.916953
 20
187.220381
 11
474.927922
 21
187.134624
  0
LINE
  8
CSLAYER4
  6
CONTINUOUS
 62
     7
 10
474.927922
 20
187.134624
 11
474.941167
 21
187.049241
  0
LINE
  8
CSLAYER4
  6
CONTINUOUS
 62
     7
 10
474.941167
 20
187.049241
 11
474.956802
 21
186.964319
  0
LINE
  8
CSLAYER4
  6
CONTINUOUS
 62
     7
 10
474.956802
 20
186.964319
 11
474.974898
 21
186.879944
  0
LINE
  8
CSLAYER4
  6
CONTINUOUS
 62
     7
 10
474.974898
 20
186.879944
 11
474.995539
 21
186.796229
  0
LINE
  8
CSLAYER4
  6
CONTINUOUS
 62
     7
 10
474.995539
 20
186.796229
 11
475.018765
 21
186.713471
  0
LINE
  8
CSLAYER4
  6
CONTINUOUS
 62
     7
 10
475.018765
 20
186.713471
 11
475.044618
 21
186.631754
  0
LINE
  8
CSLAYER4
  6
CONTINUOUS
 62
     7
 10
475.044618
 20
186.631754
 11
475.073169
 21
186.551148
  0
LINE
  8
CSLAYER4
  6
CONTINUOUS
 62
     7
 10
475.073169
 20
186.551148
 11
475.104489
 21
186.471707
  0
LINE
  8
CSLAYER4
  6
CONTINUOUS
 62
     7
 10
475.104489
 20
186.471707
 11
475.138653
 21
186.393491
  0
LINE
  8
CSLAYER4
  6
CONTINUOUS
 62
     7
 10
475.138653
 20
186.393491
 11
475.175712
 21
186.316562
  0
LINE
  8
CSLAYER4
  6
CONTINUOUS
 62
     7
 10
475.175712
 20
186.316562
 11
475.215757
 21
186.240974
  0
LINE
  8
CSLAYER4
  6
CONTINUOUS
 62
     7
 10
475.215757
 20
186.240974
 11
475.258830
 21
186.166775
  0
LINE
  8
CSLAYER4
  6
CONTINUOUS
 62
     7
 10
475.258830
 20
186.166775
 11
475.304829
 21
186.094337
  0
LINE
  8
CSLAYER4
  6
CONTINUOUS
 62
     7
 10
475.304829
 20
186.094337
 11
475.353505
 21
186.024062
  0
LINE
  8
CSLAYER4
  6
CONTINUOUS
 62
     7
 10
475.353505
 20
186.024062
 11
475.404849
 21
185.955939
  0
LINE
  8
CSLAYER4
  6
CONTINUOUS
 62
     7
 10
475.404849
 20
185.955939
 11
475.458850
 21
185.889971
  0
LINE
  8
CSLAYER4
  6
CONTINUOUS
 62
     7
 10
475.458850
 20
185.889971
 11
475.515508
 21
185.826143
  0
LINE
  8
CSLAYER4
  6
CONTINUOUS
 62
     7
 10
475.515508
 20
185.826143
 11
475.574805
 21
185.764448
  0
LINE
  8
CSLAYER4
  6
CONTINUOUS
 62
     7
 10
475.574805
 20
185.764448
 11
475.609380
 21
185.730233
  0
LINE
  8
CSLAYER4
  6
CONTINUOUS
 62
     7
 10
475.609380
 20
185.730233
 11
475.644388
 21
185.696295
  0
LINE
  8
CSLAYER4
  6
CONTINUOUS
 62
     7
 10
475.644388
 20
185.696295
 11
475.679820
 21
185.662688
  0
LINE
  8
CSLAYER4
  6
CONTINUOUS
 62
     7
 10
475.679820
 20
185.662688
 11
475.715683
 21
185.629419
  0
LINE
  8
CSLAYER4
  6
CONTINUOUS
 62
     7
 10
475.715683
 20
185.629419
 11
475.751968
 21
185.596532
  0
LINE
  8
CSLAYER4
  6
CONTINUOUS
 62
     7
 10
475.751968
 20
185.596532
 11
475.788676
 21
185.564048
  0
LINE
  8
CSLAYER4
  6
CONTINUOUS
 62
     7
 10
475.788676
 20
185.564048
 11
475.825797
 21
185.532005
  0
LINE
  8
CSLAYER4
  6
CONTINUOUS
 62
     7
 10
475.825797
 20
185.532005
 11
475.863328
 21
185.500436
  0
LINE
  8
CSLAYER4
  6
CONTINUOUS
 62
     7
 10
475.863328
 20
185.500436
 11
475.901272
 21
185.469362
  0
LINE
  8
CSLAYER4
  6
CONTINUOUS
 62
     7
 10
475.901272
 20
185.469362
 11
475.939629
 21
185.438813
  0
LINE
  8
CSLAYER4
  6
CONTINUOUS
 62
     7
 10
475.939629
 20
185.438813
 11
475.978375
 21
185.408820
  0
LINE
  8
CSLAYER4
  6
CONTINUOUS
 62
     7
 10
475.978375
 20
185.408820
 11
476.017536
 21
185.379425
  0
LINE
  8
CSLAYER4
  6
CONTINUOUS
 62
     7
 10
476.017536
 20
185.379425
 11
476.057086
 21
185.350649
  0
LINE
  8
CSLAYER4
  6
CONTINUOUS
 62
     7
 10
476.057086
 20
185.350649
 11
476.097028
 21
185.322509
  0
LINE
  8
CSLAYER4
  6
CONTINUOUS
 62
     7
 10
476.097028
 20
185.322509
 11
476.137351
 21
185.295060
  0
LINE
  8
CSLAYER4
  6
CONTINUOUS
 62
     7
 10
476.137351
 20
185.295060
 11
476.178067
 21
185.268312
  0
LINE
  8
CSLAYER4
  6
CONTINUOUS
 62
     7
 10
476.178067
 20
185.268312
 11
476.219173
 21
185.242305
  0
LINE
  8
CSLAYER4
  6
CONTINUOUS
 62
     7
 10
476.219173
 20
185.242305
 11
476.260650
 21
185.217071
  0
LINE
  8
CSLAYER4
  6
CONTINUOUS
 62
     7
 10
476.260650
 20
185.217071
 11
476.302528
 21
185.192619
  0
LINE
  8
CSLAYER4
  6
CONTINUOUS
 62
     7
 10
476.302528
 20
185.192619
 11
476.344849
 21
185.168951
  0
LINE
  8
CSLAYER4
  6
CONTINUOUS
 62
     7
 10
476.344849
 20
185.168951
 11
476.387604
 21
185.146116
  0
LINE
  8
CSLAYER4
  6
CONTINUOUS
 62
     7
 10
476.387604
 20
185.146116
 11
476.430801
 21
185.124137
  0
LINE
  8
CSLAYER4
  6
CONTINUOUS
 62
     7
 10
476.430801
 20
185.124137
 11
476.474430
 21
185.103054
  0
LINE
  8
CSLAYER4
  6
CONTINUOUS
 62
     7
 10
476.474430
 20
185.103054
 11
476.518492
 21
185.082897
  0
LINE
  8
CSLAYER4
  6
CONTINUOUS
 62
     7
 10
478.720437
 20
184.139210
 11
476.518495
 21
185.082899
  0
LINE
  8
CSLAYER4
  6
CONTINUOUS
 62
     7
 10
478.720440
 20
184.139210
 11
478.783330
 21
184.110318
  0
LINE
  8
CSLAYER4
  6
CONTINUOUS
 62
     7
 10
478.783330
 20
184.110318
 11
478.845067
 21
184.079049
  0
LINE
  8
CSLAYER4
  6
CONTINUOUS
 62
     7
 10
478.845067
 20
184.079049
 11
478.905505
 21
184.045286
  0
LINE
  8
CSLAYER4
  6
CONTINUOUS
 62
     7
 10
478.905505
 20
184.045286
 11
478.964419
 21
184.008939
  0
LINE
  8
CSLAYER4
  6
CONTINUOUS
 62
     7
 10
478.964419
 20
184.008939
 11
479.021644
 21
183.969903
  0
LINE
  8
CSLAYER4
  6
CONTINUOUS
 62
     7
 10
479.021644
 20
183.969903
 11
479.076891
 21
183.928149
  0
LINE
  8
CSLAYER4
  6
CONTINUOUS
 62
     7
 10
479.076891
 20
183.928149
 11
479.129770
 21
183.883778
  0
LINE
  8
CSLAYER4
  6
CONTINUOUS
 62
     7
 10
479.129770
 20
183.883778
 11
479.180157
 21
183.836738
  0
LINE
  8
CSLAYER4
  6
CONTINUOUS
 62
     7
 10
479.180157
 20
183.836738
 11
479.227906
 21
183.786960
  0
LINE
  8
CSLAYER4
  6
CONTINUOUS
 62
     7
 10
479.227906
 20
183.786960
 11
479.272936
 21
183.734381
  0
LINE
  8
CSLAYER4
  6
CONTINUOUS
 62
     7
 10
479.272936
 20
183.734381
 11
479.314876
 21
183.679247
  0
LINE
  8
CSLAYER4
  6
CONTINUOUS
 62
     7
 10
479.314876
 20
183.679247
 11
479.353273
 21
183.622196
  0
LINE
  8
CSLAYER4
  6
CONTINUOUS
 62
     7
 10
479.353273
 20
183.622196
 11
479.388169
 21
183.563313
  0
LINE
  8
CSLAYER4
  6
CONTINUOUS
 62
     7
 10
479.388169
 20
183.563313
 11
479.419624
 21
183.502626
  0
LINE
  8
CSLAYER4
  6
CONTINUOUS
 62
     7
 10
479.419624
 20
183.502626
 11
479.447680
 21
183.440201
  0
LINE
  8
CSLAYER4
  6
CONTINUOUS
 62
     7
 10
479.447680
 20
183.440201
 11
479.472441
 21
183.376076
  0
LINE
  8
CSLAYER4
  6
CONTINUOUS
 62
     7
 10
479.472441
 20
183.376076
 11
479.493946
 21
183.310292
  0
LINE
  8
CSLAYER4
  6
CONTINUOUS
 62
     7
 10
479.493946
 20
183.310292
 11
479.512239
 21
183.243086
  0
LINE
  8
CSLAYER4
  6
CONTINUOUS
 62
     7
 10
479.512239
 20
183.243086
 11
479.527276
 21
183.175097
  0
LINE
  8
CSLAYER4
  6
CONTINUOUS
 62
     7
 10
479.527276
 20
183.175097
 11
479.539224
 21
183.106481
  0
LINE
  8
CSLAYER4
  6
CONTINUOUS
 62
     7
 10
479.539224
 20
183.106481
 11
479.548246
 21
183.037380
  0
LINE
  8
CSLAYER4
  6
CONTINUOUS
 62
     7
 10
479.548246
 20
183.037380
 11
479.554467
 21
182.967930
  0
LINE
  8
CSLAYER4
  6
CONTINUOUS
 62
     7
 10
479.554467
 20
182.967930
 11
479.558092
 21
182.898273
  0
LINE
  8
CSLAYER4
  6
CONTINUOUS
 62
     7
 10
479.558092
 20
182.898273
 11
479.559267
 21
182.828534
  0
LINE
  8
CSLAYER4
  6
CONTINUOUS
 62
     7
 10
479.559267
 20
182.828534
 11
479.557804
 21
182.763347
  0
LINE
  8
CSLAYER4
  6
CONTINUOUS
 62
     7
 10
479.557804
 20
182.763347
 11
479.553292
 21
182.698449
  0
LINE
  8
CSLAYER4
  6
CONTINUOUS
 62
     7
 10
479.553292
 20
182.698449
 11
479.545630
 21
182.633901
  0
LINE
  8
CSLAYER4
  6
CONTINUOUS
 62
     7
 10
479.545630
 20
182.633901
 11
479.534631
 21
182.569775
  0
LINE
  8
CSLAYER4
  6
CONTINUOUS
 62
     7
 10
479.534631
 20
182.569775
 11
479.520211
 21
182.506215
  0
LINE
  8
CSLAYER4
  6
CONTINUOUS
 62
     7
 10
479.520211
 20
182.506215
 11
479.502372
 21
182.443769
  0
LINE
  8
CSLAYER4
  6
CONTINUOUS
 62
     7
 10
479.502372
 20
182.443769
 11
479.481112
 21
182.382620
  0
LINE
  8
CSLAYER4
  6
CONTINUOUS
 62
     7
 10
479.481112
 20
182.382620
 11
479.456415
 21
182.322767
  0
LINE
  8
CSLAYER4
  6
CONTINUOUS
 62
     7
 10
479.456415
 20
182.322767
 11
479.428234
 21
182.264235
  0
LINE
  8
CSLAYER4
  6
CONTINUOUS
 62
     7
 10
479.428234
 20
182.264235
 11
479.396800
 21
182.207400
  0
LINE
  8
CSLAYER4
  6
CONTINUOUS
 62
     7
 10
479.396800
 20
182.207400
 11
479.362440
 21
182.152751
  0
LINE
  8
CSLAYER4
  6
CONTINUOUS
 62
     7
 10
479.362440
 20
182.152751
 11
479.325300
 21
182.100243
  0
LINE
  8
CSLAYER4
  6
CONTINUOUS
 62
     7
 10
479.325300
 20
182.100243
 11
479.285542
 21
182.049836
  0
LINE
  8
CSLAYER4
  6
CONTINUOUS
 62
     7
 10
479.285542
 20
182.049836
 11
479.243293
 21
182.001470
  0
LINE
  8
CSLAYER4
  6
CONTINUOUS
 62
     7
 10
479.243293
 20
182.001470
 11
479.198695
 21
181.955090
  0
LINE
  8
CSLAYER4
  6
CONTINUOUS
 62
     7
 10
479.198695
 20
181.955090
 11
479.151852
 21
181.910657
  0
LINE
  8
CSLAYER4
  6
CONTINUOUS
 62
     7
 10
479.151852
 20
181.910657
 11
479.102950
 21
181.868118
  0
LINE
  8
CSLAYER4
  6
CONTINUOUS
 62
     7
 10
479.102950
 20
181.868118
 11
479.052193
 21
181.827518
  0
LINE
  8
CSLAYER4
  6
CONTINUOUS
 62
     7
 10
479.052193
 20
181.827518
 11
478.999849
 21
181.788854
  0
LINE
  8
CSLAYER4
  6
CONTINUOUS
 62
     7
 10
478.999849
 20
181.788854
 11
478.946085
 21
181.752072
  0
LINE
  8
CSLAYER4
  6
CONTINUOUS
 62
     7
 10
478.946085
 20
181.752072
 11
478.891086
 21
181.717116
  0
LINE
  8
CSLAYER4
  6
CONTINUOUS
 62
     7
 10
478.891086
 20
181.717116
 11
478.835034
 21
181.683951
  0
LINE
  8
CSLAYER4
  6
CONTINUOUS
 62
     7
 10
478.835034
 20
181.683951
 11
478.778098
 21
181.652495
  0
LINE
  8
CSLAYER4
  6
CONTINUOUS
 62
     7
 10
478.778098
 20
181.652495
 11
478.720440
 21
181.622709
  0
LINE
  8
CSLAYER4
  6
CONTINUOUS
 62
     7
 10
478.720440
 20
181.622709
 11
478.664616
 21
181.606322
  0
LINE
  8
CSLAYER4
  6
CONTINUOUS
 62
     7
 10
478.664616
 20
181.606322
 11
478.608534
 21
181.591449
  0
LINE
  8
CSLAYER4
  6
CONTINUOUS
 62
     7
 10
478.608534
 20
181.591449
 11
478.552164
 21
181.578120
  0
LINE
  8
CSLAYER4
  6
CONTINUOUS
 62
     7
 10
478.552164
 20
181.578120
 11
478.495525
 21
181.566348
  0
LINE
  8
CSLAYER4
  6
CONTINUOUS
 62
     7
 10
478.495525
 20
181.566348
 11
478.438609
 21
181.556163
  0
LINE
  8
CSLAYER4
  6
CONTINUOUS
 62
     7
 10
478.438609
 20
181.556163
 11
478.381416
 21
181.547573
  0
LINE
  8
CSLAYER4
  6
CONTINUOUS
 62
     7
 10
478.381416
 20
181.547573
 11
478.323954
 21
181.540631
  0
LINE
  8
CSLAYER4
  6
CONTINUOUS
 62
     7
 10
478.323954
 20
181.540631
 11
478.266225
 21
181.535337
  0
LINE
  8
CSLAYER4
  6
CONTINUOUS
 62
     7
 10
478.266225
 20
181.535337
 11
478.208227
 21
181.531721
  0
LINE
  8
CSLAYER4
  6
CONTINUOUS
 62
     7
 10
478.208227
 20
181.531721
 11
478.150219
 21
181.529826
  0
LINE
  8
CSLAYER4
  6
CONTINUOUS
 62
     7
 10
478.150219
 20
181.529826
 11
478.092345
 21
181.529631
  0
LINE
  8
CSLAYER4
  6
CONTINUOUS
 62
     7
 10
478.092345
 20
181.529631
 11
478.034595
 21
181.531124
  0
LINE
  8
CSLAYER4
  6
CONTINUOUS
 62
     7
 10
478.034595
 20
181.531124
 11
477.976957
 21
181.534317
  0
LINE
  8
CSLAYER4
  6
CONTINUOUS
 62
     7
 10
477.976957
 20
181.534317
 11
477.919455
 21
181.539168
  0
LINE
  8
CSLAYER4
  6
CONTINUOUS
 62
     7
 10
477.919455
 20
181.539168
 11
477.862075
 21
181.545698
  0
LINE
  8
CSLAYER4
  6
CONTINUOUS
 62
     7
 10
477.862075
 20
181.545698
 11
477.804808
 21
181.553876
  0
LINE
  8
CSLAYER4
  6
CONTINUOUS
 62
     7
 10
477.804808
 20
181.553876
 11
477.747676
 21
181.563692
  0
LINE
  8
CSLAYER4
  6
CONTINUOUS
 62
     7
 10
477.747676
 20
181.563692
 11
477.690699
 21
181.575135
  0
LINE
  8
CSLAYER4
  6
CONTINUOUS
 62
     7
 10
477.690699
 20
181.575135
 11
477.634101
 21
181.588133
  0
LINE
  8
CSLAYER4
  6
CONTINUOUS
 62
     7
 10
477.634101
 20
181.588133
 11
477.577906
 21
181.602645
  0
LINE
  8
CSLAYER4
  6
CONTINUOUS
 62
     7
 10
477.577906
 20
181.602645
 11
477.522135
 21
181.618641
  0
LINE
  8
CSLAYER4
  6
CONTINUOUS
 62
     7
 10
477.522135
 20
181.618641
 11
477.466783
 21
181.636077
  0
LINE
  8
CSLAYER4
  6
CONTINUOUS
 62
     7
 10
477.466783
 20
181.636077
 11
477.411844
 21
181.654916
  0
LINE
  8
CSLAYER4
  6
CONTINUOUS
 62
     7
 10
477.411844
 20
181.654916
 11
477.357328
 21
181.675134
  0
LINE
  8
CSLAYER4
  6
CONTINUOUS
 62
     7
 10
477.357328
 20
181.675134
 11
477.319230
 21
181.690830
  0
LINE
  8
CSLAYER4
  6
CONTINUOUS
 62
     7
 10
477.319230
 20
181.690830
 11
477.281430
 21
181.707332
  0
LINE
  8
CSLAYER4
  6
CONTINUOUS
 62
     7
 10
477.281430
 20
181.707332
 11
477.244000
 21
181.724666
  0
LINE
  8
CSLAYER4
  6
CONTINUOUS
 62
     7
 10
477.244000
 20
181.724666
 11
477.206964
 21
181.742844
  0
LINE
  8
CSLAYER4
  6
CONTINUOUS
 62
     7
 10
477.206964
 20
181.742844
 11
477.170370
 21
181.761909
  0
LINE
  8
CSLAYER4
  6
CONTINUOUS
 62
     7
 10
477.170370
 20
181.761909
 11
477.134259
 21
181.781859
  0
LINE
  8
CSLAYER4
  6
CONTINUOUS
 62
     7
 10
477.134259
 20
181.781859
 11
477.098683
 21
181.802736
  0
LINE
  8
CSLAYER4
  6
CONTINUOUS
 62
     7
 10
477.098683
 20
181.802736
 11
477.063675
 21
181.824561
  0
LINE
  8
CSLAYER4
  6
CONTINUOUS
 62
     7
 10
477.063675
 20
181.824561
 11
477.029274
 21
181.847345
  0
LINE
  8
CSLAYER4
  6
CONTINUOUS
 62
     7
 10
477.029274
 20
181.847345
 11
476.995552
 21
181.871106
  0
LINE
  8
CSLAYER4
  6
CONTINUOUS
 62
     7
 10
476.995552
 20
181.871106
 11
476.962614
 21
181.895805
  0
LINE
  8
CSLAYER4
  6
CONTINUOUS
 62
     7
 10
476.962614
 20
181.895805
 11
476.930511
 21
181.921451
  0
LINE
  8
CSLAYER4
  6
CONTINUOUS
 62
     7
 10
476.930511
 20
181.921451
 11
476.899272
 21
181.948065
  0
LINE
  8
CSLAYER4
  6
CONTINUOUS
 62
     7
 10
476.899272
 20
181.948065
 11
476.868918
 21
181.975658
  0
LINE
  8
CSLAYER4
  6
CONTINUOUS
 62
     7
 10
476.868918
 20
181.975658
 11
476.839482
 21
182.004251
  0
LINE
  8
CSLAYER4
  6
CONTINUOUS
 62
     7
 10
476.839482
 20
182.004251
 11
476.810992
 21
182.033862
  0
LINE
  8
CSLAYER4
  6
CONTINUOUS
 62
     7
 10
476.810992
 20
182.033862
 11
476.783482
 21
182.064503
  0
LINE
  8
CSLAYER4
  6
CONTINUOUS
 62
     7
 10
476.783482
 20
182.064503
 11
476.756982
 21
182.096195
  0
LINE
  8
CSLAYER4
  6
CONTINUOUS
 62
     7
 10
476.756982
 20
182.096195
 11
476.731612
 21
182.128835
  0
LINE
  8
CSLAYER4
  6
CONTINUOUS
 62
     7
 10
476.731612
 20
182.128835
 11
476.707480
 21
182.162298
  0
LINE
  8
CSLAYER4
  6
CONTINUOUS
 62
     7
 10
476.707480
 20
182.162298
 11
476.684595
 21
182.196566
  0
LINE
  8
CSLAYER4
  6
CONTINUOUS
 62
     7
 10
476.684595
 20
182.196566
 11
476.662945
 21
182.231646
  0
LINE
  8
CSLAYER4
  6
CONTINUOUS
 62
     7
 10
476.662945
 20
182.231646
 11
476.642530
 21
182.267552
  0
LINE
  8
CSLAYER4
  6
CONTINUOUS
 62
     7
 10
476.642530
 20
182.267552
 11
476.623353
 21
182.304258
  0
LINE
  8
CSLAYER4
  6
CONTINUOUS
 62
     7
 10
476.623353
 20
182.304258
 11
476.602764
 21
182.346858
  0
LINE
  8
CSLAYER4
  6
CONTINUOUS
 62
     7
 10
476.602764
 20
182.346858
 11
476.582958
 21
182.390652
  0
LINE
  8
CSLAYER4
  6
CONTINUOUS
 62
     7
 10
476.582958
 20
182.390652
 11
476.563924
 21
182.435570
  0
LINE
  8
CSLAYER4
  6
CONTINUOUS
 62
     7
 10
476.563924
 20
182.435570
 11
476.545632
 21
182.481537
  0
LINE
  8
CSLAYER4
  6
CONTINUOUS
 62
     7
 10
476.545632
 20
182.481537
 11
476.528071
 21
182.528474
  0
LINE
  8
CSLAYER4
  6
CONTINUOUS
 62
     7
 10
476.528071
 20
182.528474
 11
476.511231
 21
182.576295
  0
LINE
  8
CSLAYER4
  6
CONTINUOUS
 62
     7
 10
476.511231
 20
182.576295
 11
476.495080
 21
182.624919
  0
LINE
  8
CSLAYER4
  6
CONTINUOUS
 62
     7
 10
476.495080
 20
182.624919
 11
476.479600
 21
182.674296
  0
LINE
  8
CSLAYER4
  6
CONTINUOUS
 62
     7
 10
476.479600
 20
182.674296
 11
476.464789
 21
182.724311
  0
LINE
  8
CSLAYER4
  6
CONTINUOUS
 62
     7
 10
476.464789
 20
182.724311
 11
476.450628
 21
182.774924
  0
LINE
  8
CSLAYER4
  6
CONTINUOUS
 62
     7
 10
476.450628
 20
182.774924
 11
476.437083
 21
182.826032
  0
LINE
  8
CSLAYER4
  6
CONTINUOUS
 62
     7
 10
476.437083
 20
182.826032
 11
476.424147
 21
182.877560
  0
LINE
  8
CSLAYER4
  6
CONTINUOUS
 62
     7
 10
476.424147
 20
182.877560
 11
476.411797
 21
182.929439
  0
LINE
  8
CSLAYER4
  6
CONTINUOUS
 62
     7
 10
476.411797
 20
182.929439
 11
476.400025
 21
182.981588
  0
LINE
  8
CSLAYER4
  6
CONTINUOUS
 62
     7
 10
476.400025
 20
182.981588
 11
476.388798
 21
183.033920
  0
LINE
  8
CSLAYER4
  6
CONTINUOUS
 62
     7
 10
476.388798
 20
183.033920
 11
476.378118
 21
183.086376
  0
LINE
  8
CSLAYER4
  6
CONTINUOUS
 62
     7
 10
476.378118
 20
183.086376
 11
476.367940
 21
183.138884
  0
LINE
  8
CSLAYER4
  6
CONTINUOUS
 62
     7
 10
476.367940
 20
183.138884
 11
476.358238
 21
183.191598
  0
LINE
  8
CSLAYER4
  6
CONTINUOUS
 62
     7
 10
476.358238
 20
183.191598
 11
476.348968
 21
183.244506
  0
LINE
  8
CSLAYER4
  6
CONTINUOUS
 62
     7
 10
476.348968
 20
183.244506
 11
476.340121
 21
183.297570
  0
LINE
  8
CSLAYER4
  6
CONTINUOUS
 62
     7
 10
476.340121
 20
183.297570
 11
476.331697
 21
183.350718
  0
LINE
  8
CSLAYER4
  6
CONTINUOUS
 62
     7
 10
476.331697
 20
183.350718
 11
476.323674
 21
183.403884
  0
LINE
  8
CSLAYER4
  6
CONTINUOUS
 62
     7
 10
476.323674
 20
183.403884
 11
476.316042
 21
183.457031
  0
LINE
  8
CSLAYER4
  6
CONTINUOUS
 62
     7
 10
476.316042
 20
183.457031
 11
476.308791
 21
183.510084
  0
LINE
  8
CSLAYER4
  6
CONTINUOUS
 62
     7
 10
474.631117
 20
183.510083
 11
476.308788
 21
183.510083
  0
LINE
  8
CSLAYER4
  6
CONTINUOUS
 62
     7
 10
474.631116
 20
183.510084
 11
474.646771
 21
183.324165
  0
LINE
  8
CSLAYER4
  6
CONTINUOUS
 62
     7
 10
474.646771
 20
183.324165
 11
474.666979
 21
183.137936
  0
LINE
  8
CSLAYER4
  6
CONTINUOUS
 62
     7
 10
474.666979
 20
183.137936
 11
474.692080
 21
182.951924
  0
LINE
  8
CSLAYER4
  6
CONTINUOUS
 62
     7
 10
474.692080
 20
182.951924
 11
474.722412
 21
182.766684
  0
LINE
  8
CSLAYER4
  6
CONTINUOUS
 62
     7
 10
474.722412
 20
182.766684
 11
474.758317
 21
182.582763
  0
LINE
  8
CSLAYER4
  6
CONTINUOUS
 62
     7
 10
474.758317
 20
182.582763
 11
474.800134
 21
182.400695
  0
LINE
  8
CSLAYER4
  6
CONTINUOUS
 62
     7
 10
474.800134
 20
182.400695
 11
474.848233
 21
182.220903
  0
LINE
  8
CSLAYER4
  6
CONTINUOUS
 62
     7
 10
474.848233
 20
182.220903
 11
474.903253
 21
182.043101
  0
LINE
  8
CSLAYER4
  6
CONTINUOUS
 62
     7
 10
474.903253
 20
182.043101
 11
474.965680
 21
181.867790
  0
LINE
  8
CSLAYER4
  6
CONTINUOUS
 62
     7
 10
474.965680
 20
181.867790
 11
475.035955
 21
181.695651
  0
LINE
  8
CSLAYER4
  6
CONTINUOUS
 62
     7
 10
475.035955
 20
181.695651
 11
475.114522
 21
181.527395
  0
LINE
  8
CSLAYER4
  6
CONTINUOUS
 62
     7
 10
475.114522
 20
181.527395
 11
475.201822
 21
181.363682
  0
LINE
  8
CSLAYER4
  6
CONTINUOUS
 62
     7
 10
475.201822
 20
181.363682
 11
475.297938
 21
181.205789
  0
LINE
  8
CSLAYER4
  6
CONTINUOUS
 62
     7
 10
475.297938
 20
181.205789
 11
475.402563
 21
181.055156
  0
LINE
  8
CSLAYER4
  6
CONTINUOUS
 62
     7
 10
475.402563
 20
181.055156
 11
475.515963
 21
180.912155
  0
LINE
  8
CSLAYER4
  6
CONTINUOUS
 62
     7
 10
475.515963
 20
180.912155
 11
475.638373
 21
180.777146
  0
LINE
  8
CSLAYER4
  6
CONTINUOUS
 62
     7
 10
475.638373
 20
180.777146
 11
475.770066
 21
180.650459
  0
LINE
  8
CSLAYER4
  6
CONTINUOUS
 62
     7
 10
475.770066
 20
180.650459
 11
475.911243
 21
180.532497
  0
LINE
  8
CSLAYER4
  6
CONTINUOUS
 62
     7
 10
475.911243
 20
180.532497
 11
476.059846
 21
180.425133
  0
LINE
  8
CSLAYER4
  6
CONTINUOUS
 62
     7
 10
476.059846
 20
180.425133
 11
476.214403
 21
180.329048
  0
LINE
  8
CSLAYER4
  6
CONTINUOUS
 62
     7
 10
476.214403
 20
180.329048
 11
476.374573
 21
180.243849
  0
LINE
  8
CSLAYER4
  6
CONTINUOUS
 62
     7
 10
476.374573
 20
180.243849
 11
476.540028
 21
180.169176
  0
LINE
  8
CSLAYER4
  6
CONTINUOUS
 62
     7
 10
476.540028
 20
180.169176
 11
476.710447
 21
180.104649
  0
LINE
  8
CSLAYER4
  6
CONTINUOUS
 62
     7
 10
476.710447
 20
180.104649
 11
476.885490
 21
180.049884
  0
ENDBLK
  8
0
  0
BLOCK
  8
CSLAYER1
  2
BLKF0010
 70
   64
 10
0.0
 20
0.0
 30
0.0
  0
LINE
  8
CSLAYER4
  6
CONTINUOUS
 62
     7
 10
496.776949
 20
185.350163
 11
496.810681
 21
184.818879
  0
LINE
  8
CSLAYER4
  6
CONTINUOUS
 62
     7
 10
496.810681
 20
184.818879
 11
496.899114
 21
184.281854
  0
LINE
  8
CSLAYER4
  6
CONTINUOUS
 62
     7
 10
496.899114
 20
184.281854
 11
497.042466
 21
183.749525
  0
LINE
  8
CSLAYER4
  6
CONTINUOUS
 62
     7
 10
497.042466
 20
183.749525
 11
497.240910
 21
183.232305
  0
LINE
  8
CSLAYER4
  6
CONTINUOUS
 62
     7
 10
497.240910
 20
183.232305
 11
497.492416
 21
182.739596
  0
LINE
  8
CSLAYER4
  6
CONTINUOUS
 62
     7
 10
497.492416
 20
182.739596
 11
497.789862
 21
182.278638
  0
LINE
  8
CSLAYER4
  6
CONTINUOUS
 62
     7
 10
497.789862
 20
182.278638
 11
498.125404
 21
181.856387
  0
LINE
  8
CSLAYER4
  6
CONTINUOUS
 62
     7
 10
498.125404
 20
181.856387
 11
498.492454
 21
181.478630
  0
LINE
  8
CSLAYER4
  6
CONTINUOUS
 62
     7
 10
498.492454
 20
181.478630
 11
498.901527
 21
181.134617
  0
LINE
  8
CSLAYER4
  6
CONTINUOUS
 62
     7
 10
498.901527
 20
181.134617
 11
499.351623
 21
180.825842
  0
LINE
  8
CSLAYER4
  6
CONTINUOUS
 62
     7
 10
499.351623
 20
180.825842
 11
499.835688
 21
180.559874
  0
LINE
  8
CSLAYER4
  6
CONTINUOUS
 62
     7
 10
499.835688
 20
180.559874
 11
500.346624
 21
180.344208
  0
LINE
  8
CSLAYER4
  6
CONTINUOUS
 62
     7
 10
500.346624
 20
180.344208
 11
500.875945
 21
180.182972
  0
LINE
  8
CSLAYER4
  6
CONTINUOUS
 62
     7
 10
500.875945
 20
180.182972
 11
501.413352
 21
180.075957
  0
LINE
  8
CSLAYER4
  6
CONTINUOUS
 62
     7
 10
501.413352
 20
180.075957
 11
501.948462
 21
180.022683
  0
LINE
  8
CSLAYER4
  6
CONTINUOUS
 62
     7
 10
501.948462
 20
180.022683
 11
502.475320
 21
180.022683
  0
LINE
  8
CSLAYER4
  6
CONTINUOUS
 62
     7
 10
502.475320
 20
180.022683
 11
503.010420
 21
180.075957
  0
LINE
  8
CSLAYER4
  6
CONTINUOUS
 62
     7
 10
503.010420
 20
180.075957
 11
503.547837
 21
180.182972
  0
LINE
  8
CSLAYER4
  6
CONTINUOUS
 62
     7
 10
503.547837
 20
180.182972
 11
504.077158
 21
180.344208
  0
LINE
  8
CSLAYER4
  6
CONTINUOUS
 62
     7
 10
504.077158
 20
180.344208
 11
504.588084
 21
180.559874
  0
LINE
  8
CSLAYER4
  6
CONTINUOUS
 62
     7
 10
504.588084
 20
180.559874
 11
505.072149
 21
180.825842
  0
LINE
  8
CSLAYER4
  6
CONTINUOUS
 62
     7
 10
505.072149
 20
180.825842
 11
505.522255
 21
181.134617
  0
LINE
  8
CSLAYER4
  6
CONTINUOUS
 62
     7
 10
505.522255
 20
181.134617
 11
505.931328
 21
181.478630
  0
LINE
  8
CSLAYER4
  6
CONTINUOUS
 62
     7
 10
505.931328
 20
181.478630
 11
506.298367
 21
181.856387
  0
LINE
  8
CSLAYER4
  6
CONTINUOUS
 62
     7
 10
506.298367
 20
181.856387
 11
506.633922
 21
182.278638
  0
LINE
  8
CSLAYER4
  6
CONTINUOUS
 62
     7
 10
506.633922
 20
182.278638
 11
506.931366
 21
182.739596
  0
LINE
  8
CSLAYER4
  6
CONTINUOUS
 62
     7
 10
506.931366
 20
182.739596
 11
507.182863
 21
183.232305
  0
LINE
  8
CSLAYER4
  6
CONTINUOUS
 62
     7
 10
507.182863
 20
183.232305
 11
507.381318
 21
183.749525
  0
LINE
  8
CSLAYER4
  6
CONTINUOUS
 62
     7
 10
507.381318
 20
183.749525
 11
507.524658
 21
184.281854
  0
LINE
  8
CSLAYER4
  6
CONTINUOUS
 62
     7
 10
507.524658
 20
184.281854
 11
507.613101
 21
184.818879
  0
LINE
  8
CSLAYER4
  6
CONTINUOUS
 62
     7
 10
507.613101
 20
184.818879
 11
507.646833
 21
185.350163
  0
LINE
  8
CSLAYER4
  6
CONTINUOUS
 62
     7
 10
507.646833
 20
185.350163
 11
507.646998
 21
185.365092
  0
LINE
  8
CSLAYER4
  6
CONTINUOUS
 62
     7
 10
507.646998
 20
185.365092
 11
507.625770
 21
185.905584
  0
LINE
  8
CSLAYER4
  6
CONTINUOUS
 62
     7
 10
507.625770
 20
185.905584
 11
507.552117
 21
186.440364
  0
LINE
  8
CSLAYER4
  6
CONTINUOUS
 62
     7
 10
507.552117
 20
186.440364
 11
507.426678
 21
186.965555
  0
LINE
  8
CSLAYER4
  6
CONTINUOUS
 62
     7
 10
507.426678
 20
186.965555
 11
507.250512
 21
187.476243
  0
LINE
  8
CSLAYER4
  6
CONTINUOUS
 62
     7
 10
507.250512
 20
187.476243
 11
507.026050
 21
187.965726
  0
LINE
  8
CSLAYER4
  6
CONTINUOUS
 62
     7
 10
507.026050
 20
187.965726
 11
506.755251
 21
188.430386
  0
LINE
  8
CSLAYER4
  6
CONTINUOUS
 62
     7
 10
506.755251
 20
188.430386
 11
506.439999
 21
188.866773
  0
LINE
  8
CSLAYER4
  6
CONTINUOUS
 62
     7
 10
506.439999
 20
188.866773
 11
506.082960
 21
189.270635
  0
LINE
  8
CSLAYER4
  6
CONTINUOUS
 62
     7
 10
506.082960
 20
189.270635
 11
505.688925
 21
189.636485
  0
LINE
  8
CSLAYER4
  6
CONTINUOUS
 62
     7
 10
505.688925
 20
189.636485
 11
505.260994
 21
189.961562
  0
LINE
  8
CSLAYER4
  6
CONTINUOUS
 62
     7
 10
505.260994
 20
189.961562
 11
504.802164
 21
190.243280
  0
LINE
  8
CSLAYER4
  6
CONTINUOUS
 62
     7
 10
504.802164
 20
190.243280
 11
504.316410
 21
190.478597
  0
LINE
  8
CSLAYER4
  6
CONTINUOUS
 62
     7
 10
504.316410
 20
190.478597
 11
503.809912
 21
190.664222
  0
LINE
  8
CSLAYER4
  6
CONTINUOUS
 62
     7
 10
503.809912
 20
190.664222
 11
503.286493
 21
190.798524
  0
LINE
  8
CSLAYER4
  6
CONTINUOUS
 62
     7
 10
503.286493
 20
190.798524
 11
502.752001
 21
190.879743
  0
LINE
  8
CSLAYER4
  6
CONTINUOUS
 62
     7
 10
502.752001
 20
190.879743
 11
502.211670
 21
190.906925
  0
LINE
  8
CSLAYER4
  6
CONTINUOUS
 62
     7
 10
502.211670
 20
190.906925
 11
501.671533
 21
190.879718
  0
LINE
  8
CSLAYER4
  6
CONTINUOUS
 62
     7
 10
501.671533
 20
190.879718
 11
501.136908
 21
190.798448
  0
LINE
  8
CSLAYER4
  6
CONTINUOUS
 62
     7
 10
501.136908
 20
190.798448
 11
500.613643
 21
190.664150
  0
LINE
  8
CSLAYER4
  6
CONTINUOUS
 62
     7
 10
500.613643
 20
190.664150
 11
500.106651
 21
190.478297
  0
LINE
  8
CSLAYER4
  6
CONTINUOUS
 62
     7
 10
500.106651
 20
190.478297
 11
499.622052
 21
190.243517
  0
LINE
  8
CSLAYER4
  6
CONTINUOUS
 62
     7
 10
499.622052
 20
190.243517
 11
499.163334
 21
189.961938
  0
LINE
  8
CSLAYER4
  6
CONTINUOUS
 62
     7
 10
499.163334
 20
189.961938
 11
498.734013
 21
189.635774
  0
LINE
  8
CSLAYER4
  6
CONTINUOUS
 62
     7
 10
498.734013
 20
189.635774
 11
498.339576
 21
189.269357
  0
LINE
  8
CSLAYER4
  6
CONTINUOUS
 62
     7
 10
498.339576
 20
189.269357
 11
497.983383
 21
188.866274
  0
LINE
  8
CSLAYER4
  6
CONTINUOUS
 62
     7
 10
497.983383
 20
188.866274
 11
497.667964
 21
188.429520
  0
LINE
  8
CSLAYER4
  6
CONTINUOUS
 62
     7
 10
497.667964
 20
188.429520
 11
497.396496
 21
187.963362
  0
LINE
  8
CSLAYER4
  6
CONTINUOUS
 62
     7
 10
497.396496
 20
187.963362
 11
497.172262
 21
187.473731
  0
LINE
  8
CSLAYER4
  6
CONTINUOUS
 62
     7
 10
497.172262
 20
187.473731
 11
496.996744
 21
186.964329
  0
LINE
  8
CSLAYER4
  6
CONTINUOUS
 62
     7
 10
496.996744
 20
186.964329
 11
496.871367
 21
186.438782
  0
LINE
  8
CSLAYER4
  6
CONTINUOUS
 62
     7
 10
496.871367
 20
186.438782
 11
496.797849
 21
185.903694
  0
LINE
  8
CSLAYER4
  6
CONTINUOUS
 62
     7
 10
496.797849
 20
185.903694
 11
496.776784
 21
185.365092
  0
LINE
  8
CSLAYER4
  6
CONTINUOUS
 62
     7
 10
496.776784
 20
185.365092
 11
496.776949
 21
185.350163
  0
CIRCLE
  8
CSLAYER4
  6
CONTINUOUS
 62
     7
 10
502.211892
 20
185.416049
 40
4.860000
  0
ENDBLK
  8
0
  0
ENDSEC
  0
SECTION
  2
ENTITIES
  0
TEXT
  8
CSLAYER1
 62
     7
 10
78.998314
 20
638.454224
 40
6.000000
 41
0.846774
  1
SMOLENSKY CHECK VALVE
 50
0.000000
 51
0.000000
  7
EASYDRAW_FONT
 72
     5
 11
183.998314
 21
638.454224
  0
TEXT
  8
CSLAYER1
 62
     7
 10
79.081444
 20
618.454224
 40
6.000000
 41
0.865385
  1
株式会社　イシザキ
 50
0.000000
 51
0.000000
  7
EASYDRAW_FONT
 72
     5
 11
124.081444
 21
618.454224
  0
TEXT
  8
CSLAYER1
 62
     7
 10
79.311974
 20
628.454224
 40
6.000000
 41
0.850000
  1
SM ・ SMC 10K 125A
 50
0.000000
 51
0.000000
  7
EASYDRAW_FONT
 72
     5
 11
164.311974
 21
628.454224
  0
LINE
  8
CSLAYER1
  6
CONTINUOUS
 62
     7
 10
69.834465
 20
64.608919
 11
69.834465
 21
85.108919
  0
LINE
  8
CSLAYER1
  6
CONTINUOUS
 62
     7
 10
117.834465
 20
91.108919
 11
117.834465
 21
127.608919
  0
LINE
  8
CSLAYER1
  6
CONTINUOUS
 62
     7
 10
317.834465
 20
294.108919
 11
71.834465
 21
294.108919
  0
LINE
  8
CSLAYER1
  6
CONTINUOUS
 62
     7
 10
69.834465
 20
296.108919
 11
69.834465
 21
316.608919
  0
LINE
  8
CSLAYER1
  6
CONTINUOUS
 62
     7
 10
130.834465
 20
63.108919
 11
71.334465
 21
63.108919
  0
ARC
  8
CSLAYER1
  6
CONTINUOUS
 62
     7
 10
113.834465
 20
91.108919
 40
4.000000
 50
270.000000
 51
360.000000
  0
LINE
  8
CSLAYER1
  6
CONTINUOUS
 62
     7
 10
71.334465
 20
318.108919
 11
318.334465
 21
318.108919
  0
LINE
  8
CSLAYER1
  6
CONTINUOUS
 62
     7
 10
71.834465
 20
87.108919
 11
317.834465
 21
87.108919
  0
LINE
  8
CSLAYER1
  6
CENTER
 62
     7
 10
89.834465
 20
289.108919
 11
89.834465
 21
323.108919
  0
LINE
  8
CSLAYER1
  6
CONTINUOUS
 62
     7
 10
69.834465
 20
85.108919
 11
71.834465
 21
87.108919
  0
LINE
  8
CSLAYER1
  6
CONTINUOUS
 62
     7
 10
71.834465
 20
294.108919
 11
69.834465
 21
296.108919
  0
LINE
  8
CSLAYER1
  6
CENTER
 62
     7
 10
194.834465
 20
53.108919
 11
194.834465
 21
103.758919
  0
LINE
  8
CSLAYER1
  6
CONTINUOUS
 62
     7
 10
69.834465
 20
64.608919
 11
71.334465
 21
63.108919
  0
LINE
  8
CSLAYER1
  6
CONTINUOUS
 62
     7
 10
69.834465
 20
316.608919
 11
71.334465
 21
318.108919
  0
LINE
  8
CSLAYER1
  6
CONTINUOUS
 62
     7
 10
90.834465
 20
132.608919
 11
298.834465
 21
132.608919
  0
ARC
  8
CSLAYER1
  6
CONTINUOUS
 62
     7
 10
112.834465
 20
127.608919
 40
5.000000
 50
0.000000
 51
90.000000
  0
LINE
  8
CSLAYER1
  6
CONTINUOUS
 62
     7
 10
107.834465
 20
269.098894
 11
92.834465
 21
260.438640
  0
LINE
  8
CSLAYER1
  6
CONTINUOUS
 62
     7
 10
110.334465
 20
273.429021
 11
110.334465
 21
291.108919
  0
ARC
  8
CSLAYER1
  6
CONTINUOUS
 62
     7
 10
107.334465
 20
291.108919
 40
3.000000
 50
0.000000
 51
90.000000
  0
LINE
  8
CSLAYER1
  6
CENTER
 62
     7
 10
89.834465
 20
92.108919
 11
89.834465
 21
58.108919
  0
ARC
  8
CSLAYER1
  6
CONTINUOUS
 62
     7
 10
105.334465
 20
273.429021
 40
5.000000
 50
300.000000
 51
360.000000
  0
LINE
  8
CSLAYER1
  6
CONTINUOUS
 62
     7
 10
72.834465
 20
150.608919
 11
72.834465
 21
225.797624
  0
ARC
  8
CSLAYER1
  6
CONTINUOUS
 62
     7
 10
90.834465
 20
150.608919
 40
18.000000
 50
180.000000
 51
270.000000
  0
ARC
  8
CSLAYER1
  6
CONTINUOUS
 62
     7
 10
112.834465
 20
225.797624
 40
40.000000
 50
120.000000
 51
180.000000
  0
LINE
  8
CSLAYER1
  6
CONTINUOUS
 62
     7
 10
319.834465
 20
64.608919
 11
319.834465
 21
85.108919
  0
LINE
  8
CSLAYER1
  6
CONTINUOUS
 62
     7
 10
271.834465
 20
91.108919
 11
271.834465
 21
96.820898
  0
LINE
  8
CSLAYER1
  6
CONTINUOUS
 62
     7
 10
319.834465
 20
296.108919
 11
319.834465
 21
316.608919
  0
LINE
  8
CSLAYER1
  6
CONTINUOUS
 62
     7
 10
71.334465
 20
63.108919
 11
318.334465
 21
63.108919
  0
ARC
  8
CSLAYER1
  6
CONTINUOUS
 62
     7
 10
275.834465
 20
91.108919
 40
4.000000
 50
180.000000
 51
270.000000
  0
LINE
  8
CSLAYER1
  6
CENTER
 62
     7
 10
299.834465
 20
289.108919
 11
299.834465
 21
323.108919
  0
LINE
  8
CSLAYER1
  6
CONTINUOUS
 62
     7
 10
319.834465
 20
85.108919
 11
317.834465
 21
87.108919
  0
LINE
  8
CSLAYER1
  6
CONTINUOUS
 62
     7
 10
317.834465
 20
294.108919
 11
319.834465
 21
296.108919
  0
LINE
  8
CSLAYER1
  6
CONTINUOUS
 62
     7
 10
319.834465
 20
64.608919
 11
318.334465
 21
63.108919
  0
LINE
  8
CSLAYER1
  6
CONTINUOUS
 62
     7
 10
319.834465
 20
316.608919
 11
318.334465
 21
318.108919
  0
LINE
  8
CSLAYER1
  6
CONTINUOUS
 62
     7
 10
281.834465
 20
269.098894
 11
296.834465
 21
260.438640
  0
LINE
  8
CSLAYER1
  6
CONTINUOUS
 62
     7
 10
279.334465
 20
273.429021
 11
279.334465
 21
291.108919
  0
ARC
  8
CSLAYER1
  6
CONTINUOUS
 62
     7
 10
282.334465
 20
291.108919
 40
3.000000
 50
90.000000
 51
180.000000
  0
LINE
  8
CSLAYER1
  6
CENTER
 62
     7
 10
299.834465
 20
92.108919
 11
299.834465
 21
58.108919
  0
ARC
  8
CSLAYER1
  6
CONTINUOUS
 62
     7
 10
284.334465
 20
273.429021
 40
5.000000
 50
180.000000
 51
240.000000
  0
ARC
  8
CSLAYER1
  6
CONTINUOUS
 62
     7
 10
276.834465
 20
225.797624
 40
40.000000
 50
0.000000
 51
60.000000
  0
LINE
  8
CSLAYER1
  6
CONTINUOUS
 62
     7
 10
316.834465
 20
204.706221
 11
316.834465
 21
214.068688
  0
INSERT
  8
CSLAYER1
  2
BLKF0000
 10
0.0
 20
0.0
 30
0.0
  0
LINE
  8
CSLAYER1
  6
CENTER
 62
     7
 10
194.834465
 20
87.108919
 11
194.834465
 21
328.108919
  0
LINE
  8
CSLAYER1
  6
CONTINUOUS
 62
     7
 10
383.430324
 20
64.608919
 11
383.430324
 21
85.108919
  0
LINE
  8
CSLAYER1
  6
CONTINUOUS
 62
     7
 10
431.430324
 20
91.108919
 11
431.430324
 21
127.608919
  0
LINE
  8
CSLAYER1
  6
CONTINUOUS
 62
     7
 10
631.430324
 20
294.108919
 11
385.430324
 21
294.108919
  0
LINE
  8
CSLAYER1
  6
CONTINUOUS
 62
     7
 10
383.430324
 20
296.108919
 11
383.430324
 21
316.608919
  0
LINE
  8
CSLAYER1
  6
CONTINUOUS
 62
     7
 10
444.430324
 20
63.108919
 11
384.930324
 21
63.108919
  0
ARC
  8
CSLAYER1
  6
CONTINUOUS
 62
     7
 10
427.430324
 20
91.108919
 40
4.000000
 50
270.000000
 51
360.000000
  0
LINE
  8
CSLAYER1
  6
CONTINUOUS
 62
     7
 10
385.430324
 20
87.108919
 11
631.430324
 21
87.108919
  0
LINE
  8
CSLAYER1
  6
CENTER
 62
     7
 10
403.430324
 20
289.108919
 11
403.430324
 21
323.108919
  0
LINE
  8
CSLAYER1
  6
CONTINUOUS
 62
     7
 10
383.430324
 20
85.108919
 11
385.430324
 21
87.108919
  0
LINE
  8
CSLAYER1
  6
CONTINUOUS
 62
     7
 10
385.430324
 20
294.108919
 11
383.430324
 21
296.108919
  0
LINE
  8
CSLAYER1
  6
CENTER
 62
     7
 10
508.430324
 20
53.108919
 11
508.430324
 21
103.758919
  0
LINE
  8
CSLAYER1
  6
CONTINUOUS
 62
     7
 10
383.430324
 20
64.608919
 11
384.930324
 21
63.108919
  0
LINE
  8
CSLAYER1
  6
CONTINUOUS
 62
     7
 10
383.430324
 20
316.608919
 11
384.930324
 21
318.108919
  0
LINE
  8
CSLAYER1
  6
CONTINUOUS
 62
     7
 10
612.430324
 20
132.608919
 11
404.430324
 21
132.608919
  0
ARC
  8
CSLAYER1
  6
CONTINUOUS
 62
     7
 10
426.430324
 20
127.608919
 40
5.000000
 50
0.000000
 51
90.000000
  0
LINE
  8
CSLAYER1
  6
CONTINUOUS
 62
     7
 10
421.430324
 20
269.098894
 11
406.430324
 21
260.438640
  0
LINE
  8
CSLAYER1
  6
CONTINUOUS
 62
     7
 10
423.930324
 20
273.429021
 11
423.930324
 21
291.108919
  0
ARC
  8
CSLAYER1
  6
CONTINUOUS
 62
     7
 10
420.930324
 20
291.108919
 40
3.000000
 50
0.000000
 51
90.000000
  0
LINE
  8
CSLAYER1
  6
CENTER
 62
     7
 10
403.430324
 20
92.108919
 11
403.430324
 21
58.108919
  0
ARC
  8
CSLAYER1
  6
CONTINUOUS
 62
     7
 10
418.930324
 20
273.429021
 40
5.000000
 50
300.000000
 51
360.000000
  0
LINE
  8
CSLAYER1
  6
CONTINUOUS
 62
     7
 10
386.430324
 20
150.608919
 11
386.430324
 21
225.797624
  0
ARC
  8
CSLAYER1
  6
CONTINUOUS
 62
     7
 10
404.430324
 20
150.608919
 40
18.000000
 50
180.000000
 51
270.000000
  0
ARC
  8
CSLAYER1
  6
CONTINUOUS
 62
     7
 10
426.430324
 20
225.797624
 40
40.000000
 50
120.000000
 51
180.000000
  0
LINE
  8
CSLAYER1
  6
CONTINUOUS
 62
     7
 10
633.430324
 20
64.608919
 11
633.430324
 21
85.108919
  0
LINE
  8
CSLAYER1
  6
CONTINUOUS
 62
     7
 10
585.430324
 20
91.108919
 11
585.430324
 21
96.820898
  0
LINE
  8
CSLAYER1
  6
CONTINUOUS
 62
     7
 10
633.430324
 20
296.108919
 11
633.430324
 21
316.608919
  0
LINE
  8
CSLAYER1
  6
CONTINUOUS
 62
     7
 10
384.930324
 20
63.108919
 11
631.930324
 21
63.108919
  0
LINE
  8
CSLAYER1
  6
CONTINUOUS
 62
     7
 10
631.930324
 20
318.108919
 11
384.930324
 21
318.108919
  0
LINE
  8
CSLAYER1
  6
CENTER
 62
     7
 10
613.430324
 20
289.108919
 11
613.430324
 21
323.108919
  0
LINE
  8
CSLAYER1
  6
CONTINUOUS
 62
     7
 10
633.430324
 20
85.108919
 11
631.430324
 21
87.108919
  0
LINE
  8
CSLAYER1
  6
CONTINUOUS
 62
     7
 10
631.430324
 20
294.108919
 11
633.430324
 21
296.108919
  0
LINE
  8
CSLAYER1
  6
CONTINUOUS
 62
     7
 10
633.430324
 20
64.608919
 11
631.930324
 21
63.108919
  0
LINE
  8
CSLAYER1
  6
CONTINUOUS
 62
     7
 10
633.430324
 20
316.608919
 11
631.930324
 21
318.108919
  0
LINE
  8
CSLAYER1
  6
CONTINUOUS
 62
     7
 10
595.430324
 20
269.098894
 11
610.430324
 21
260.438640
  0
LINE
  8
CSLAYER1
  6
CONTINUOUS
 62
     7
 10
592.930324
 20
273.429021
 11
592.930324
 21
291.108919
  0
ARC
  8
CSLAYER1
  6
CONTINUOUS
 62
     7
 10
595.930324
 20
291.108919
 40
3.000000
 50
90.000000
 51
180.000000
  0
LINE
  8
CSLAYER1
  6
CENTER
 62
     7
 10
613.430324
 20
92.108919
 11
613.430324
 21
58.108919
  0
ARC
  8
CSLAYER1
  6
CONTINUOUS
 62
     7
 10
597.930324
 20
273.429021
 40
5.000000
 50
180.000000
 51
240.000000
  0
ARC
  8
CSLAYER1
  6
CONTINUOUS
 62
     7
 10
590.430324
 20
225.797624
 40
40.000000
 50
0.000000
 51
60.000000
  0
LINE
  8
CSLAYER1
  6
CONTINUOUS
 62
     3
 10
663.930324
 20
206.828801
 11
663.930324
 21
209.078801
  0
LINE
  8
CSLAYER1
  6
CONTINUOUS
 62
     7
 10
633.251538
 20
212.910371
 11
661.803340
 21
211.205785
  0
LINE
  8
CSLAYER1
  6
CONTINUOUS
 62
     7
 10
654.251538
 20
168.500963
 11
661.933878
 21
168.959610
  0
LINE
  8
CSLAYER1
  6
CONTINUOUS
 62
     7
 10
630.430324
 20
215.905038
 11
630.430324
 21
225.267506
  0
LINE
  8
CSLAYER1
  6
CONTINUOUS
 62
     7
 10
630.430324
 20
203.328801
 11
630.430324
 21
200.328801
  0
LINE
  8
CSLAYER1
  6
CONTINUOUS
 62
     7
 10
630.430324
 20
176.828801
 11
630.430324
 21
179.828801
  0
LINE
  8
CSLAYER1
  6
CONTINUOUS
 62
     7
 10
592.340154
 20
105.801345
 11
630.700834
 21
118.265485
  0
LINE
  8
CSLAYER1
  6
CONTINUOUS
 62
     7
 10
651.430324
 20
165.506295
 11
651.430324
 21
146.797181
  0
ARC
  8
CSLAYER1
  6
CONTINUOUS
 62
     7
 10
595.430324
 20
96.290780
 40
10.000000
 50
108.000000
 51
180.000000
  0
ARC
  8
CSLAYER1
  6
CONTINUOUS
 62
     7
 10
621.430324
 20
146.797181
 40
30.000000
 50
288.000000
 51
360.000000
  0
ARC
  8
CSLAYER1
  6
CONTINUOUS
 62
     7
 10
633.430324
 20
215.905038
 40
3.000000
 50
180.000000
 51
266.583412
  0
ARC
  8
CSLAYER1
  6
CONTINUOUS
 62
     7
 10
654.430324
 20
165.506295
 40
3.000000
 50
93.416588
 51
180.000000
  0
LINE
  8
CSLAYER1
  6
CONTINUOUS
 62
     7
 10
661.933878
 20
168.959610
 11
663.930324
 21
171.209573
  0
LINE
  8
CSLAYER1
  6
CONTINUOUS
 62
     7
 10
663.930324
 20
209.078801
 11
661.803340
 21
211.205785
  0
LINE
  8
CSLAYER1
  6
CONTINUOUS
 62
     7
 10
663.930324
 20
209.078801
 11
663.930324
 21
171.209573
  0
INSERT
  8
CSLAYER1
  2
BLKF0001
 10
0.0
 20
0.0
 30
0.0
  0
INSERT
  8
CSLAYER1
  2
BLKF0002
 10
0.0
 20
0.0
 30
0.0
  0
LINE
  8
CSLAYER1
  6
CENTER
 62
     7
 10
508.430324
 20
87.108919
 11
508.430324
 21
328.108919
  0
LINE
  8
CSLAYER1
  6
CONTINUOUS
 62
     7
 10
276.834465
 20
132.608919
 11
298.834465
 21
132.608919
  0
ARC
  8
CSLAYER1
  6
CONTINUOUS
 62
     7
 10
298.834465
 20
150.608919
 40
18.000000
 50
270.000000
 51
360.000000
  0
LINE
  8
CSLAYER1
  6
CONTINUOUS
 62
     7
 10
316.834465
 20
150.608919
 11
316.834465
 21
225.797624
  0
ARC
  8
CSLAYER1
  6
CONTINUOUS
 62
     7
 10
276.834465
 20
127.608919
 40
5.000000
 50
90.000000
 51
180.000000
  0
LINE
  8
CSLAYER1
  6
CONTINUOUS
 62
     7
 10
271.834465
 20
91.108919
 11
271.834465
 21
127.608919
  0
LINE
  8
CSLAYER1
  6
CONTINUOUS
 62
     7
 10
630.430324
 20
150.608919
 11
630.430324
 21
225.797624
  0
ARC
  8
CSLAYER1
  6
CONTINUOUS
 62
     7
 10
612.430324
 20
150.608919
 40
18.000000
 50
270.000000
 51
360.000000
  0
ARC
  8
CSLAYER1
  6
CONTINUOUS
 62
     7
 10
590.430324
 20
127.608919
 40
5.000000
 50
90.000000
 51
180.000000
  0
ARC
  8
CSLAYER1
  6
CONTINUOUS
 62
     7
 10
589.430324
 20
91.108919
 40
4.000000
 50
180.000000
 51
270.000000
  0
LINE
  8
CSLAYER1
  6
CONTINUOUS
 62
     7
 10
585.430324
 20
91.108919
 11
585.430324
 21
127.608919
  0
ARC
  8
CSLAYER1
  6
CONTINUOUS
 62
     7
 10
633.430324
 20
164.252564
 40
3.000000
 50
93.416588
 51
180.000000
  0
LINE
  8
CSLAYER1
  6
CONTINUOUS
 62
     7
 10
633.251538
 20
167.247232
 11
661.803340
 21
168.951817
  0
LINE
  8
CSLAYER1
  6
CENTER
 62
     7
 10
508.430324
 20
190.108919
 11
714.930324
 21
190.108919
  0
LINE
  8
CSLAYER1
  6
CONTINUOUS
 62
     7
 10
666.997027
 20
207.070279
 11
666.997027
 21
190.019244
  0
LINE
  8
CSLAYER1
  6
CONTINUOUS
 62
     7
 10
675.997027
 20
202.551213
 11
675.997027
 21
190.019244
  0
LINE
  8
CSLAYER1
  6
CONTINUOUS
 62
     7
 10
664.496342
 20
208.150299
 11
666.049363
 21
208.068909
  0
LINE
  8
CSLAYER1
  6
CONTINUOUS
 62
     7
 10
674.392539
 20
204.298300
 11
667.997027
 21
204.298300
  0
LINE
  8
CSLAYER1
  6
CONTINUOUS
 62
     7
 10
675.894142
 20
202.697447
 11
675.258564
 21
203.798300
  0
LINE
  8
CSLAYER1
  6
CONTINUOUS
 62
     7
 10
681.747027
 20
199.163581
 11
676.260167
 21
202.331421
  0
LINE
  8
CSLAYER1
  6
CONTINUOUS
 62
     7
 10
681.997027
 20
198.730568
 11
681.997027
 21
190.019244
  0
LINE
  8
CSLAYER1
  6
CONTINUOUS
 62
     7
 10
674.969889
 20
197.236122
 11
666.997027
 21
197.236122
  0
ARC
  8
CSLAYER1
  6
CONTINUOUS
 62
     7
 10
665.997027
 20
207.070279
 40
1.000000
 50
0.000000
 51
87.000000
  0
ARC
  8
CSLAYER1
  6
CONTINUOUS
 62
     7
 10
667.997027
 20
205.298300
 40
1.000000
 50
180.000000
 51
270.000000
  0
ARC
  8
CSLAYER1
  6
CONTINUOUS
 62
     7
 10
681.497027
 20
198.730568
 40
0.500000
 50
0.000000
 51
60.000000
  0
ARC
  8
CSLAYER1
  6
CONTINUOUS
 62
     7
 10
669.416796
 20
200.767211
 40
6.580686
 50
-32.451377
 51
27.532576
  0
ARC
  8
CSLAYER1
  6
CONTINUOUS
 62
     7
 10
650.129852
 20
190.019244
 40
25.867175
 50
0.000000
 51
16.200384
  0
ARC
  8
CSLAYER1
  6
CONTINUOUS
 62
     7
 10
676.760167
 20
203.197447
 40
1.000000
 50
210.000000
 51
240.000000
  0
ARC
  8
CSLAYER1
  6
CONTINUOUS
 62
     7
 10
674.392539
 20
203.298300
 40
1.000000
 50
30.000000
 51
90.000000
  0
LINE
  8
CSLAYER1
  6
CONTINUOUS
 62
     7
 10
664.496342
 20
208.150299
 11
663.997027
 21
207.700714
  0
LINE
  8
CSLAYER1
  6
CONTINUOUS
 62
     7
 10
664.496342
 20
208.150299
 11
664.496342
 21
190.019244
  0
LINE
  8
CSLAYER1
  6
CONTINUOUS
 62
     7
 10
687.497027
 20
194.519244
 11
685.097027
 21
196.919244
  0
LINE
  8
CSLAYER1
  6
CONTINUOUS
 62
     7
 10
681.997027
 20
196.919244
 11
685.097027
 21
196.919244
  0
LINE
  8
CSLAYER1
  6
CONTINUOUS
 62
     7
 10
687.497027
 20
194.519244
 11
687.497027
 21
190.019244
  0
LINE
  8
CSLAYER1
  6
CONTINUOUS
 62
     7
 10
685.097027
 20
196.919244
 11
685.097027
 21
190.019244
  0
LINE
  8
CSLAYER1
  6
CONTINUOUS
 62
     7
 10
705.497027
 20
192.019244
 11
705.497027
 21
190.019244
  0
LINE
  8
CSLAYER1
  6
CONTINUOUS
 62
     7
 10
704.497027
 20
193.019244
 11
705.497027
 21
192.019244
  0
LINE
  8
CSLAYER1
  6
CONTINUOUS
 62
     7
 10
705.497027
 20
188.019244
 11
705.497027
 21
190.019244
  0
LINE
  8
CSLAYER1
  6
CONTINUOUS
 62
     7
 10
688.497027
 20
201.519244
 11
689.697027
 21
201.519244
  0
LINE
  8
CSLAYER1
  6
CONTINUOUS
 62
     7
 10
698.497027
 20
215.019244
 11
692.372544
 21
215.019244
  0
ARC
  8
CSLAYER1
  6
CONTINUOUS
 62
     7
 10
698.497027
 20
214.019244
 40
1.000000
 50
0.000000
 51
90.000000
  0
ARC
  8
CSLAYER1
  6
CONTINUOUS
 62
     7
 10
692.372544
 20
214.019244
 40
1.000000
 50
90.000000
 51
172.405357
  0
LINE
  8
CSLAYER1
  6
CONTINUOUS
 62
     7
 10
699.497027
 20
194.968989
 11
699.497027
 21
214.019244
  0
LINE
  8
CSLAYER1
  6
CONTINUOUS
 62
     7
 10
691.381316
 20
214.151407
 11
689.697027
 21
201.519244
  0
LINE
  8
CSLAYER1
  6
CONTINUOUS
 62
     7
 10
699.497027
 20
193.019244
 11
699.497027
 21
190.019244
  0
LINE
  8
CSLAYER1
  6
CONTINUOUS
 62
     7
 10
704.050445
 20
195.792746
 11
699.497027
 21
195.792746
  0
LINE
  8
CSLAYER1
  6
CONTINUOUS
 62
     7
 10
704.050445
 20
192.905995
 11
699.497027
 21
192.905995
  0
LINE
  8
CSLAYER1
  6
CONTINUOUS
 62
     7
 10
704.497027
 20
195.019244
 11
704.050445
 21
195.792746
  0
ARC
  8
CSLAYER1
  6
CONTINUOUS
 62
     7
 10
701.218195
 20
194.349371
 40
3.178833
 50
-27.004365
 51
27.004365
  0
ARC
  8
CSLAYER1
  6
CONTINUOUS
 62
     7
 10
692.201569
 20
190.019244
 40
12.195458
 50
0.000000
 51
13.692271
  0
LINE
  8
CSLAYER1
  6
CONTINUOUS
 62
     7
 10
704.497027
 20
195.019244
 11
704.497027
 21
190.019244
  0
LINE
  8
CSLAYER1
  6
CONTINUOUS
 62
     7
 10
699.497027
 20
195.792746
 11
699.497027
 21
190.019244
  0
LINE
  8
CSLAYER1
  6
CONTINUOUS
 62
     7
 10
689.697027
 20
201.519244
 11
689.697027
 21
190.019244
  0
LINE
  8
CSLAYER1
  6
CONTINUOUS
 62
     7
 10
691.381316
 20
214.151407
 11
691.381316
 21
190.019244
  0
LINE
  8
CSLAYER1
  6
CONTINUOUS
 62
     7
 10
698.497027
 20
192.905518
 11
692.381316
 21
192.905518
  0
LINE
  8
CSLAYER1
  6
CONTINUOUS
 62
     7
 10
698.497027
 20
204.113231
 11
692.381316
 21
204.113231
  0
LINE
  8
CSLAYER1
  6
CONTINUOUS
 62
     7
 10
698.497027
 20
212.837425
 11
692.381316
 21
212.837425
  0
LINE
  8
CSLAYER1
  6
CONTINUOUS
 62
     7
 10
698.497027
 20
208.575593
 11
692.381316
 21
208.575593
  0
ARC
  8
CSLAYER1
  6
CONTINUOUS
 62
     7
 10
688.497027
 20
200.519244
 40
1.000000
 50
90.000000
 51
180.000000
  0
LINE
  8
CSLAYER1
  6
CONTINUOUS
 62
     7
 10
687.497027
 20
200.519244
 11
687.497027
 21
190.019244
  0
LINE
  8
CSLAYER1
  6
CONTINUOUS
 62
     7
 10
666.997027
 20
172.968208
 11
666.997027
 21
190.019244
  0
LINE
  8
CSLAYER1
  6
CONTINUOUS
 62
     7
 10
675.997027
 20
177.487274
 11
675.997027
 21
190.019244
  0
LINE
  8
CSLAYER1
  6
CONTINUOUS
 62
     7
 10
664.496342
 20
171.888188
 11
666.049363
 21
171.969579
  0
LINE
  8
CSLAYER1
  6
CONTINUOUS
 62
     7
 10
674.392539
 20
175.740187
 11
667.997027
 21
175.740187
  0
LINE
  8
CSLAYER1
  6
CONTINUOUS
 62
     7
 10
675.894142
 20
177.341040
 11
675.258564
 21
176.240187
  0
LINE
  8
CSLAYER1
  6
CONTINUOUS
 62
     7
 10
681.747027
 20
180.874906
 11
676.260167
 21
177.707066
  0
LINE
  8
CSLAYER1
  6
CONTINUOUS
 62
     7
 10
681.997027
 20
181.307919
 11
681.997027
 21
190.019244
  0
LINE
  8
CSLAYER1
  6
CONTINUOUS
 62
     7
 10
674.969889
 20
182.802365
 11
666.997027
 21
182.802365
  0
ARC
  8
CSLAYER1
  6
CONTINUOUS
 62
     7
 10
665.997027
 20
172.968208
 40
1.000000
 50
273.000000
 51
360.000000
  0
ARC
  8
CSLAYER1
  6
CONTINUOUS
 62
     7
 10
667.997027
 20
174.740187
 40
1.000000
 50
90.000000
 51
180.000000
  0
ARC
  8
CSLAYER1
  6
CONTINUOUS
 62
     7
 10
681.497027
 20
181.307919
 40
0.500000
 50
300.000000
 51
360.000000
  0
ARC
  8
CSLAYER1
  6
CONTINUOUS
 62
     7
 10
669.416796
 20
179.271276
 40
6.580686
 50
-27.532576
 51
32.451377
  0
ARC
  8
CSLAYER1
  6
CONTINUOUS
 62
     7
 10
650.129852
 20
190.019244
 40
25.867175
 50
343.799616
 51
360.000000
  0
ARC
  8
CSLAYER1
  6
CONTINUOUS
 62
     7
 10
676.760167
 20
176.841040
 40
1.000000
 50
120.000000
 51
150.000000
  0
ARC
  8
CSLAYER1
  6
CONTINUOUS
 62
     7
 10
674.392539
 20
176.740187
 40
1.000000
 50
270.000000
 51
330.000000
  0
LINE
  8
CSLAYER1
  6
CONTINUOUS
 62
     7
 10
664.496342
 20
171.888188
 11
663.997027
 21
172.337773
  0
LINE
  8
CSLAYER1
  6
CONTINUOUS
 62
     7
 10
664.496342
 20
171.888188
 11
664.496342
 21
190.019244
  0
LINE
  8
CSLAYER1
  6
CONTINUOUS
 62
     7
 10
687.497027
 20
185.519244
 11
685.097027
 21
183.119244
  0
LINE
  8
CSLAYER1
  6
CONTINUOUS
 62
     7
 10
681.997027
 20
183.119244
 11
685.097027
 21
183.119244
  0
LINE
  8
CSLAYER1
  6
CONTINUOUS
 62
     7
 10
687.497027
 20
185.519244
 11
687.497027
 21
190.019244
  0
LINE
  8
CSLAYER1
  6
CONTINUOUS
 62
     7
 10
685.097027
 20
183.119244
 11
685.097027
 21
190.019244
  0
LINE
  8
CSLAYER1
  6
CONTINUOUS
 62
     7
 10
705.497027
 20
188.019244
 11
705.497027
 21
190.019244
  0
LINE
  8
CSLAYER1
  6
CONTINUOUS
 62
     7
 10
704.497027
 20
187.019244
 11
705.497027
 21
188.019244
  0
LINE
  8
CSLAYER1
  6
CONTINUOUS
 62
     7
 10
705.497027
 20
192.019244
 11
705.497027
 21
190.019244
  0
LINE
  8
CSLAYER1
  6
CONTINUOUS
 62
     7
 10
688.497027
 20
178.519244
 11
689.697027
 21
178.519244
  0
LINE
  8
CSLAYER1
  6
CONTINUOUS
 62
     7
 10
698.497027
 20
165.019244
 11
692.372544
 21
165.019244
  0
ARC
  8
CSLAYER1
  6
CONTINUOUS
 62
     7
 10
698.497027
 20
166.019244
 40
1.000000
 50
270.000000
 51
360.000000
  0
ARC
  8
CSLAYER1
  6
CONTINUOUS
 62
     7
 10
692.372544
 20
166.019244
 40
1.000000
 50
187.594643
 51
270.000000
  0
LINE
  8
CSLAYER1
  6
CONTINUOUS
 62
     7
 10
699.497027
 20
185.069499
 11
699.497027
 21
166.019244
  0
LINE
  8
CSLAYER1
  6
CONTINUOUS
 62
     7
 10
691.381316
 20
165.887080
 11
689.697027
 21
178.519244
  0
LINE
  8
CSLAYER1
  6
CONTINUOUS
 62
     7
 10
699.497027
 20
187.019244
 11
699.497027
 21
190.019244
  0
LINE
  8
CSLAYER1
  6
CONTINUOUS
 62
     7
 10
704.050445
 20
184.245741
 11
699.497027
 21
184.245741
  0
LINE
  8
CSLAYER1
  6
CONTINUOUS
 62
     7
 10
704.050445
 20
187.132492
 11
699.497027
 21
187.132492
  0
LINE
  8
CSLAYER1
  6
CONTINUOUS
 62
     7
 10
704.497027
 20
185.019244
 11
704.050445
 21
184.245741
  0
ARC
  8
CSLAYER1
  6
CONTINUOUS
 62
     7
 10
701.218195
 20
185.689117
 40
3.178833
 50
-27.004365
 51
27.004365
  0
ARC
  8
CSLAYER1
  6
CONTINUOUS
 62
     7
 10
692.201569
 20
190.019244
 40
12.195458
 50
346.307729
 51
360.000000
  0
LINE
  8
CSLAYER1
  6
CONTINUOUS
 62
     7
 10
704.497027
 20
185.019244
 11
704.497027
 21
190.019244
  0
LINE
  8
CSLAYER1
  6
CONTINUOUS
 62
     7
 10
699.497027
 20
184.245741
 11
699.497027
 21
190.019244
  0
LINE
  8
CSLAYER1
  6
CONTINUOUS
 62
     7
 10
689.697027
 20
178.519244
 11
689.697027
 21
190.019244
  0
LINE
  8
CSLAYER1
  6
CONTINUOUS
 62
     7
 10
691.381316
 20
165.887080
 11
691.381316
 21
190.019244
  0
LINE
  8
CSLAYER1
  6
CONTINUOUS
 62
     7
 10
698.497027
 20
187.132969
 11
692.381316
 21
187.132969
  0
LINE
  8
CSLAYER1
  6
CONTINUOUS
 62
     7
 10
698.497027
 20
175.925256
 11
692.381316
 21
175.925256
  0
LINE
  8
CSLAYER1
  6
CONTINUOUS
 62
     7
 10
698.497027
 20
167.201062
 11
692.381316
 21
167.201062
  0
LINE
  8
CSLAYER1
  6
CONTINUOUS
 62
     7
 10
698.497027
 20
171.462894
 11
692.381316
 21
171.462894
  0
ARC
  8
CSLAYER1
  6
CONTINUOUS
 62
     7
 10
688.497027
 20
179.519244
 40
1.000000
 50
180.000000
 51
270.000000
  0
LINE
  8
CSLAYER1
  6
CONTINUOUS
 62
     7
 10
687.497027
 20
179.519244
 11
687.497027
 21
190.019244
  0
LINE
  8
CSLAYER1
  6
CONTINUOUS
 62
     7
 10
705.430324
 20
20.000000
 11
705.430324
 21
190.108919
  0
LINE
  8
CSLAYER1
  6
CONTINUOUS
 62
     7
 10
508.430324
 20
20.000000
 11
508.430324
 21
53.108919
  0
LINE
  8
CSLAYER1
  6
CONTINUOUS
 62
     7
 10
705.430324
 20
23.000000
 11
508.430324
 21
23.000000
  0
LINE
  8
CSLAYER1
  6
CONTINUOUS
 62
     7
 10
705.430324
 20
23.000000
 11
702.532546
 21
23.776457
  0
LINE
  8
CSLAYER1
  6
CONTINUOUS
 62
     7
 10
705.430324
 20
23.000000
 11
702.532546
 21
22.223543
  0
LINE
  8
CSLAYER1
  6
CONTINUOUS
 62
     7
 10
508.430324
 20
23.000000
 11
511.328101
 21
23.776457
  0
LINE
  8
CSLAYER1
  6
CONTINUOUS
 62
     7
 10
508.430324
 20
23.000000
 11
511.328101
 21
22.223543
  0
INSERT
  8
CSLAYER1
  2
BLKF0003
 10
0.0
 20
0.0
 30
0.0
  0
LINE
  8
CSLAYER4
  6
CONTINUOUS
 62
     7
 10
499.301244
 20
213.488901
 11
499.299546
 21
213.509490
  0
LINE
  8
CSLAYER4
  6
CONTINUOUS
 62
     7
 10
514.215814
 20
213.509490
 11
514.214116
 21
213.488901
  0
INSERT
  8
CSLAYER4
  2
BLKF0004
 10
0.0
 20
0.0
 30
0.0
  0
LINE
  8
CSLAYER4
  6
CONTINUOUS
 62
     7
 10
497.425446
 20
223.130646
 11
497.422899
 21
223.161530
  0
INSERT
  8
CSLAYER4
  2
BLKF0005
 10
0.0
 20
0.0
 30
0.0
  0
LINE
  8
CSLAYER4
  6
CONTINUOUS
 62
     7
 10
519.797301
 20
223.161530
 11
519.794754
 21
223.130646
  0
LINE
  8
CSLAYER4
  6
CONTINUOUS
 62
     7
 10
470.575858
 20
197.664416
 11
466.950412
 21
197.664416
  0
LINE
  8
CSLAYER4
  6
CONTINUOUS
 62
     7
 10
463.270422
 20
204.880859
 11
470.575858
 21
197.664416
  0
LINE
  8
CSLAYER4
  6
CONTINUOUS
 62
     7
 10
463.270422
 20
204.880859
 11
463.270422
 21
184.703675
  0
LINE
  8
CSLAYER4
  6
CONTINUOUS
 62
     7
 10
466.950412
 20
184.703675
 11
463.270422
 21
184.703675
  0
LINE
  8
CSLAYER4
  6
CONTINUOUS
 62
     7
 10
466.950412
 20
184.703675
 11
466.950412
 21
197.664416
  0
LINE
  8
CSLAYER4
  6
CONTINUOUS
 62
     7
 10
504.172168
 20
176.955035
 11
501.696070
 21
172.740401
  0
LINE
  8
CSLAYER4
  6
CONTINUOUS
 62
     7
 10
501.696070
 20
172.740401
 11
504.435582
 21
166.155035
  0
LINE
  8
CSLAYER4
  6
CONTINUOUS
 62
     7
 10
504.435582
 20
166.155035
 11
502.697046
 21
166.155035
  0
LINE
  8
CSLAYER4
  6
CONTINUOUS
 62
     7
 10
502.697046
 20
166.155035
 11
500.800461
 21
171.107231
  0
LINE
  8
CSLAYER4
  6
CONTINUOUS
 62
     7
 10
500.800461
 20
171.107231
 11
500.115582
 21
170.000889
  0
LINE
  8
CSLAYER4
  6
CONTINUOUS
 62
     7
 10
500.115582
 20
166.155035
 11
500.115582
 21
170.000889
  0
LINE
  8
CSLAYER4
  6
CONTINUOUS
 62
     7
 10
500.115582
 20
166.155035
 11
498.640461
 21
166.155035
  0
LINE
  8
CSLAYER4
  6
CONTINUOUS
 62
     7
 10
498.640461
 20
176.955035
 11
498.640461
 21
166.155035
  0
LINE
  8
CSLAYER4
  6
CONTINUOUS
 62
     7
 10
498.640461
 20
176.955035
 11
500.115582
 21
176.955035
  0
LINE
  8
CSLAYER4
  6
CONTINUOUS
 62
     7
 10
500.115582
 20
172.898450
 11
500.115582
 21
176.955035
  0
LINE
  8
CSLAYER4
  6
CONTINUOUS
 62
     7
 10
500.115582
 20
172.898450
 11
502.380949
 21
176.955035
  0
LINE
  8
CSLAYER4
  6
CONTINUOUS
 62
     7
 10
502.380949
 20
176.955035
 11
504.172168
 21
176.955035
  0
LINE
  8
CSLAYER4
  6
CONTINUOUS
 62
     7
 10
511.178997
 20
170.685767
 11
511.178997
 21
172.160889
  0
LINE
  8
CSLAYER4
  6
CONTINUOUS
 62
     7
 10
511.178997
 20
170.685767
 11
505.225827
 21
170.685767
  0
LINE
  8
CSLAYER4
  6
CONTINUOUS
 62
     7
 10
505.225827
 20
172.160889
 11
505.225827
 21
170.685767
  0
LINE
  8
CSLAYER4
  6
CONTINUOUS
 62
     7
 10
505.225827
 20
172.160889
 11
511.178997
 21
172.160889
  0
LINE
  8
CSLAYER1
  6
CONTINUOUS
 62
     7
 10
483.611640
 20
193.475493
 11
483.611640
 21
204.307256
  0
LINE
  8
CSLAYER1
  6
CONTINUOUS
 62
     7
 10
483.611640
 20
204.307256
 11
485.168967
 21
204.307256
  0
LINE
  8
CSLAYER1
  6
CONTINUOUS
 62
     7
 10
483.611640
 20
193.475493
 11
484.612779
 21
193.475493
  0
LINE
  8
CSLAYER1
  6
CONTINUOUS
 62
     7
 10
487.171243
 20
193.475493
 11
488.214096
 21
193.475493
  0
LINE
  8
CSLAYER1
  6
CONTINUOUS
 62
     7
 10
490.758657
 20
193.475493
 11
491.718081
 21
193.475493
  0
LINE
  8
CSLAYER1
  6
CONTINUOUS
 62
     7
 10
484.612779
 20
193.475493
 11
484.612779
 21
202.388408
  0
LINE
  8
CSLAYER1
  6
CONTINUOUS
 62
     7
 10
491.718081
 20
193.475493
 11
491.718081
 21
204.307256
  0
LINE
  8
CSLAYER1
  6
CONTINUOUS
 62
     7
 10
490.758657
 20
193.475493
 11
490.758657
 21
202.388408
  0
LINE
  8
CSLAYER1
  6
CONTINUOUS
 62
     7
 10
484.612779
 20
202.388408
 11
484.697184
 21
202.388408
  0
LINE
  8
CSLAYER1
  6
CONTINUOUS
 62
     7
 10
484.697184
 20
202.388408
 11
487.171243
 21
193.475493
  0
LINE
  8
CSLAYER1
  6
CONTINUOUS
 62
     7
 10
490.758657
 20
202.388408
 11
490.685344
 21
202.388408
  0
LINE
  8
CSLAYER1
  6
CONTINUOUS
 62
     7
 10
488.214096
 20
193.475493
 11
490.685344
 21
202.388408
  0
LINE
  8
CSLAYER1
  6
CONTINUOUS
 62
     5
 10
487.647265
 20
195.495597
 11
487.742403
 21
195.495597
  0
LINE
  8
CSLAYER1
  6
CONTINUOUS
 62
     7
 10
491.718081
 20
204.307256
 11
490.253761
 21
204.307256
  0
LINE
  8
CSLAYER1
  6
CONTINUOUS
 62
     7
 10
485.168967
 20
204.307256
 11
487.647265
 21
195.495597
  0
LINE
  8
CSLAYER1
  6
CONTINUOUS
 62
     7
 10
487.742403
 20
195.495597
 11
490.253761
 21
204.307256
  0
LINE
  8
CSLAYER1
  6
CONTINUOUS
 62
     7
 10
501.978249
 20
204.307256
 11
501.978249
 21
193.475493
  0
LINE
  8
CSLAYER1
  6
CONTINUOUS
 62
     7
 10
501.978249
 20
193.475493
 11
507.717519
 21
193.475493
  0
LINE
  8
CSLAYER1
  6
CONTINUOUS
 62
     7
 10
507.717519
 20
193.475493
 11
507.717519
 21
194.869862
  0
LINE
  8
CSLAYER1
  6
CONTINUOUS
 62
     7
 10
507.717519
 20
194.869862
 11
502.929636
 21
194.869862
  0
LINE
  8
CSLAYER1
  6
CONTINUOUS
 62
     7
 10
502.929636
 20
194.869862
 11
502.929636
 21
204.307256
  0
LINE
  8
CSLAYER1
  6
CONTINUOUS
 62
     7
 10
501.978249
 20
204.307256
 11
502.929636
 21
204.307256
  0
LINE
  8
CSLAYER1
  6
CONTINUOUS
 62
     7
 10
510.719893
 20
204.307256
 11
510.719893
 21
193.475493
  0
LINE
  8
CSLAYER1
  6
CONTINUOUS
 62
     7
 10
510.719893
 20
204.307256
 11
516.756853
 21
204.307256
  0
LINE
  8
CSLAYER1
  6
CONTINUOUS
 62
     7
 10
516.756853
 20
204.307256
 11
516.756853
 21
202.873137
  0
LINE
  8
CSLAYER1
  6
CONTINUOUS
 62
     7
 10
516.756853
 20
202.873137
 11
511.701247
 21
202.873137
  0
LINE
  8
CSLAYER1
  6
CONTINUOUS
 62
     7
 10
511.701247
 20
202.873137
 11
511.701247
 21
199.859994
  0
LINE
  8
CSLAYER1
  6
CONTINUOUS
 62
     7
 10
511.701247
 20
199.859994
 11
516.256311
 21
199.859994
  0
LINE
  8
CSLAYER1
  6
CONTINUOUS
 62
     7
 10
516.256311
 20
199.859994
 11
516.256311
 21
198.454497
  0
LINE
  8
CSLAYER1
  6
CONTINUOUS
 62
     7
 10
516.256311
 20
198.454497
 11
511.701247
 21
198.454497
  0
LINE
  8
CSLAYER1
  6
CONTINUOUS
 62
     7
 10
511.701247
 20
198.454497
 11
511.701247
 21
194.857328
  0
LINE
  8
CSLAYER1
  6
CONTINUOUS
 62
     7
 10
511.701247
 20
194.857328
 11
516.756853
 21
194.857328
  0
LINE
  8
CSLAYER1
  6
CONTINUOUS
 62
     7
 10
510.719893
 20
193.475493
 11
516.756853
 21
193.475493
  0
LINE
  8
CSLAYER1
  6
CONTINUOUS
 62
     7
 10
519.840802
 20
204.307256
 11
519.840802
 21
193.475493
  0
LINE
  8
CSLAYER1
  6
CONTINUOUS
 62
     7
 10
519.840802
 20
193.475493
 11
520.857844
 21
193.475493
  0
LINE
  8
CSLAYER1
  6
CONTINUOUS
 62
     7
 10
520.857844
 20
193.475493
 11
520.857844
 21
202.090167
  0
LINE
  8
CSLAYER1
  6
CONTINUOUS
 62
     7
 10
519.840802
 20
204.307256
 11
520.923148
 21
204.307256
  0
LINE
  8
CSLAYER1
  6
CONTINUOUS
 62
     7
 10
525.195085
 20
204.307256
 11
526.212732
 21
204.307256
  0
LINE
  8
CSLAYER1
  6
CONTINUOUS
 62
     7
 10
525.195085
 20
195.668655
 11
525.195085
 21
204.307256
  0
LINE
  8
CSLAYER1
  6
CONTINUOUS
 62
     7
 10
526.212732
 20
204.307256
 11
526.212732
 21
193.475493
  0
LINE
  8
CSLAYER1
  6
CONTINUOUS
 62
     7
 10
526.212732
 20
193.475493
 11
525.120598
 21
193.475493
  0
LINE
  8
CSLAYER1
  6
CONTINUOUS
 62
     7
 10
525.195085
 20
195.668655
 11
525.114859
 21
195.668655
  0
LINE
  8
CSLAYER1
  6
CONTINUOUS
 62
     7
 10
520.857844
 20
202.090167
 11
520.954822
 21
202.090167
  0
LINE
  8
CSLAYER1
  6
CONTINUOUS
 62
     7
 10
520.954822
 20
202.090167
 11
525.120598
 21
193.475493
  0
LINE
  8
CSLAYER1
  6
CONTINUOUS
 62
     7
 10
525.114859
 20
195.668655
 11
520.923148
 21
204.307256
  0
LINE
  8
CSLAYER1
  6
CONTINUOUS
 62
     7
 10
537.197457
 20
204.307256
 11
537.197457
 21
193.475493
  0
LINE
  8
CSLAYER1
  6
CONTINUOUS
 62
     7
 10
537.197457
 20
204.307256
 11
538.244673
 21
204.307256
  0
LINE
  8
CSLAYER1
  6
CONTINUOUS
 62
     7
 10
537.197457
 20
193.475493
 11
538.272600
 21
193.475493
  0
LINE
  8
CSLAYER1
  6
CONTINUOUS
 62
     7
 10
538.272600
 20
193.475493
 11
538.272600
 21
197.135199
  0
LINE
  8
CSLAYER1
  6
CONTINUOUS
 62
     7
 10
538.244673
 20
204.307256
 11
538.244673
 21
198.950375
  0
LINE
  8
CSLAYER1
  6
CONTINUOUS
 62
     7
 10
542.377689
 20
204.307256
 11
543.778159
 21
204.307256
  0
LINE
  8
CSLAYER1
  6
CONTINUOUS
 62
     7
 10
542.768652
 20
193.475493
 11
544.304569
 21
193.475493
  0
LINE
  8
CSLAYER1
  6
CONTINUOUS
 62
     7
 10
542.377689
 20
204.307256
 11
538.244673
 21
198.950375
  0
LINE
  8
CSLAYER1
  6
CONTINUOUS
 62
     7
 10
543.778159
 20
204.307256
 11
540.575182
 21
200.155815
  0
LINE
  8
CSLAYER1
  6
CONTINUOUS
 62
     7
 10
544.304569
 20
193.475493
 11
540.575182
 21
200.155815
  0
LINE
  8
CSLAYER1
  6
CONTINUOUS
 62
     7
 10
542.768652
 20
193.475493
 11
539.781657
 21
199.127313
  0
LINE
  8
CSLAYER1
  6
CONTINUOUS
 62
     7
 10
539.781657
 20
199.127313
 11
538.244673
 21
197.135199
  0
LINE
  8
CSLAYER1
  6
CONTINUOUS
 62
     7
 10
545.597307
 20
204.307256
 11
546.838242
 21
204.307256
  0
LINE
  8
CSLAYER1
  6
CONTINUOUS
 62
     7
 10
551.129814
 20
204.307256
 11
552.396603
 21
204.307256
  0
LINE
  8
CSLAYER1
  6
CONTINUOUS
 62
     7
 10
548.466972
 20
193.475493
 11
549.501085
 21
193.475493
  0
LINE
  8
CSLAYER1
  6
CONTINUOUS
 62
     7
 10
548.466972
 20
193.475493
 11
548.466972
 21
198.020679
  0
LINE
  8
CSLAYER1
  6
CONTINUOUS
 62
     7
 10
549.501085
 20
193.475493
 11
549.501085
 21
198.020679
  0
LINE
  8
CSLAYER1
  6
CONTINUOUS
 62
     7
 10
548.466972
 20
198.020679
 11
545.597307
 21
204.307256
  0
LINE
  8
CSLAYER1
  6
CONTINUOUS
 62
     7
 10
549.501085
 20
198.020679
 11
552.396603
 21
204.307256
  0
LINE
  8
CSLAYER1
  6
CONTINUOUS
 62
     7
 10
548.951265
 20
199.254951
 11
549.054793
 21
199.254951
  0
LINE
  8
CSLAYER1
  6
CONTINUOUS
 62
     7
 10
548.754238
 20
199.252362
 11
546.838242
 21
204.307256
  0
LINE
  8
CSLAYER1
  6
CONTINUOUS
 62
     7
 10
549.054793
 20
199.254951
 11
551.129814
 21
204.307256
  0
LINE
  8
CSLAYER1
  6
CONTINUOUS
 62
     7
 10
516.756853
 20
194.857328
 11
516.756853
 21
193.475493
  0
INSERT
  8
CSLAYER1
  2
BLKF0006
 10
0.0
 20
0.0
 30
0.0
  0
INSERT
  8
CSLAYER1
  2
BLKF0007
 10
0.0
 20
0.0
 30
0.0
  0
INSERT
  8
CSLAYER1
  2
BLKF0008
 10
0.0
 20
0.0
 30
0.0
  0
LINE
  8
CSLAYER1
  6
CONTINUOUS
 62
     7
 10
483.611640
 20
180.020564
 11
483.611640
 21
190.852326
  0
LINE
  8
CSLAYER1
  6
CONTINUOUS
 62
     7
 10
483.611640
 20
190.852326
 11
485.168967
 21
190.852326
  0
LINE
  8
CSLAYER1
  6
CONTINUOUS
 62
     7
 10
483.611640
 20
180.020564
 11
484.612779
 21
180.020564
  0
LINE
  8
CSLAYER1
  6
CONTINUOUS
 62
     7
 10
487.171243
 20
180.020564
 11
488.214096
 21
180.020564
  0
LINE
  8
CSLAYER1
  6
CONTINUOUS
 62
     7
 10
490.758657
 20
180.020564
 11
491.718081
 21
180.020564
  0
LINE
  8
CSLAYER1
  6
CONTINUOUS
 62
     7
 10
484.612779
 20
180.020564
 11
484.612779
 21
188.933478
  0
LINE
  8
CSLAYER1
  6
CONTINUOUS
 62
     7
 10
491.718081
 20
180.020564
 11
491.718081
 21
190.852326
  0
LINE
  8
CSLAYER1
  6
CONTINUOUS
 62
     7
 10
490.758657
 20
180.020564
 11
490.758657
 21
188.933478
  0
LINE
  8
CSLAYER1
  6
CONTINUOUS
 62
     7
 10
484.612779
 20
188.933478
 11
484.697184
 21
188.933478
  0
LINE
  8
CSLAYER1
  6
CONTINUOUS
 62
     7
 10
484.697184
 20
188.933478
 11
487.171243
 21
180.020564
  0
LINE
  8
CSLAYER1
  6
CONTINUOUS
 62
     7
 10
490.758657
 20
188.933478
 11
490.685344
 21
188.933478
  0
LINE
  8
CSLAYER1
  6
CONTINUOUS
 62
     7
 10
488.214096
 20
180.020564
 11
490.685344
 21
188.933478
  0
LINE
  8
CSLAYER1
  6
CONTINUOUS
 62
     7
 10
491.718081
 20
190.852326
 11
490.253761
 21
190.852326
  0
LINE
  8
CSLAYER1
  6
CONTINUOUS
 62
     7
 10
485.168967
 20
190.852326
 11
487.647265
 21
182.040668
  0
LINE
  8
CSLAYER1
  6
CONTINUOUS
 62
     7
 10
487.742403
 20
182.040668
 11
490.253761
 21
190.852326
  0
INSERT
  8
CSLAYER1
  2
BLKF0009
 10
0.0
 20
0.0
 30
0.0
  0
INSERT
  8
CSLAYER1
  2
BLKF0010
 10
0.0
 20
0.0
 30
0.0
  0
LINE
  8
CSLAYER1
  6
CONTINUOUS
 62
     7
 10
500.579629
 20
188.155887
 11
502.955934
 21
188.155887
  0
LINE
  8
CSLAYER1
  6
CONTINUOUS
 62
     7
 10
500.579629
 20
188.155887
 11
500.579629
 21
182.354277
  0
LINE
  8
CSLAYER1
  6
CONTINUOUS
 62
     7
 10
500.579629
 20
182.354277
 11
501.104128
 21
182.354277
  0
LINE
  8
CSLAYER1
  6
CONTINUOUS
 62
     7
 10
501.104128
 20
182.354277
 11
501.104128
 21
184.655654
  0
LINE
  8
CSLAYER1
  6
CONTINUOUS
 62
     7
 10
501.104128
 20
184.655654
 11
502.399323
 21
184.655654
  0
LINE
  8
CSLAYER1
  6
CONTINUOUS
 62
     7
 10
503.555364
 20
182.354277
 11
504.326056
 21
182.354277
  0
LINE
  8
CSLAYER1
  6
CONTINUOUS
 62
     7
 10
501.104128
 20
185.404938
 11
501.104128
 21
187.417305
  0
LINE
  8
CSLAYER1
  6
CONTINUOUS
 62
     7
 10
501.104128
 20
187.417305
 11
502.784668
 21
187.417305
  0
LINE
  8
CSLAYER1
  6
CONTINUOUS
 62
     7
 10
501.104128
 20
185.404938
 11
502.870302
 21
185.404938
  0
LINE
  8
CSLAYER1
  6
CONTINUOUS
 62
     7
 10
503.555364
 20
182.354277
 11
502.399323
 21
184.655654
  0
ARC
  8
CSLAYER1
  6
CONTINUOUS
 62
     7
 10
502.747440
 20
186.893901
 40
1.279092
 50
16.813305
 51
80.618849
  0
ARC
  8
CSLAYER1
  6
CONTINUOUS
 62
     7
 10
501.468364
 20
186.444188
 40
2.634267
 50
-24.514508
 51
18.129563
  0
ARC
  8
CSLAYER1
  6
CONTINUOUS
 62
     7
 10
502.814254
 20
185.834052
 40
1.156560
 50
280.212276
 51
336.078889
  0
ARC
  8
CSLAYER1
  6
CONTINUOUS
 62
     7
 10
502.781347
 20
186.712328
 40
0.686454
 50
7.898580
 51
53.559298
  0
ARC
  8
CSLAYER1
  6
CONTINUOUS
 62
     7
 10
501.946107
 20
186.438959
 40
1.559162
 50
-25.395544
 51
13.640759
  0
ARC
  8
CSLAYER1
  6
CONTINUOUS
 62
     7
 10
502.759896
 20
186.054957
 40
0.659328
 50
279.639685
 51
334.420970
  0
LINE
  8
CSLAYER1
  6
CONTINUOUS
 62
     7
 10
503.019307
 20
184.695815
 11
504.326056
 21
182.354277
  0
ARC
  8
CSLAYER1
  6
CONTINUOUS
 62
     7
 10
502.761564
 20
186.744350
 40
0.673351
 50
50.585215
 51
88.033532
  0
LINE
  8
CSLAYER1
  6
CONTINUOUS
 62
     7
 10
487.750458
 20
166.155035
 11
489.100458
 21
166.155035
  0
LINE
  8
CSLAYER1
  6
CONTINUOUS
 62
     7
 10
487.750458
 20
176.955035
 11
489.100458
 21
176.955035
  0
LINE
  8
CSLAYER1
  6
CONTINUOUS
 62
     7
 10
487.750458
 20
175.076775
 11
487.750458
 21
166.155035
  0
LINE
  8
CSLAYER1
  6
CONTINUOUS
 62
     7
 10
493.052275
 20
176.955035
 11
494.688642
 21
176.955035
  0
LINE
  8
CSLAYER1
  6
CONTINUOUS
 62
     7
 10
487.280892
 20
175.076775
 11
487.750458
 21
175.076775
  0
LINE
  8
CSLAYER1
  6
CONTINUOUS
 62
     7
 10
487.750458
 20
176.955035
 11
487.280892
 21
175.076775
  0
LINE
  8
CSLAYER1
  6
CONTINUOUS
 62
     7
 10
490.720458
 20
174.607209
 11
490.720458
 21
168.502860
  0
LINE
  8
CSLAYER1
  6
CONTINUOUS
 62
     7
 10
492.070458
 20
174.623217
 11
492.070458
 21
168.502860
  0
LINE
  8
CSLAYER1
  6
CONTINUOUS
 62
     7
 10
493.052275
 20
175.605035
 11
494.688642
 21
175.605035
  0
ARC
  8
CSLAYER1
  6
CONTINUOUS
 62
     7
 10
493.052275
 20
174.623217
 40
0.981818
 50
90.000000
 51
180.000000
  0
ARC
  8
CSLAYER1
  6
CONTINUOUS
 62
     7
 10
493.052275
 20
174.623217
 40
2.331818
 50
90.000000
 51
180.000000
  0
ARC
  8
CSLAYER1
  6
CONTINUOUS
 62
     7
 10
493.052275
 20
168.486854
 40
0.981818
 50
180.000000
 51
270.000000
  0
ARC
  8
CSLAYER1
  6
CONTINUOUS
 62
     7
 10
493.052275
 20
168.486854
 40
2.331818
 50
180.000000
 51
270.000000
  0
LINE
  8
CSLAYER1
  6
CONTINUOUS
 62
     7
 10
497.020461
 20
174.607209
 11
497.020461
 21
168.502860
  0
LINE
  8
CSLAYER1
  6
CONTINUOUS
 62
     7
 10
495.670461
 20
174.623217
 11
495.670461
 21
168.502860
  0
ARC
  8
CSLAYER1
  6
CONTINUOUS
 62
     7
 10
494.688642
 20
174.623217
 40
0.981818
 50
0.000000
 51
90.000000
  0
ARC
  8
CSLAYER1
  6
CONTINUOUS
 62
     7
 10
494.688642
 20
174.623217
 40
2.331818
 50
0.000000
 51
90.000000
  0
ARC
  8
CSLAYER1
  6
CONTINUOUS
 62
     7
 10
494.688642
 20
168.486854
 40
0.981818
 50
270.000000
 51
360.000000
  0
ARC
  8
CSLAYER1
  6
CONTINUOUS
 62
     7
 10
494.688642
 20
168.486854
 40
2.331818
 50
270.000000
 51
360.000000
  0
LINE
  8
CSLAYER1
  6
CONTINUOUS
 62
     7
 10
493.052275
 20
167.505035
 11
494.688642
 21
167.505035
  0
LINE
  8
CSLAYER1
  6
CONTINUOUS
 62
     7
 10
493.052275
 20
166.155035
 11
494.688642
 21
166.155035
  0
LINE
  8
CSLAYER1
  6
CONTINUOUS
 62
     7
 10
489.100458
 20
176.955035
 11
489.100458
 21
166.155035
  0
LINE
  8
CSLAYER1
  6
CONTINUOUS
 62
     7
 10
512.890112
 20
166.155035
 11
514.240112
 21
166.155035
  0
LINE
  8
CSLAYER1
  6
CONTINUOUS
 62
     7
 10
512.890112
 20
176.955035
 11
514.240112
 21
176.955035
  0
LINE
  8
CSLAYER1
  6
CONTINUOUS
 62
     7
 10
512.890112
 20
175.076775
 11
512.890112
 21
166.155035
  0
LINE
  8
CSLAYER1
  6
CONTINUOUS
 62
     7
 10
512.420546
 20
175.076775
 11
512.890112
 21
175.076775
  0
LINE
  8
CSLAYER1
  6
CONTINUOUS
 62
     7
 10
512.890112
 20
176.955035
 11
512.420546
 21
175.076775
  0
LINE
  8
CSLAYER1
  6
CONTINUOUS
 62
     7
 10
514.240112
 20
176.955035
 11
514.240112
 21
166.155035
  0
LINE
  8
CSLAYER1
  6
CONTINUOUS
 62
     7
 10
524.960795
 20
176.967237
 11
524.960795
 21
170.862889
  0
LINE
  8
CSLAYER1
  6
CONTINUOUS
 62
     7
 10
524.960795
 20
176.967237
 11
531.260798
 21
176.967237
  0
LINE
  8
CSLAYER1
  6
CONTINUOUS
 62
     7
 10
527.778187
 20
166.167237
 11
528.443407
 21
166.167237
  0
LINE
  8
CSLAYER1
  6
CONTINUOUS
 62
     7
 10
527.778187
 20
173.680281
 11
528.443407
 21
173.680281
  0
LINE
  8
CSLAYER1
  6
CONTINUOUS
 62
     7
 10
524.960795
 20
170.862889
 11
526.310795
 21
170.862889
  0
LINE
  8
CSLAYER1
  6
CONTINUOUS
 62
     7
 10
524.960795
 20
168.984629
 11
526.310795
 21
168.984629
  0
LINE
  8
CSLAYER1
  6
CONTINUOUS
 62
     7
 10
531.260798
 20
170.862889
 11
531.260798
 21
168.984629
  0
ARC
  8
CSLAYER1
  6
CONTINUOUS
 62
     7
 10
527.778187
 20
168.984629
 40
2.817391
 50
180.000000
 51
270.000000
  0
ARC
  8
CSLAYER1
  6
CONTINUOUS
 62
     7
 10
528.443407
 20
168.984629
 40
2.817391
 50
270.000000
 51
360.000000
  0
ARC
  8
CSLAYER1
  6
CONTINUOUS
 62
     7
 10
528.443407
 20
170.862889
 40
2.817391
 50
0.000000
 51
90.000000
  0
ARC
  8
CSLAYER1
  6
CONTINUOUS
 62
     7
 10
527.778187
 20
170.862889
 40
2.817391
 50
90.000000
 51
121.388166
  0
LINE
  8
CSLAYER1
  6
CONTINUOUS
 62
     7
 10
526.310795
 20
175.617237
 11
531.260798
 21
175.617237
  0
LINE
  8
CSLAYER1
  6
CONTINUOUS
 62
     7
 10
531.260798
 20
176.967237
 11
531.260798
 21
175.617237
  0
LINE
  8
CSLAYER1
  6
CONTINUOUS
 62
     7
 10
526.310795
 20
175.617237
 11
526.310795
 21
173.267979
  0
ARC
  8
CSLAYER1
  6
CONTINUOUS
 62
     7
 10
527.778187
 20
168.984629
 40
1.467391
 50
180.000000
 51
270.000000
  0
LINE
  8
CSLAYER1
  6
CONTINUOUS
 62
     7
 10
527.778187
 20
167.517237
 11
528.443407
 21
167.517237
  0
ARC
  8
CSLAYER1
  6
CONTINUOUS
 62
     7
 10
528.443407
 20
168.984629
 40
1.469355
 50
270.000000
 51
360.000000
  0
LINE
  8
CSLAYER1
  6
CONTINUOUS
 62
     7
 10
529.910798
 20
170.862889
 11
529.910798
 21
168.984629
  0
ARC
  8
CSLAYER1
  6
CONTINUOUS
 62
     7
 10
528.443407
 20
170.862889
 40
1.467391
 50
0.000000
 51
90.000000
  0
LINE
  8
CSLAYER1
  6
CONTINUOUS
 62
     7
 10
527.778187
 20
172.330281
 11
528.443407
 21
172.330281
  0
ARC
  8
CSLAYER1
  6
CONTINUOUS
 62
     7
 10
527.778187
 20
170.862889
 40
1.467391
 50
90.000000
 51
180.000000
  0
LINE
  8
CSLAYER1
  6
CONTINUOUS
 62
     7
 10
516.260792
 20
166.167237
 11
516.260792
 21
168.867237
  0
LINE
  8
CSLAYER1
  6
CONTINUOUS
 62
     7
 10
516.260792
 20
166.167237
 11
522.560795
 21
166.167237
  0
LINE
  8
CSLAYER1
  6
CONTINUOUS
 62
     7
 10
519.078183
 20
176.967237
 11
519.743404
 21
176.967237
  0
LINE
  8
CSLAYER1
  6
CONTINUOUS
 62
     7
 10
516.260792
 20
174.149846
 11
517.610792
 21
174.149846
  0
LINE
  8
CSLAYER1
  6
CONTINUOUS
 62
     7
 10
522.560795
 20
173.152020
 11
522.560795
 21
174.149846
  0
ARC
  8
CSLAYER1
  6
CONTINUOUS
 62
     7
 10
519.078183
 20
174.149846
 40
2.817391
 50
90.000000
 51
180.000000
  0
ARC
  8
CSLAYER1
  6
CONTINUOUS
 62
     7
 10
519.743404
 20
174.149846
 40
2.817391
 50
0.000000
 51
90.000000
  0
LINE
  8
CSLAYER1
  6
CONTINUOUS
 62
     7
 10
517.610792
 20
167.517237
 11
522.560795
 21
167.517237
  0
LINE
  8
CSLAYER1
  6
CONTINUOUS
 62
     7
 10
522.560795
 20
166.167237
 11
522.560795
 21
167.517237
  0
ARC
  8
CSLAYER1
  6
CONTINUOUS
 62
     7
 10
519.078183
 20
174.149846
 40
1.467391
 50
90.000000
 51
180.000000
  0
LINE
  8
CSLAYER1
  6
CONTINUOUS
 62
     7
 10
519.078183
 20
175.617237
 11
519.743404
 21
175.617237
  0
ARC
  8
CSLAYER1
  6
CONTINUOUS
 62
     7
 10
519.743404
 20
174.149846
 40
1.469355
 50
0.000000
 51
90.000000
  0
LINE
  8
CSLAYER1
  6
CONTINUOUS
 62
     7
 10
521.210795
 20
173.152020
 11
521.210795
 21
174.149846
  0
ARC
  8
CSLAYER1
  6
CONTINUOUS
 62
     7
 10
519.743404
 20
173.152020
 40
1.467391
 50
270.000000
 51
360.000000
  0
LINE
  8
CSLAYER1
  6
CONTINUOUS
 62
     7
 10
519.078183
 20
171.684629
 11
519.743404
 21
171.684629
  0
ARC
  8
CSLAYER1
  6
CONTINUOUS
 62
     7
 10
519.078183
 20
168.867237
 40
2.817391
 50
90.000000
 51
180.000000
  0
ARC
  8
CSLAYER1
  6
CONTINUOUS
 62
     7
 10
519.078183
 20
168.867237
 40
1.467391
 50
90.000000
 51
180.000000
  0
LINE
  8
CSLAYER1
  6
CONTINUOUS
 62
     7
 10
519.078183
 20
170.334629
 11
519.743404
 21
170.334629
  0
LINE
  8
CSLAYER1
  6
CONTINUOUS
 62
     7
 10
517.610792
 20
167.517237
 11
517.610792
 21
168.867237
  0
ARC
  8
CSLAYER1
  6
CONTINUOUS
 62
     7
 10
519.743404
 20
173.152020
 40
2.817391
 50
270.000000
 51
360.000000
  0
LINE
  8
CSLAYER4
  6
CONTINUOUS
 62
     7
 10
514.357080
 20
213.514269
 11
514.355382
 21
213.493680
  0
LINE
  8
CSLAYER4
  6
CONTINUOUS
 62
     7
 10
323.870547
 20
234.140069
 11
315.603867
 21
235.643102
  0
LINE
  8
CSLAYER4
  6
CONTINUOUS
 62
     7
 10
324.486384
 20
233.402167
 11
324.486384
 21
215.154031
  0
ARC
  8
CSLAYER4
  6
CONTINUOUS
 62
     7
 10
323.777493
 20
233.499065
 40
0.750000
 50
0.000000
 51
79.695154
  0
ARC
  8
CSLAYER4
  6
CONTINUOUS
 62
     7
 10
323.736384
 20
215.154031
 40
0.750000
 50
280.304846
 51
360.000000
  0
LINE
  8
CSLAYER4
  6
CONTINUOUS
 62
     7
 10
323.870547
 20
214.416128
 11
316.686777
 21
213.109988
  0
LINE
  8
CSLAYER1
  6
CENTER
 62
     7
 10
375.851557
 20
486.980974
 11
714.637320
 21
486.980974
  0
LINE
  8
CSLAYER1
  6
CENTER
 62
     7
 10
471.984073
 20
568.744313
 11
459.355520
 21
599.232337
  0
CIRCLE
  8
CSLAYER1
  6
CONTINUOUS
 62
     7
 10
505.851557
 20
486.980974
 40
125.000000
  0
CIRCLE
  8
CSLAYER1
  6
CENTER
 62
     7
 10
505.851557
 20
486.980974
 40
105.000000
  0
CIRCLE
  8
CSLAYER1
  6
CONTINUOUS
 62
     7
 10
465.669797
 20
583.988325
 40
11.500000
  0
LINE
  8
CSLAYER1
  6
CENTER
 62
     7
 10
424.088218
 20
520.848458
 11
393.600194
 21
533.477011
  0
CIRCLE
  8
CSLAYER1
  6
CONTINUOUS
 62
     7
 10
408.844206
 20
527.162735
 40
11.500000
  0
LINE
  8
CSLAYER1
  6
CENTER
 62
     7
 10
471.984073
 20
405.217636
 11
459.355520
 21
374.729611
  0
CIRCLE
  8
CSLAYER1
  6
CONTINUOUS
 62
     7
 10
465.669797
 20
389.973623
 40
11.500000
  0
LINE
  8
CSLAYER1
  6
CENTER
 62
     7
 10
424.088218
 20
453.113490
 11
393.600194
 21
440.484937
  0
CIRCLE
  8
CSLAYER1
  6
CONTINUOUS
 62
     7
 10
408.844206
 20
446.799214
 40
11.500000
  0
LINE
  8
CSLAYER1
  6
CENTER
 62
     7
 10
539.719041
 20
568.744313
 11
552.347594
 21
599.232337
  0
CIRCLE
  8
CSLAYER1
  6
CONTINUOUS
 62
     7
 10
546.033317
 20
583.988325
 40
11.500000
  0
LINE
  8
CSLAYER1
  6
CENTER
 62
     7
 10
587.614896
 20
520.848458
 11
618.102920
 21
533.477011
  0
CIRCLE
  8
CSLAYER1
  6
CONTINUOUS
 62
     7
 10
602.858908
 20
527.162735
 40
11.500000
  0
LINE
  8
CSLAYER1
  6
CENTER
 62
     7
 10
539.719041
 20
405.217636
 11
552.347594
 21
374.729611
  0
CIRCLE
  8
CSLAYER1
  6
CONTINUOUS
 62
     7
 10
546.033317
 20
389.973623
 40
11.500000
  0
LINE
  8
CSLAYER1
  6
CENTER
 62
     7
 10
587.614896
 20
453.113490
 11
618.102920
 21
440.484937
  0
CIRCLE
  8
CSLAYER1
  6
CONTINUOUS
 62
     7
 10
602.858908
 20
446.799214
 40
11.500000
  0
ARC
  8
CSLAYER1
  6
CONTINUOUS
 62
     7
 10
477.851557
 20
610.980974
 40
5.000000
 50
346.587180
 51
360.000000
  0
ARC
  8
CSLAYER1
  6
CONTINUOUS
 62
     7
 10
533.851557
 20
610.980974
 40
5.000000
 50
180.000000
 51
193.412820
  0
CIRCLE
  8
CSLAYER1
  6
CONTINUOUS
 62
     7
 10
505.851557
 20
486.980974
 40
62.500000
  0
LINE
  8
CSLAYER1
  6
CENTER
 62
     7
 10
505.851557
 20
618.482266
 11
505.851557
 21
356.980974
  0
LINE
  8
CSLAYER1
  6
CONTINUOUS
 62
     3
 10
663.930324
 20
503.790825
 11
663.930324
 21
506.040825
  0
LINE
  8
CSLAYER1
  6
CONTINUOUS
 62
     7
 10
654.251538
 20
465.462987
 11
661.933878
 21
465.921634
  0
LINE
  8
CSLAYER1
  6
CONTINUOUS
 62
     7
 10
628.709299
 20
463.938077
 11
661.803340
 21
465.913841
  0
LINE
  8
CSLAYER1
  6
CONTINUOUS
 62
     7
 10
661.933878
 20
465.921634
 11
663.930324
 21
468.171596
  0
LINE
  8
CSLAYER1
  6
CONTINUOUS
 62
     7
 10
663.930324
 20
506.040825
 11
661.803340
 21
508.167809
  0
LINE
  8
CSLAYER1
  6
CONTINUOUS
 62
     7
 10
663.930324
 20
506.040825
 11
663.930324
 21
468.171596
  0
LINE
  8
CSLAYER1
  6
CONTINUOUS
 62
     7
 10
666.997027
 20
504.032303
 11
666.997027
 21
486.981268
  0
LINE
  8
CSLAYER1
  6
CONTINUOUS
 62
     7
 10
675.997027
 20
499.513237
 11
675.997027
 21
486.981268
  0
LINE
  8
CSLAYER1
  6
CONTINUOUS
 62
     7
 10
664.496342
 20
505.112323
 11
666.049363
 21
505.030933
  0
LINE
  8
CSLAYER1
  6
CONTINUOUS
 62
     7
 10
674.392539
 20
501.260324
 11
667.997027
 21
501.260324
  0
LINE
  8
CSLAYER1
  6
CONTINUOUS
 62
     7
 10
675.894142
 20
499.659471
 11
675.258564
 21
500.760324
  0
LINE
  8
CSLAYER1
  6
CONTINUOUS
 62
     7
 10
681.747027
 20
496.125605
 11
676.260167
 21
499.293445
  0
LINE
  8
CSLAYER1
  6
CONTINUOUS
 62
     7
 10
681.997027
 20
495.692592
 11
681.997027
 21
486.981268
  0
LINE
  8
CSLAYER1
  6
CONTINUOUS
 62
     7
 10
674.969889
 20
494.198146
 11
666.997027
 21
494.198146
  0
ARC
  8
CSLAYER1
  6
CONTINUOUS
 62
     7
 10
665.997027
 20
504.032303
 40
1.000000
 50
0.000000
 51
87.000000
  0
ARC
  8
CSLAYER1
  6
CONTINUOUS
 62
     7
 10
667.997027
 20
502.260324
 40
1.000000
 50
180.000000
 51
270.000000
  0
ARC
  8
CSLAYER1
  6
CONTINUOUS
 62
     7
 10
681.497027
 20
495.692592
 40
0.500000
 50
0.000000
 51
60.000000
  0
ARC
  8
CSLAYER1
  6
CONTINUOUS
 62
     7
 10
669.416796
 20
497.729235
 40
6.580686
 50
-32.451377
 51
27.532576
  0
ARC
  8
CSLAYER1
  6
CONTINUOUS
 62
     7
 10
650.129852
 20
486.981268
 40
25.867175
 50
0.000000
 51
16.200384
  0
ARC
  8
CSLAYER1
  6
CONTINUOUS
 62
     7
 10
676.760167
 20
500.159471
 40
1.000000
 50
210.000000
 51
240.000000
  0
ARC
  8
CSLAYER1
  6
CONTINUOUS
 62
     7
 10
674.392539
 20
500.260324
 40
1.000000
 50
30.000000
 51
90.000000
  0
LINE
  8
CSLAYER1
  6
CONTINUOUS
 62
     7
 10
664.496342
 20
505.112323
 11
663.997027
 21
504.662738
  0
LINE
  8
CSLAYER1
  6
CONTINUOUS
 62
     7
 10
664.496342
 20
505.112323
 11
664.496342
 21
486.981268
  0
LINE
  8
CSLAYER1
  6
CONTINUOUS
 62
     7
 10
687.497027
 20
491.481268
 11
685.097027
 21
493.881268
  0
LINE
  8
CSLAYER1
  6
CONTINUOUS
 62
     7
 10
681.997027
 20
493.881268
 11
685.097027
 21
493.881268
  0
LINE
  8
CSLAYER1
  6
CONTINUOUS
 62
     7
 10
687.497027
 20
491.481268
 11
687.497027
 21
486.981268
  0
LINE
  8
CSLAYER1
  6
CONTINUOUS
 62
     7
 10
685.097027
 20
493.881268
 11
685.097027
 21
486.981268
  0
LINE
  8
CSLAYER1
  6
CONTINUOUS
 62
     7
 10
705.497027
 20
488.981268
 11
705.497027
 21
486.981268
  0
LINE
  8
CSLAYER1
  6
CONTINUOUS
 62
     7
 10
704.497027
 20
489.981268
 11
705.497027
 21
488.981268
  0
LINE
  8
CSLAYER1
  6
CONTINUOUS
 62
     7
 10
705.497027
 20
484.981268
 11
705.497027
 21
486.981268
  0
LINE
  8
CSLAYER1
  6
CONTINUOUS
 62
     7
 10
688.497027
 20
498.481268
 11
689.697027
 21
498.481268
  0
LINE
  8
CSLAYER1
  6
CONTINUOUS
 62
     7
 10
698.497027
 20
511.981268
 11
692.372544
 21
511.981268
  0
ARC
  8
CSLAYER1
  6
CONTINUOUS
 62
     7
 10
698.497027
 20
510.981268
 40
1.000000
 50
0.000000
 51
90.000000
  0
ARC
  8
CSLAYER1
  6
CONTINUOUS
 62
     7
 10
692.372544
 20
510.981268
 40
1.000000
 50
90.000000
 51
172.405357
  0
LINE
  8
CSLAYER1
  6
CONTINUOUS
 62
     7
 10
699.497027
 20
491.931013
 11
699.497027
 21
510.981268
  0
LINE
  8
CSLAYER1
  6
CONTINUOUS
 62
     7
 10
691.381316
 20
511.113431
 11
689.697027
 21
498.481268
  0
LINE
  8
CSLAYER1
  6
CONTINUOUS
 62
     7
 10
699.497027
 20
489.981268
 11
699.497027
 21
486.981268
  0
LINE
  8
CSLAYER1
  6
CONTINUOUS
 62
     7
 10
704.050445
 20
492.754770
 11
699.497027
 21
492.754770
  0
LINE
  8
CSLAYER1
  6
CONTINUOUS
 62
     7
 10
704.050445
 20
489.868019
 11
699.497027
 21
489.868019
  0
LINE
  8
CSLAYER1
  6
CONTINUOUS
 62
     7
 10
704.497027
 20
491.981268
 11
704.050445
 21
492.754770
  0
ARC
  8
CSLAYER1
  6
CONTINUOUS
 62
     7
 10
701.218195
 20
491.311395
 40
3.178833
 50
-27.004365
 51
27.004365
  0
ARC
  8
CSLAYER1
  6
CONTINUOUS
 62
     7
 10
692.201569
 20
486.981268
 40
12.195458
 50
0.000000
 51
13.692271
  0
LINE
  8
CSLAYER1
  6
CONTINUOUS
 62
     7
 10
704.497027
 20
491.981268
 11
704.497027
 21
486.981268
  0
LINE
  8
CSLAYER1
  6
CONTINUOUS
 62
     7
 10
699.497027
 20
492.754770
 11
699.497027
 21
486.981268
  0
LINE
  8
CSLAYER1
  6
CONTINUOUS
 62
     7
 10
689.697027
 20
498.481268
 11
689.697027
 21
486.981268
  0
LINE
  8
CSLAYER1
  6
CONTINUOUS
 62
     7
 10
691.381316
 20
511.113431
 11
691.381316
 21
486.981268
  0
LINE
  8
CSLAYER1
  6
CONTINUOUS
 62
     7
 10
698.497027
 20
489.867542
 11
692.381316
 21
489.867542
  0
LINE
  8
CSLAYER1
  6
CONTINUOUS
 62
     7
 10
698.497027
 20
501.075255
 11
692.381316
 21
501.075255
  0
LINE
  8
CSLAYER1
  6
CONTINUOUS
 62
     7
 10
698.497027
 20
509.799449
 11
692.381316
 21
509.799449
  0
LINE
  8
CSLAYER1
  6
CONTINUOUS
 62
     7
 10
698.497027
 20
505.537617
 11
692.381316
 21
505.537617
  0
ARC
  8
CSLAYER1
  6
CONTINUOUS
 62
     7
 10
688.497027
 20
497.481268
 40
1.000000
 50
90.000000
 51
180.000000
  0
LINE
  8
CSLAYER1
  6
CONTINUOUS
 62
     7
 10
687.497027
 20
497.481268
 11
687.497027
 21
486.981268
  0
LINE
  8
CSLAYER1
  6
CONTINUOUS
 62
     7
 10
666.997027
 20
469.930232
 11
666.997027
 21
486.981268
  0
LINE
  8
CSLAYER1
  6
CONTINUOUS
 62
     7
 10
675.997027
 20
474.449298
 11
675.997027
 21
486.981268
  0
LINE
  8
CSLAYER1
  6
CONTINUOUS
 62
     7
 10
664.496342
 20
468.850212
 11
666.049363
 21
468.931603
  0
LINE
  8
CSLAYER1
  6
CONTINUOUS
 62
     7
 10
674.392539
 20
472.702211
 11
667.997027
 21
472.702211
  0
LINE
  8
CSLAYER1
  6
CONTINUOUS
 62
     7
 10
675.894142
 20
474.303064
 11
675.258564
 21
473.202211
  0
LINE
  8
CSLAYER1
  6
CONTINUOUS
 62
     7
 10
681.747027
 20
477.836930
 11
676.260167
 21
474.669090
  0
LINE
  8
CSLAYER1
  6
CONTINUOUS
 62
     7
 10
681.997027
 20
478.269943
 11
681.997027
 21
486.981268
  0
LINE
  8
CSLAYER1
  6
CONTINUOUS
 62
     7
 10
674.969889
 20
479.764389
 11
666.997027
 21
479.764389
  0
ARC
  8
CSLAYER1
  6
CONTINUOUS
 62
     7
 10
665.997027
 20
469.930232
 40
1.000000
 50
273.000000
 51
360.000000
  0
ARC
  8
CSLAYER1
  6
CONTINUOUS
 62
     7
 10
667.997027
 20
471.702211
 40
1.000000
 50
90.000000
 51
180.000000
  0
ARC
  8
CSLAYER1
  6
CONTINUOUS
 62
     7
 10
681.497027
 20
478.269943
 40
0.500000
 50
300.000000
 51
360.000000
  0
ARC
  8
CSLAYER1
  6
CONTINUOUS
 62
     7
 10
669.416796
 20
476.233300
 40
6.580686
 50
-27.532576
 51
32.451377
  0
ARC
  8
CSLAYER1
  6
CONTINUOUS
 62
     7
 10
650.129852
 20
486.981268
 40
25.867175
 50
343.799616
 51
360.000000
  0
ARC
  8
CSLAYER1
  6
CONTINUOUS
 62
     7
 10
676.760167
 20
473.803064
 40
1.000000
 50
120.000000
 51
150.000000
  0
ARC
  8
CSLAYER1
  6
CONTINUOUS
 62
     7
 10
674.392539
 20
473.702211
 40
1.000000
 50
270.000000
 51
330.000000
  0
LINE
  8
CSLAYER1
  6
CONTINUOUS
 62
     7
 10
664.496342
 20
468.850212
 11
663.997027
 21
469.299797
  0
LINE
  8
CSLAYER1
  6
CONTINUOUS
 62
     7
 10
664.496342
 20
468.850212
 11
664.496342
 21
486.981268
  0
LINE
  8
CSLAYER1
  6
CONTINUOUS
 62
     7
 10
687.497027
 20
482.481268
 11
685.097027
 21
480.081268
  0
LINE
  8
CSLAYER1
  6
CONTINUOUS
 62
     7
 10
681.997027
 20
480.081268
 11
685.097027
 21
480.081268
  0
LINE
  8
CSLAYER1
  6
CONTINUOUS
 62
     7
 10
687.497027
 20
482.481268
 11
687.497027
 21
486.981268
  0
LINE
  8
CSLAYER1
  6
CONTINUOUS
 62
     7
 10
685.097027
 20
480.081268
 11
685.097027
 21
486.981268
  0
LINE
  8
CSLAYER1
  6
CONTINUOUS
 62
     7
 10
705.497027
 20
484.981268
 11
705.497027
 21
486.981268
  0
LINE
  8
CSLAYER1
  6
CONTINUOUS
 62
     7
 10
704.497027
 20
483.981268
 11
705.497027
 21
484.981268
  0
LINE
  8
CSLAYER1
  6
CONTINUOUS
 62
     7
 10
705.497027
 20
488.981268
 11
705.497027
 21
486.981268
  0
LINE
  8
CSLAYER1
  6
CONTINUOUS
 62
     7
 10
688.497027
 20
475.481268
 11
689.697027
 21
475.481268
  0
LINE
  8
CSLAYER1
  6
CONTINUOUS
 62
     7
 10
698.497027
 20
461.981268
 11
692.372544
 21
461.981268
  0
ARC
  8
CSLAYER1
  6
CONTINUOUS
 62
     7
 10
698.497027
 20
462.981268
 40
1.000000
 50
270.000000
 51
360.000000
  0
ARC
  8
CSLAYER1
  6
CONTINUOUS
 62
     7
 10
692.372544
 20
462.981268
 40
1.000000
 50
187.594643
 51
270.000000
  0
LINE
  8
CSLAYER1
  6
CONTINUOUS
 62
     7
 10
699.497027
 20
482.031523
 11
699.497027
 21
462.981268
  0
LINE
  8
CSLAYER1
  6
CONTINUOUS
 62
     7
 10
691.381316
 20
462.849104
 11
689.697027
 21
475.481268
  0
LINE
  8
CSLAYER1
  6
CONTINUOUS
 62
     7
 10
699.497027
 20
483.981268
 11
699.497027
 21
486.981268
  0
LINE
  8
CSLAYER1
  6
CONTINUOUS
 62
     7
 10
704.050445
 20
481.207765
 11
699.497027
 21
481.207765
  0
LINE
  8
CSLAYER1
  6
CONTINUOUS
 62
     7
 10
704.050445
 20
484.094516
 11
699.497027
 21
484.094516
  0
LINE
  8
CSLAYER1
  6
CONTINUOUS
 62
     7
 10
704.497027
 20
481.981268
 11
704.050445
 21
481.207765
  0
ARC
  8
CSLAYER1
  6
CONTINUOUS
 62
     7
 10
701.218195
 20
482.651141
 40
3.178833
 50
-27.004365
 51
27.004365
  0
ARC
  8
CSLAYER1
  6
CONTINUOUS
 62
     7
 10
692.201569
 20
486.981268
 40
12.195458
 50
346.307729
 51
360.000000
  0
LINE
  8
CSLAYER1
  6
CONTINUOUS
 62
     7
 10
704.497027
 20
481.981268
 11
704.497027
 21
486.981268
  0
LINE
  8
CSLAYER1
  6
CONTINUOUS
 62
     7
 10
699.497027
 20
481.207765
 11
699.497027
 21
486.981268
  0
LINE
  8
CSLAYER1
  6
CONTINUOUS
 62
     7
 10
689.697027
 20
475.481268
 11
689.697027
 21
486.981268
  0
LINE
  8
CSLAYER1
  6
CONTINUOUS
 62
     7
 10
691.381316
 20
462.849104
 11
691.381316
 21
486.981268
  0
LINE
  8
CSLAYER1
  6
CONTINUOUS
 62
     7
 10
698.497027
 20
484.094993
 11
692.381316
 21
484.094993
  0
LINE
  8
CSLAYER1
  6
CONTINUOUS
 62
     7
 10
698.497027
 20
472.887280
 11
692.381316
 21
472.887280
  0
LINE
  8
CSLAYER1
  6
CONTINUOUS
 62
     7
 10
698.497027
 20
464.163086
 11
692.381316
 21
464.163086
  0
LINE
  8
CSLAYER1
  6
CONTINUOUS
 62
     7
 10
698.497027
 20
468.424918
 11
692.381316
 21
468.424918
  0
ARC
  8
CSLAYER1
  6
CONTINUOUS
 62
     7
 10
688.497027
 20
476.481268
 40
1.000000
 50
180.000000
 51
270.000000
  0
LINE
  8
CSLAYER1
  6
CONTINUOUS
 62
     7
 10
687.497027
 20
476.481268
 11
687.497027
 21
486.981268
  0
LINE
  8
CSLAYER1
  6
CONTINUOUS
 62
     7
 10
628.686532
 20
510.144932
 11
661.803340
 21
508.167809
  0
LINE
  8
CSLAYER1
  6
CONTINUOUS
 62
     7
 10
633.430324
 20
85.108919
 11
383.430324
 21
85.108919
  0
LINE
  8
CSLAYER1
  6
CONTINUOUS
 62
     7
 10
633.430324
 20
64.608919
 11
383.430324
 21
64.608919
  0
LINE
  8
CSLAYER1
  6
CONTINUOUS
 62
     7
 10
319.834465
 20
85.108919
 11
69.834465
 21
85.108919
  0
LINE
  8
CSLAYER1
  6
CONTINUOUS
 62
     7
 10
319.834465
 20
64.608919
 11
69.834465
 21
64.608919
  0
LINE
  8
CSLAYER1
  6
CONTINUOUS
 62
     7
 10
319.834465
 20
296.108919
 11
69.834465
 21
296.108919
  0
LINE
  8
CSLAYER1
  6
CONTINUOUS
 62
     7
 10
319.834465
 20
316.608919
 11
70.129740
 21
316.608919
  0
LINE
  8
CSLAYER1
  6
CONTINUOUS
 62
     7
 10
633.430324
 20
316.608919
 11
383.430324
 21
316.608919
  0
LINE
  8
CSLAYER1
  6
CONTINUOUS
 62
     7
 10
633.430324
 20
296.108919
 11
383.430324
 21
296.108919
  0
ENDSEC
  0
EOF
